Oops, an error
Loading. Please wait.

Good Mourning Tab

12,588 views 9 this week
4 commentsread comments
1 2 3 4 5
excellent!
x 4
Autoscroll
+/-
esc
set tempo
stop
Contributor
Difficulty
novice
Hey! There's an official Ultimate Guitar app which is ideal
for learning songs when you're away from computer. Get the app
WARNING: You are trying to view
                                    content from Ultimate-Guitar.com
                                    in an unauthorized application,
                                    which is prohibited.

                                    Please use an official Ultimate
                                    Guitar Tabs application for iPhone,
                                    iPad or Android to access legitimate
                                    chords, guitar, bass, and drum tabs
                                    from Ultimate-Guitar.com database.

                                    Type "ultimate guitar tabs" in Apple
                                    App Store's or Android Market's
                                    search to find the application.
Track 1- This Could Be Love


Intro x 5
e|-----4-4-5-5-4-4-----4-5-5-5-4---|
B|-2-2-2-2-2-2-2-2-2-2-2-2-2-2-2-2-|
G|---------------------------------|
D|---------------------------------|
A|---------------------------------|
E|---------------------------------|
Guitar 2: play after intro is played once
e|-------------------------------------------|
B|-------------------------------------------|
G|-6-6-6-6-6-2-2-2-2-2-2-2-2-----------------|
D|-6-6-6-6-6-2-2-2-2-2-2-2-2-4-4-4-4-4-4-4-4-|
A|-4-4-4-4-4-0-0-0-0-0-0-0-0-4-4-4-4-4-4-4-4-|
E|---------------------------2-2-2-2-2-2-2-2-|

Verse - Palm Muted
e|-------------------------------------|
B|-------------------------------------|
G|-6-6-6-6-6-6-6-6--2-2-2-2------------|
D|-6-6-6-6-6-6-6-6--2-2-2-2--4-4-4-4---|
A|-4-4-4-4-4-4-4-4--0-0-0-0--4-4-4-4---| x 4
E|---------------------------2-2-2-2---|

Fill In
e|-----4-4-5-5-4-4--|
B|-2-2-2-2-2-2-2-2--|
G|------------------|
D|------------------|
A|------------------| x 4
E|------------------|

Guitar 2
e|-------------------------------------------|
B|-------------------------------------------|
G|-6-6-6-6-6-2-2-2-2-2-2-2-2-----------------|
D|-6-6-6-6-6-2-2-2-2-2-2-2-2-4-4-4-4-4-4-4-4-|
A|-4-4-4-4-4-0-0-0-0-0-0-0-0-4-4-4-4-4-4-4-4-|x 4
E|---------------------------2-2-2-2-2-2-2-2-|

  Verse
e|-------------------------------------|
B|-------------------------------------|
G|-6-6-6-6-6-6-6-6--2-2-2-2------------|
D|-6-6-6-6-6-6-6-6--2-2-2-2--4-4-4-4---|
A|-4-4-4-4-4-4-4-4--0-0-0-0--4-4-4-4---| x 4
E|---------------------------2-2-2-2---|

Chorus 
e|------------------------------------|
B|------------------------------------|
G|-9-9-9-9-9-9-9-9--------------------|
D|-9-9-9-9-9-9-9-9-7-7-7-7-9-9-9-9----|
A|-7-7-7-7-7-7-7-7-7-7-7-7-9-9-9-9----|x3
E|-----------------5-5-5-5-7-7-7-7----|

e|------------------------------------|
B|------------------------------------|
G|------------------------------------|
D|-7---9---7---9-9-9-9-9-9-9-9--------|
A|-7---9---7---9-9-9-9-9-9-9-9--------|
E|-5---7---5---7-7-7-7-7-7-7-7--------|
     
Repeat Intro x 2

Verse 2  
e|-------------------------------------|
B|-------------------------------------|
G|-6-6-6-6-6-6-6-6--2-2-2-2------------|
D|-6-6-6-6-6-6-6-6--2-2-2-2--4-4-4-4---|
A|-4-4-4-4-4-4-4-4--0-0-0-0--4-4-4-4---| x 4
E|---------------------------2-2-2-2---|

Chorus
e|------------------------------------|
B|------------------------------------|
G|-9-9-9-9-9-9-9-9--------------------|
D|-9-9-9-9-9-9-9-9-7-7-7-7-9-9-9-9----|
A|-7-7-7-7-7-7-7-7-7-7-7-7-9-9-9-9----|x3
E|-----------------5-5-5-5-7-7-7-7----|

e|------------------------------4-------|
B|------------------------------5-------|
G|------------------------------6-------|
D|-7---9---7---9-9-9-9-9-9-9-9--6-------|
A|-7---9---7---9-9-9-9-9-9-9-9--4-------|
E|-5---7---5---7-7-7-7-7-7-7-7----------|

Bridge - Palm mute
e|--------------------------------------------------|
B|--------------------------------------------------|
G|-6-6-6-6-6-6-6-6----------------------------------|
D|-6-6-6-6-6-6-6-6--7-7-7-7-7-7-7--7-7-7-7-7-7-7----|
A|-4-4-4-4-4-4-4-4--7-7-7-7-7-7-7--7-7-7-7-7-7-7----|x 2
E|------------------4-4-4-4-4-4-4--5-5-5-5-5-5-5----|

Final Chorus

e|------------------------------------|
B|------------------------------------|
G|-9-9-9-9-9-9-9-9--------------------|
D|-9-9-9-9-9-9-9-9-7-7-7-7-9-9-9-9----|
A|-7-7-7-7-7-7-7-7-7-7-7-7-9-9-9-9----|x3
E|-----------------5-5-5-5-7-7-7-7----|

e|------------------------------------|
B|------------------------------------|
G|------------------------------------|
D|-7---9---7---9-9-9-9-9-9-9-9--------|
A|-7---9---7---9-9-9-9-9-9-9-9--------|
E|-5---7---5---7-7-7-7-7-7-7-7--------|

e|--------------------------------------|
B|--------------------------------------|
G|-9-9-9-9-9-9-9-9----------------------|
D|-9-9-9-9-9-9-9-9--7-7-7-7-9-9-9-9-----|x2
A|-7-7-7-7-7-7-7-7--7-7-7-7-9-9-9-9-----|
E|------------------5-5-5-5-7-7-7-7-----|


Track 2 - We've had enough


Intro
e|--------------------------------------------------------|
B|--------------------------------------------------------|
G|-----------9-9-9-9-9-9-9-9------------6-6-6-6-6-6-6-6-6-|
D|-4-2-4-2-4-x-x-x-x-x-x-x-x--4-2-4-2-4-x-x-x-x-x-x-x-x-x-|
A|-4-2-4-2-4-7-7-7-7-7-7-7-7--4-2-4-2-4-4-4-4-4-4-4-4-4-4-|
E|-2-0-2-0-2------------------2-0-2-0-2-------------------|

e|---------------------------------------------|
B|---------------------------------------------|
G|-----------4-4-4-4-4-4-4-4-------------------|
D|-4-2-4-2-4-x-x-x-x-x-x-x-x--4-6-7-6-9-7-6-2--|
A|-4-2-4-2-4-2-2-2-2-2-2-2-2--x-x-x-x-x-x-x-x--|
E|-2-0-2-0-2------------------2-4-5-4-7-5-4-0--|

Verse                   
e|--------------------------|
B|--------------------------|
G|--------------------------|
D|-4-4--4-4-4--4-4-4--4-4-2-|x 2
A|-4-4--4-4-4--4-4-4--4-4-2-|
E|-2-2--2-2-2--2-2-2--2-2-0-|

e|---------------------------|
B|---------------------------|
G|---------------------------|
D|--7-7--7-7-7--7-7-7--7-7-7-|
A|--7-7--7-7-7--7-7-7--7-7-7-|
E|--5-5--5-5-5--5-5-5--5-5-5-|

e|----------------------------|
B|----------------------------|
G|------------7-7-7-7-6-6-6-6-|
D|-9-9--9-9-9-x-x-x-x-x-x-x-x-|
A|-9-9--9-9-9-5-5-5-5-4-4-4-4-|
E|-7-7--7-7-7-----------------|

Fill-In
e|--------------------------------------------|
B|--------------------------------------------|
G|-----------4-4-4-4-4-4-4-4------------------|
D|-4-2-4-2-4-x-x-x-x-x-x-x-x--4-6-7-6-9-7-6-2-|
A|-4-2-4-2-4-2-2-2-2-2-2-2-2--x-x-x-x-x-x-x-x-|
E|-2-0-2-0-2------------------2-4-5-4-7-5-4-0-|

Verse
e|--------------------------|
B|--------------------------|
G|--------------------------|
D|-4-4--4-4-4--4-4-4--4-4-2-|x 2
A|-4-4--4-4-4--4-4-4--4-4-2-|
E|-2-2--2-2-2--2-2-2--2-2-0-|

e|---------------------------|
B|---------------------------|
G|---------------------------|
D|--7-7--7-7-7--7-7-7--7-7-7-|
A|--7-7--7-7-7--7-7-7--7-7-7-|
E|--5-5--5-5-5--5-5-5--5-5-5-|

e|----------------------------|
B|----------------------------|
G|------------7-7-7-7-6-6-6-6-|
D|-9-9--9-9-9-x-x-x-x-x-x-x-x-|
A|-9-9--9-9-9-5-5-5-5-4-4-4-4-|
E|-7-7--7-7-7-----------------|


Chorus
e|----------------------------------------|
A|----------------------------------------|
G|------------------------------7-7-7-7---|
D|----7-7-7-7-7-7-7-7--4-4-4-4--7-7-7-7---| x 4
A|----7-7-7-7-7-7-7-7--4-4-4-4--5-5-5-5---|
E|----5-5-5-5-5-5-5-5--2-2-2-2------------|
 


Fill in 2
e|------------------------------------------------------------|
B|------------------------------------------------------------|
G|------------------------------------------------------------|
D|-9-9-7-7-9-9-7-7-9-9-7-7-9^---7-9-9-7-7-9-9-7-7-9-9-7-7-9^-7|
A|------------------------------------------------------------|
E|------------------------------------------------------------|

Verse - palm muted
e|--------------------------|
B|--------------------------|
G|--------------------------|
D|-4-4--4-4-4--4-4-4--4-4-2-|x 2
A|-4-4--4-4-4--4-4-4--4-4-2-|
E|-2-2--2-2-2--2-2-2--2-2-0-|

e|---------------------------|
B|---------------------------|
G|---------------------------|
D|--7-7--7-7-7--7-7-7--7-7-7-|
A|--7-7--7-7-7--7-7-7--7-7-7-|
E|--5-5--5-5-5--5-5-5--5-5-5-|

e|----------------------------|
B|----------------------------|
G|------------7-7-7-7-6-6-6-6-|
D|-9-9--9-9-9-x-x-x-x-x-x-x-x-|
A|-9-9--9-9-9-5-5-5-5-4-4-4-4-|
E|-7-7--7-7-7-----------------|

Chorus
e|----------------------------------------
A|----------------------------------------
G|------------------------------7-7-7-7---
D|----7-7-7-7-7-7-7-7--4-4-4-4--7-7-7-7--- x 8
A|----7-7-7-7-7-7-7-7--4-4-4-4--5-5-5-5---
E|----5-5-5-5-5-5-5-5--2-2-2-2------------


Bridge 
e|-----------------------------------------------------------------------|
B|-----------------------------------------------------------------------|
G|-------7-----------9-----------7-----9-9-9-9-9-9-9-9-9-9-9-9-9-9-9-9-9-|
D|-7-----7-----7-----9-----7-----7-----9-9-9-9-9-9-9-9-9-9-9-9-9-9-9-9-9-|x2
A|-7-----5-----7-----7-----7-----5-----7-7-7-7-7-7-7-7-7-7-7-7-7-7-7-7-7-|
E|-5-----------5-----------5---------------------------------------------|


Outro
e|---------------------------------------------------------------------------------|
B|---------------------------------------------------------------------------------|
G|-14-14-14-14-14-14-14-14-14-14-14-14-14-14-14-14-9-9-9-9-9-9-9-9-6-6-6-6-7-7-7-7-|
D|-14-14-14-14-14-14-14-14-14-14-14-14-14-14-14-14-x-x-x-x-x-x-x-x-x-x-x-x-x-x-x-x-|
A|-12-12-12-12-12-12-12-12-12-12-12-12-12-12-12-12-7-7-7-7-7-7-7-7-4-4-4-4-5-5-5-5-| x 4
E|---------------------------------------------------------------------------------|

e|-------------------|
B|-------------------|
G|-------------------|
D|-4-6-7-6-9-7-6-2-4-|
A|-x-x-x-x-x-x-x-x-4-|
E|-2-4-5-4-7-5-4-0-2-|


Track 3 - One Hundred Stories

intro
e|-----------------------------------------------|
B|-----------------------------------------------|
G|---------2---------------2-2-2-2--4-4-4-4------| repeat 2x
D|2-2-2-2--2---2-2-2-2-2-2-2-2-2-2--4-4-4-4------|
A|2-2-2-2--0---2-2-2-2-2-2-0-0-0-0--2-2-2-2------|
E|0-0-0-0------0-0-0-0-0-0-----------------------|

 Verse - Palm Muted except last 2 chords
e|------------------------------------------------------------------------|
B|------------------------------------------------------------------------|
G|---------66666666-99999999-66666666-99999999-66666666-------------------|
D|22222222-66666666-99999999-66666666-99999999-66666666-77777777-99999999-| x 2
A|00000000-44444444-77777777-44444444-77777777-44444444-77777777-99999999-|
E|00000000----------------------------------------------55555555-77777777-|

 Pre-Chorus - Palm Muted
e|---------------------|-----------------------------|
B|---------------------|-----------------------------|
G|-6666------6666-9999-|-6666-------44444444---------|
D|-6666-7777-6666-9999-|-6666-7777--44444444---------|x2,second time let the chord ring out 
A|-4444-7777-4444-7777-|-4444-7777--22222222---------|
E|------5555-----------|------5555-------------------|
            
Chorus         
e|----------------------------------|
B|----------------------------------|
G|-9-9-9-9---------6-6-6-6----------|x2
D|-9-9-9-9-9-9-9-9-6-6-6-6-7-7-7-7--|
A|-7-7-7-7-9-9-9-9-4-4-4-4-7-7-7-7--|
E|---------7-7-7-7---------5-5-5-5--|

e|--------------------------------------|
B|--------------------------------------|
G|----------66666666--------------------|
D|-66666666-66666666-77777777-99999999--|
A|-66666666-44444444-77777777-99999999--|
E|-44444444----------55555555-77777777--|
 
 Palm Muted
e|--------------------------------------|
B|--------------------------------------|
G|-----------------444444444444444------| 
D|6666666666666666-222222222222222------|
A|6666666666666666-222222222222222------|
E|4444444444444444----------------------|

Fill In
e|-----------------------------------------------|
B|-----------------------------------------------|
G|---------2---------------2-2-2-2--4-4-4-4------| repeat 2x
D|2-2-2-2--2---2-2-2-2-2-2-2-2-2-2--4-4-4-4------|
A|2-2-2-2--0---2-2-2-2-2-2-0-0-0-0--2-2-2-2------|
E|0-0-0-0------0-0-0-0-0-0-----------------------|



Verse - Palm Muted except last 2 chords
e|------------------------------------------------------------------------|
B|------------------------------------------------------------------------|
G|---------66666666-99999999-66666666-99999999-66666666-------------------|
D|22222222-66666666-99999999-66666666-99999999-66666666-77777777-99999999-| x 2
A|00000000-44444444-77777777-44444444-77777777-44444444-77777777-99999999-|
E|00000000----------------------------------------------55555555-77777777-|

 Pre-Chorus - Palm Muted
e|---------------------|-----------------------------|
B|---------------------|-----------------------------|
G|-6666------6666-9999-|-6666-------44444444---------|
D|-6666-7777-6666-9999-|-6666-7777--44444444---------|x2,second time let the chord ring out 
A|-4444-7777-4444-7777-|-4444-7777--22222222---------|
E|------5555-----------|------5555-------------------|
            
Chorus         
e|----------------------------------|
B|----------------------------------|
G|-9-9-9-9---------6-6-6-6----------|x2
D|-9-9-9-9-9-9-9-9-6-6-6-6-7-7-7-7--|
A|-7-7-7-7-9-9-9-9-4-4-4-4-7-7-7-7--|
E|---------7-7-7-7---------5-5-5-5--|

e|--------------------------------------|
B|--------------------------------------|
D|----------66666666--------------------|
G|-66666666-66666666-77777777-99999999--|
A|-66666666-44444444-77777777-99999999--|
E|-44444444----------55555555-77777777--|

 Palm Muted
e|--------------------------------------|
B|--------------------------------------|
D|-----------------444444444444444------| 
G|6666666666666666-222222222222222------|
A|6666666666666666-222222222222222------|
E|4444444444444444----------------------|


e|--------------------------------------|
B|--------------------------------------|
G|--------------6-----------------------|
D|-2------------6-----------7-----------|x4
A|-2------------4-----------7-----------|
E|-0------------------------5-----------|
      "Dream a good one tonight....."


Final Something...not sure if it's a chorus or what
e|--------------------------------------|
B|--------------------------------------|
D|-99999999-666666666-------------------|
G|-99999999-666666666-2-2-4-4-6-6-7-7---|x3
A|-77777777-444444444-x-x-x-x-x-x-x-x---|
E|--------------------0-0-2-2-4-4-5-5---|

e|--------------------------------------|
B|--------------------------------------|
D|-99999999-666666666-------------------|
G|-99999999-666666666-7-----------------|
A|-77777777-444444444-7-----------------|
E|--------------------5-----------------|

Track 4 - Continental

Intro - Slight Distortion 

e|---------------------------------|
B|---------------------------------|
G|---------------------------------|
D|------6-----4-----7-----4-----6--|
A|--4-4---4-4---4-4---4-4---4-4----|
E|---------------------------------|

e|---------------------------------|
B|---------------------------------|
G|---------------------------------|
D|------6-----4-----1-1-1-2-2-2-1--|
A|--0-0---0-0---0-0-2-2-2-2-2-2-2--|
E|---------------------------------| 

e|----------------------------------------------------------------------|
B|----------------------------------------------------------------------|
G|--6-6-6-6-6-6-6-6-----------------------------------------------------|
D|--6-6-6-6-6-6-6-6--6-6-6-7-7-7-6-6--9-9-9-9-9-9-9-9-9-9-9-9-9-9-9-9---|
A|--4-4-4-4-4-4-4-4--7-7-7-7-7-7-7-7--9-9-9-9-9-9-9-9-9-9-9-9-9-9-9-9---| x 3
E|-------------------5-5-5-5-5-5-5-5--7-7-7-7-7-7-7-7-7-7-7-7-7-7-7-7---|

e|---------------------------------------------------------------------------|
B|---------------------------------------------------------------------------|
G|-------------------9-9-9-9-9-9-9-9-----------------------------------------|
D|--7-7-7-7-7-7-7-7--9-9-9-9-9-9-9-9--9-9-9-9-9-9-9-9-9-9-9-9-9-9-9-9--------|
A|--7-7-7-7-7-7-7-7--7-7-7-7-7-7-7-7--9-9-9-9-9-9-9-9-9-9-9-9-9-9-9-9--------|
E|--5-5-5-5-5-5-5-5-------------------7-7-7-7-7-7-7-7-7-7-7-7-7-7-7-7--------|

e|----------------------------------------------------------------------|
B|----------------------------------------------------------------------|
G|--6-6-6-6-6-6-6-6-----------------------------------------------------|
D|--6-6-6-6-6-6-6-6--6-6-6-7-7-7-6-6--9-9-9-9-9-9-9-9-9-9-9-9-9-9-9-9---|
A|--4-4-4-4-4-4-4-4--7-7-7-7-7-7-7-7--9-9-9-9-9-9-9-9-9-9-9-9-9-9-9-9---| x 2
E|-------------------5-5-5-5-5-5-5-5--7-7-7-7-7-7-7-7-7-7-7-7-7-7-7-7---|

                                                       
e|---------------------------------------------------------------------------|
B|---------------------------------------------------------------------------|
G|--6-6-6-6-6-6-6-6-------------------9-9-9-9-9-9-9-9------------------------|
D|--6-6-6-6-6-6-6-6--6-6-6-7-7-7-6-6--9-9-9-9-9-9-9-9--9-9-9-9-9-9-9-9-------|
A|--4-4-4-4-4-4-4-4--7-7-7-7-7-7-7-7--7-7-7-7-7-7-7-7--9-9-9-9-9-9-9-9-------|
E|-------------------5-5-5-5-5-5-5-5-------------------7-7-7-7-7-7-7-7-------|

e|---------------------------------------|
B|---------------------------------------|
G|---------------------------------------|
D|--9-9-9-9-9-9-9-9-9-9-9-9-9-9-9-9------|
A|--9-9-9-9-9-9-9-9-9-9-9-9-9-9-9-9------|
E|--7-7-7-7-7-7-7-7-7-7-7-7-7-7-7-7------|
   'to your existing family, u had 9...'

  Chorus
e|---------------------------------------------------------------------------|
B|---------------------------------------------------------------------------|
G|------------------------------------4-4-4-4-4-4-4-4--4-4-4-4-4-4-4-4-------|
D|--7-7-7-7-7-7-7-7--2-2-2-2-2-2-2-2--4-4-4-4-4-4-4-4--4-4-4-4-4-4-4-4-------|
A|--7-7-7-7-7-7-7-7--2-2-2-2-2-2-2-2--2-2-2-2-2-2-2-2--2-2-2-2-2-2-2-2-------| x 3
E|--5-5-5-5-5-5-5-5--0-0-0-0-0-0-0-0-----------------------------------------|

e|---------------------------------------------------------------------------|
B|---------------------------------------------------------------------------|
G|---------------------------------------------------------------------------|
D|--6-6-6-6-6-6-6-6--6-6-6-6-6-6-6-6--7-7-7-7-7-7-7-7--9-9-9-9-9-9-9-9-------|
A|--7-7-7-7-7-7-7-7--6-6-6-6-6-6-6-6--7-7-7-7-7-7-7-7--9-9-9-9-9-9-9-9-------|
E|--4-4-4-4-4-4-4-4--4-4-4-4-4-4-4-4--5-5-5-5-5-5-5-5--7-7-7-7-7-7-7-7-------|

Repeat Intro 

 Verse 2 - palm muted
e|----------------------------------------------------------------------|
B|----------------------------------------------------------------------|
G|--6-6-6-6-6-6-6-6-----------------------------------------------------|
D|--6-6-6-6-6-6-6-6--6-6-6-7-7-7-6-6--9-9-9-9-9-9-9-9-9-9-9-9-9-9-9-9---|
A|--4-4-4-4-4-4-4-4--7-7-7-7-7-7-7-7--9-9-9-9-9-9-9-9-9-9-9-9-9-9-9-9---| x 2
E|-------------------5-5-5-5-5-5-5-5--7-7-7-7-7-7-7-7-7-7-7-7-7-7-7-7---|

                                                       
e|---------------------------------------------------------------------------|
B|---------------------------------------------------------------------------|
G|--6-6-6-6-6-6-6-6-------------------9-9-9-9-9-9-9-9------------------------|
D|--6-6-6-6-6-6-6-6--6-6-6-7-7-7-6-6--9-9-9-9-9-9-9-9--9-9-9-9-9-9-9-9-------|
A|--4-4-4-4-4-4-4-4--7-7-7-7-7-7-7-7--7-7-7-7-7-7-7-7--9-9-9-9-9-9-9-9-------|
E|-------------------5-5-5-5-5-5-5-5-------------------7-7-7-7-7-7-7-7-------|

e|---------------------------------------|
B|---------------------------------------|
G|---------------------------------------|
D|--9-9-9-9-9-9-9-9-9-9-9-9-9-9-9-9------|
A|--9-9-9-9-9-9-9-9-9-9-9-9-9-9-9-9------|
E|--7-7-7-7-7-7-7-7-7-7-7-7-7-7-7-7------|

Repeat Chorus

 Bridge
e|--11---------------------/12---------------------|
B|-------------------------------------------------| Let ring then Slide
G|-------------------------------------------------|
D|-------------------------------------------------|
A|-------------------------------------------------|
E|-------------------------------------------------|

With Delay AND Echo

e|-------------------------------------------------|
B|-------------------------------------------------|
G|--8-----------------------9----------------------|
D|--x-----------------------x----------------------|
A|--6-----------------------7----------------------|
E|-------------------------------------------------|

Repeat Intro over top, 1st time muted, 2nd time no longer muted
  Chorus
e|---------------------------------------------------------------------------|
B|---------------------------------------------------------------------------|
G|------------------------------------4-4-4-4-4-4-4-4--4-4-4-4-4-4-4-4-------|
D|--7-7-7-7-7-7-7-7--2-2-2-2-2-2-2-2--4-4-4-4-4-4-4-4--4-4-4-4-4-4-4-4-------|
A|--7-7-7-7-7-7-7-7--2-2-2-2-2-2-2-2--2-2-2-2-2-2-2-2--2-2-2-2-2-2-2-2-------| x 3
E|--5-5-5-5-5-5-5-5--0-0-0-0-0-0-0-0-----------------------------------------|

e|---------------------------------------------------------------------------|
B|---------------------------------------------------------------------------|
G|---------------------------------------------------------------------------|
D|--6-6-6-6-6-6-6-6--6-6-6-6-6-6-6-6--7-7-7-7-7-7-7-7--9-9-9-9-9-9-9-9-------|
A|--7-7-7-7-7-7-7-7--6-6-6-6-6-6-6-6--7-7-7-7-7-7-7-7--9-9-9-9-9-9-9-9-------|
E|--4-4-4-4-4-4-4-4--4-4-4-4-4-4-4-4--5-5-5-5-5-5-5-5--7-7-7-7-7-7-7-7-------|

e|--0-----|
B|--0-----|
G|--1-----|
D|--2-----|
A|--2-----|
E|--0-----|

Track 5 - All on Black

  Intro
e|----------------------------------------------------------|
B|----------------------------------------------------------|
G|--9-9-9-7-7-7-5-5-5-4-2-4-5-5-5-5-5-5-5-5-5-5-5-5-5-5-5-5-|
D|--7-7-7-7-7-7-7-7-7-5-2-5-3-3-3-3-3-3-3-3-3-3-3-3-3-3-3-3-|
A|----------------------------------------------------------| x 2
E|----------------------------------------------------------|

  Verse
e|------------------------------------|
B|------------------------------------|
G|------------------------------------|
D|--7~--------3~------7~---3~--5~-----|
A|--7~--------3~------7~---3~--5~-----| x 2
E|--5~--------1~------5~---1~--3~-----|
 
 Fill-in
e|----------------------------------------------------------|
B|----------------------------------------------------------|
G|--9-9-9-7-7-7-5-5-5-4-2-4-5-5-5-5-5-5-5-5-5-5-5-5-5-5-5-5-|
D|--7-7-7-7-7-7-7-7-7-5-2-5-3-3-3-3-3-3-3-3-3-3-3-3-3-3-3-3-|
A|----------------------------------------------------------| x 2
E|----------------------------------------------------------|

  2nd Verse

  Strum 1st Verse's Chords Palm Muted
  
e|---------------------------------------------------------------------------|
B|---------------------------------------------------------------------------|
G|---------------------------------------------------------------------------|
D|--3~--------------------------5~------------3~--------------------5~-------|
A|--3~--------------------------5~------------3~--------------------5~-------|
E|--1~--------------------------3~------------1~--------------------3~-------|
    What's black and white was........'

  Chorus
e|---------------------------------------------------------|
B|---------------------------------------------------------|
G|--9-9-9-9-9-9-9-9--5-5-5-5-5-5-5-5--7-7-7-7-7-7-7-7------|
D|--7-7-7-7-7-7-7-7--3-3-3-3-3-3-3-3--5-5-5-5-5-5-5-5------|
A|--0-0-0-0-0-0-0-0--3-3-3-3-3-3-3-3--5-5-5-5-5-5-5-5------| x 4
E|---------------------------------------------------------|
    
  Fill-in
e|----------------------------------------------------------|
B|----------------------------------------------------------|
G|--9-9-9-7-7-7-5-5-5-4-2-4-5-5-5-5-5-5-5-5-5-5-5-5-5-5-5-5-|
D|--7-7-7-7-7-7-7-7-7-5-2-5-3-3-3-3-3-3-3-3-3-3-3-3-3-3-3-3-|
A|----------------------------------------------------------| x 2
E|----------------------------------------------------------|

  Verse 3
e|------------------------------------|
B|------------------------------------|
G|------------------------------------|
D|--7~--------3~------7~---3~--5~-----|
A|--7~--------3~------7~---3~--5~-----| x 2
E|--5~--------1~------5~---1~--3~-----|

e|---------------------------------------------------------------------------|
B|---------------------------------------------------------------------------|
G|---------------------------------------------------------------------------|
D|--3~--------------------------5~------------3~--------------------5~-------|
A|--3~--------------------------5~------------3~--------------------5~-------|
E|--1~--------------------------3~------------1~--------------------3~-------|
    What's upside down was........'

  Chorus
e|---------------------------------------------------------|
B|---------------------------------------------------------|
G|--9-9-9-9-9-9-9-9--5-5-5-5-5-5-5-5--7-7-7-7-7-7-7-7------|
D|--7-7-7-7-7-7-7-7--3-3-3-3-3-3-3-3--5-5-5-5-5-5-5-5------|
A|--0-0-0-0-0-0-0-0--3-3-3-3-3-3-3-3--5-5-5-5-5-5-5-5------| x 4
E|---------------------------------------------------------|

Bridge
e|-----------------------------------------------------------------|
B|-----------------------------------------------------------------|
G|--5-5-5-5-5-5-5-5-5-5-5-5-5-5-5-5--------------------------------|
D|--5-5-5-5-5-5-5-5-5-5-5-5-5-5-5-5-3-3-3-3-3-3-3-3-3-3-3-3-3-3-3-3|
A|--3-3-3-3-3-3-3-3-3-3-3-3-3-3-3-3-3-3-3-3-3-3-3-3-3-3-3-3-3-3-3-3|
E|----------------------------------1-1-1-1-1-1-1-1-1-1-1-1-1-1-1-1|
 

e|-----------------------------------------------------------------|
B|-----------------------------------------------------------------|
G|-----------------------------------------------------------------| 
D|--7-7-7-7-7-7-7-7-7-7-7-7-7-7-7-7-5-5-5-5-5-5-5-5-5-5-5-5-5-5-5-5| 
A|--7-7-7-7-7-7-7-7-7-7-7-7-7-7-7-7-5-5-5-5-5-5-5-5-3-3-3-3-3-3-3-3| x 2
E|--5-5-5-5-5-5-5-5-5-5-5-5-5-5-5-5-3-3-3-3-3-3-3-3-1-1-1-1-1-1-1-1|


e|------------------------------------|
B|--8-8-8-6-6-6-5-5-5-5-5-6-6-6-5-5---|
G|--5-5-5-5-5-5-5-5-5-5-5-5-5-5-5-5---|
D|------------------------------------| x 6
A|------------------------------------|
E|------------------------------------|

e|---------------------------------------|
B|---------------------------------------|
G|--9-9-9-7-7-7-5-5-5-4-2-4-5 let ring---|
D|--7-7-7-7-7-7-7-7-7-5-2-5-3------------|
A|---------------------------------------| 
E|---------------------------------------|

Track 6 - Emma

Intro
E|---------------------------|
B|---------------------------|
G|-------------2----4--------|
D|---2---------2----4--------|
A|---2---------0----2--------| x 2
E|---0-----------------------|


Verse - Palm Muted
E|--------------------------------------------|
B|--------------------------------------------|
G|----------------------22222222---44444444---|
D|---2222222222222222---22222222---44444444---|
A|---2222222222222222---00000000---22222222---| x 4
E|---0000000000000000-------------------------|

Chorus
E|--------------------------------------------------------|
B|--------------------------------------------------------|
G|---66666666--------------99999999-----------------------|
D|---66666666---77777777---99999999---99999999------------|
A|---44444444---77777777---77777777---99999999------------| x 2
E|--------------55555555--------------77777777------------|

Fill In
E|---------------------------|
B|---------------------------|
G|-------------2----4--------|
D|---2---------2----4--------|
A|---2---------0----2--------| x 2
E|---0-----------------------|

Verse 2 - Palm Muted
E|--------------------------------------------|
B|--------------------------------------------|
G|----------------------22222222---44444444---|
D|---2222222222222222---22222222---44444444---|
A|---2222222222222222---00000000---22222222---| x 4
E|---0000000000000000-------------------------|

Chorus
E|--------------------------------------------------------|
B|--------------------------------------------------------|
G|---66666666--------------99999999-----------------------|
D|---66666666---77777777---99999999---99999999------------|
A|---44444444---77777777---77777777---99999999------------| x 2
E|--------------55555555--------------77777777------------|

Fill-In
E|--------------------------------------------|
B|--------------------------------------------|
G|----------------------22222222---44444444---|
D|---2222222222222222---22222222---44444444---|
A|---2222222222222222---00000000---22222222---| 
E|---0000000000000000-------------------------|

Chorus
E|--------------------------------------------------------|
B|--------------------------------------------------------|
G|---66666666--------------99999999-----------------------|
D|---66666666---77777777---99999999---99999999------------|
A|---44444444---77777777---77777777---99999999------------| x 4
E|--------------55555555--------------77777777------------|

Outro
E|--------------------------------------------|
B|--------------------------------------------|
G|----------------------22222222---44444444---|
D|---2222222222222222---22222222---44444444---|
A|---2222222222222222---00000000---22222222---| 
E|---0000000000000000-------------------------|
   With you and my dreams in the ground

Track 7 - Fatally Yours
  Intro
e|---------------------------------------------------------------------------|
B|---------------------------------------------------------------------------|
G|--6-6-6-6-6-6-6-6-6-6-6-6-6-6-6-6-7-7-7-7-7-7-7-7-7-7-7-7-7-7-9-7----------|
D|--7-7-7-7-7-7-7-7-7-7-7-7-7-7-7-7-7-7-7-7-7-7-7-7-7-7-7-7-7-7-7-7----------|
A|--0-0-0-0-0-0-0-0-0-0-0-0-0-0-0-0-0-0-0-0-0-0-0-0-0-0-0-0-0-0-0-0----------|x 2
E|---------------------------------------------------------------------------|
 
  Verse
e|---------------------------------------------------------------------------|
B|---------------------------------------------------------------------------|
G|--6-6-6-6-6-6-6-6-6-6-6-6-6-6-6-6-7-7-7-7-7-7-7-7-7-7-7-7-7-7-7-7----------|
D|--7-7-7-7-7-7-7-7-7-7-7-7-7-7-7-7-7-7-7-7-7-7-7-7-7-7-7-7-7-7-7-7----------|
A|--0-0-0-0-0-0-0-0-0-0-0-0-0-0-0-0-0-0-0-0-0-0-0-0-0-0-0-0-0-0-0-0----------|x 2
E|---------------------------------------------------------------------------|

e|---------------------------------------------------------------------------|
B|---------------------------------------------------------------------------|
G|--7-7-7-7-7-7-7-7-7-7-7-7-7-7-7-7-9-9-9-9-9-9-9-9-9-9-9-9-9-9-9-9----------|
D|--7-7-7-7-7-7-7-7-7-7-7-7-7-7-7-7-9-9-9-9-9-9-9-9-9-9-9-9-9-9-9-9----------|
A|--5-5-5-5-5-5-5-5-5-5-5-5-5-5-5-5-7-7-7-7-7-7-7-7-7-7-7-7-7-7-7-7----------|
E|---------------------------------------------------------------------------|

  Fill-In
e|---------------------------------------------------------------------------|
B|---------------------------------------------------------------------------|
G|--6-6-6-6-6-6-6-6-6-6-6-6-6-6-6-6-7-7-7-7-7-7-7-7-7-7-7-7-7-7-9-7----------|
D|--7-7-7-7-7-7-7-7-7-7-7-7-7-7-7-7-7-7-7-7-7-7-7-7-7-7-7-7-7-7-7-7----------|
A|--0-0-0-0-0-0-0-0-0-0-0-0-0-0-0-0-0-0-0-0-0-0-0-0-0-0-0-0-0-0-0-0----------|
E|---------------------------------------------------------------------------|

Repeat Verse and add this in the end

e|---------------------------------------------------------------------------|
B|---------------------------------------------------------------------------|
G|--6-6-6-6-6-6-6-6-6-6-6-6-6-6-6-6-7-7-7-7-7-7-7-7-7-7-7-7-7-7-7-7----------|
D|--7-7-7-7-7-7-7-7-7-7-7-7-7-7-7-7-7-7-7-7-7-7-7-7-7-7-7-7-7-7-7-7----------|
A|--0-0-0-0-0-0-0-0-0-0-0-0-0-0-0-0-0-0-0-0-0-0-0-0-0-0-0-0-0-0-0-0----------|
E|---------------------------------------------------------------------------|

  Chorus
e|--------------------------------------|
B|--------------------------------------|
G|-------------------9-9-9-9--7-7-7-7---|
D|-7-7-7-7-7-7-7-7---9-9-9-9--7-7-7-7---|
A|-7-7-7-7-7-7-7-7---7-7-7-9--5-5-5-5---|
E|-5-5-5-5-5-5-5-5----------------------| x4
  
  Fill-In
e|---------------------------------------------------------------------------|
B|---------------------------------------------------------------------------|
G|--6-6-6-6-6-6-6-6-6-6-6-6-6-6-6-6-7-7-7-7-7-7-7-7-7-7-7-7-7-7-9-7----------|
D|--7-7-7-7-7-7-7-7-7-7-7-7-7-7-7-7-7-7-7-7-7-7-7-7-7-7-7-7-7-7-7-7----------|
A|--0-0-0-0-0-0-0-0-0-0-0-0-0-0-0-0-0-0-0-0-0-0-0-0-0-0-0-0-0-0-0-0----------|x 2
E|---------------------------------------------------------------------------|
  
Verse
e|-------------------|
B|-------------------|
G|-6~---7~---6~---7~-|
D|-7----7----7----7--|
A|-0~---0~---0~---0~-|
E|-------------------|

e|---------------------------------------------------------------------------|
B|---------------------------------------------------------------------------|
G|--7-7-7-7-7-7-7-7-7-7-7-7-7-7-7-7-9-9-9-9-9-9-9-9-9-9-9-9-9-9-9-9----------|
D|--7-7-7-7-7-7-7-7-7-7-7-7-7-7-7-7-9-9-9-9-9-9-9-9-9-9-9-9-9-9-9-9----------|
A|--5-5-5-5-5-5-5-5-5-5-5-5-5-5-5-5-7-7-7-7-7-7-7-7-7-7-7-7-7-7-7-7----------|
E|---------------------------------------------------------------------------|

e|---------------------------------------------------------------------------|
B|---------------------------------------------------------------------------|
G|--6-6-6-6-6-6-6-6-6-6-6-6-6-6-6-6-7-7-7-7-7-7-7-7-7-7-7-7-7-7-7-7----------|
D|--7-7-7-7-7-7-7-7-7-7-7-7-7-7-7-7-7-7-7-7-7-7-7-7-7-7-7-7-7-7-7-7----------|
A|--0-0-0-0-0-0-0-0-0-0-0-0-0-0-0-0-0-0-0-0-0-0-0-0-0-0-0-0-0-0-0-0----------|
E|---------------------------------------------------------------------------|

  Chorus
e|--------------------------------------|
B|--------------------------------------|
G|-------------------9-9-9-9--7-7-7-7---|
D|-7-7-7-7-7-7-7-7---9-9-9-9--7-7-7-7---|
A|-7-7-7-7-7-7-7-7---7-7-7-9--5-5-5-5---|
E|-5-5-5-5-5-5-5-5----------------------| x4

e|---------------------------------------------------------------------------|
B|---------------------------------------------------------------------------|
G|--6-6-6-6-9-9-9-9-7-7-7-7-6-6-6-6-6-6-6-6-6-6-6-6-7-7-7-7-7-7-7-7----------|
D|--7-7-7-7-7-7-7-7-7-7-7-7-7-7-7-7-6-6-6-6-6-6-6-6-7-7-7-7-7-7-7-7----------|
A|--0-0-0-0-0-0-0-0-0-0-0-0-0-0-0-0-4-4-4-4-4-4-4-4-5-5-5-5-5-5-5-5----------| x 4
E|---------------------------------------------------------------------------|

e|------|
B|------|
G|------|
D|--7---|
A|--7---|
E|--5---|

Track 8 - Every Thug Needs A Lady

Intro  
e|-3333-x-3---3333-x-3---0000-x-0------------|
B|-333--x-0---3333-x-0---3333-x-0------------|
G|-0000-x-0---2222-x-2---0000-x-0---55555555-|
D|-0000-x-0---2222-x-2---2222-x-2---55555555-|
A|-2222-x-2---0000-x-0---2222-x-2---33333333-| x 2
E|-3333-x-3--------------0000-x-0------------|


Verse - palm muted  2x                                     
e|-------------------------------------|-----------------------------------|
B|-------------------------------------|-----------------------------------|
G|----------22222222----------55555555-|----------77777777-555555555555555-|
D|-55555555-22222222-22222222-55555555-|-55555555-77777777-555555555555555-|
A|-55555555-00000000-22222222-33333333-|-55555555-55555555-333333333333333-|
E|-33333333----------00000000----------|-33333333--------------------------|


Prechorus 
e|-------------------------|    
B|-------------------------|   
G|-77777---------55555555--|    
D|-77777--STOP---55555555--|X2  
A|-55555---------33333333--|   
E|-------------------------|    

e|----------------------------------------| 
B|----------------------------------------|
G|-77777777-5555----------------5555-7777-|
D|-77777777-5555-5555-22222222--5555-7777-|
A|-55555555-3333-5555-22222222--3333-5555-|
E|---------------3333-00000000------------|


Chorus  2x
e|-----------------------------------------------|
B|-----------------------------------------------|
G|------5555------------5555-----------5555-7777-|
D|-5555-5555-22222222---5555-5555-7777-5555-7777-|
A|-5555-3333-22222222---3333-5555-7777-3333-5555-|
E|-3333------00000000--------3333-5555-----------|


Main Riff  2x


Verse - palm muted  2x                                     
e|-------------------------------------|-----------------------------------|
B|-------------------------------------|-----------------------------------|
G|----------22222222----------55555555-|----------77777777-555555555555555-|
D|-55555555-22222222-22222222-55555555-|-55555555-77777777-555555555555555-|
A|-55555555-00000000-22222222-33333333-|-55555555-55555555-333333333333333-|
E|-33333333----------00000000----------|-33333333--------------------------|


Prechorus 
e|-------------------------|    
B|-------------------------|   
G|-77777---------55555555--|    
D|-77777--STOP---55555555--|X2  
A|-55555---------33333333--|   
E|-------------------------|    

e|----------------------------------------| 
B|----------------------------------------|
G|-77777777-5555----------------5555-7777-|
D|-77777777-5555-5555-22222222--5555-7777-|
A|-55555555-3333-5555-22222222--3333-5555-|
E|---------------3333-00000000------------|

Chorus  2x
e|-----------------------------------------------|
B|-----------------------------------------------|
G|------5555------------5555-----------5555-7777-|
D|-5555-5555-22222222---5555-5555-7777-5555-7777-|
A|-5555-3333-22222222---3333-5555-7777-3333-5555-|
E|-3333------00000000--------3333-5555-----------|

 
e|-3333-x-3---3333-x-3---0000-x-0------------|
B|-3333-x-0---3333-x-0---3333-x-0------------|
G|-0000-x-0---2222-x-2---0000-x-0---55555555-|
D|-0000-x-0---2222-x-2---2222-x-2---55555555-|
A|-2222-x-2---0000-x-0---2222-x-2---33333333-| x 2
E|-3333-x-3--------------0000-x-0------------|


Outro
e|--------------------|    
B|--------------------|    
G|------7777-55555555-| 2x 
D|-5555-7777-55555555-|    
A|-5555-5555-33333333-|    
E|-3333---------------|    


e|---------------------|
B|---------------------|
G|------7777-5555-7777-| 2X
D|-5555-7777-5555-7777-|
A|-5555-5555-3333-5555-|
E|-3333----------------|


End
e|---|
B|---|
G|---|
D|-5-|
A|-5-|
E|-3-|

Track 9 - Blue Carolina

Intro

e|--------------------------------------------------------------------|
B|-8~-----------------------------------------------------------------|
G|-9~---2~---4~---9--7--5----7----9-9-x-9-9-9-x-9-9-9-x-9-9-9---------|
D|-9~---2~---4~---9--7--5----7----x-x-x-x-x-x-x-x-x-x-x-x-x-x---------|
A|-7~---0~---2~---7--5--3----5----7-7-x-7-7-7-x-7-7-7-x-7-7-7---------|
E|--------------------------------------------------------------------|

Verse 
e|--------------------------------------------------------------------|
B|-8~-----------------------------------------------------------------|
G|-9~---2~---4~---9--7--5----7----9-9-x-9-9-9-x-9-9-9-x-9-9-9---------|
D|-9~---2~---4~---9--7--5----7----x-x-x-x-x-x-x-x-x-x-x-x-x-x---------|
A|-7~---0~---2~---7--5--3----5----7-7-x-7-7-7-x-7-7-7-x-7-7-7---------| x 2
E|--------------------------------------------------------------------|

CHORUS

e|-------------------------------------------------|
B|-------------------------------------------------|
G|-5--------7-----------------5-5-5-5--7-7-7-7-----|
D|-5--------7--------5-5-5-5--5-5-5-5--7-7-7-7-----|
A|-3--------5--------5-5-5-5--3-3-3-3--5-5-5-5-----|x 2
E|-------------------3-3-3-3-----------------------|
                    
e|------------------------------------------|
B|------------------------------------------|
G|----------5-5-5-5--7-7-7-7-7-7-7-7--------|
D|-5-5-5-5--5-5-5-5--7-7-7-7-7-7-7-7--------|
A|-5-5-5-5--3-3-3-3--5-5-5-5-5-5-5-5--------|
E|-3-3-3-3----------------------------------|

e|---------------------------------------------------------------------------|
B|----------2-----------------2----------------------------------------------|
G|--------x-2--x-x-x--------x-2-x-x-x-5-5-5-5--7-7-7-7--9-9-x-9-9-9-x-9-9-9--|
D|-2--x-x-x-2--x-x-x-2--x-x-x-2-x-x-x-5-5-5-5--7-7-7-7--x-x-x-x-x-x-x-x-x-x--|
A|-2--x-x-x-0--x-x-x-2--x-x-x-0-x-x-x-3-3-3-3--5-5-5-5--7-7-x-7-7-7-x-7-7-7--|
E|-0--x-x------------0--x-x--------------------------------------------------|

Verse 
e|--------------------------------------------------------------------|
B|-8~-----------------------------------------------------------------|
G|-9~---2~---4~---9--7--5----7----9-9-x-9-9-9-x-9-9-9-x-9-9-9---------|
D|-9~---2~---4~---9--7--5----7----x-x-x-x-x-x-x-x-x-x-x-x-x-x---------|
A|-7~---0~---2~---7--5--3----5----7-7-x-7-7-7-x-7-7-7-x-7-7-7---------| x 2
E|--------------------------------------------------------------------|

SECOND CHORUS
e|-------------------------------------------------|
B|-------------------------------------------------|
G|-5--------7-----------------5-5-5-5--7-7-7-7-----|
D|-5--------7--------5-5-5-5--5-5-5-5--7-7-7-7-----|
A|-3--------5--------5-5-5-5--3-3-3-3--5-5-5-5-----|x 2
E|-------------------3-3-3-3-----------------------|
                    
e|------------------------------------------|
B|------------------------------------------|
G|----------5-5-5-5--7-7-7-7-7-7-7-7--------|
D|-5-5-5-5--5-5-5-5--7-7-7-7-7-7-7-7--------|
A|-5-5-5-5--3-3-3-3--5-5-5-5-5-5-5-5--------|
E|-3-3-3-3----------------------------------|


e|-------------------------------------------------------|
B|----------2-----------------2--------------------------|
G|--------x-2--x-x-x--------x-2-x-x-x-5-5-5-5--7-7-7-7---|
D|-2--x-x-x-2--x-x-x-2--x-x-x-2-x-x-x-5-5-5-5--7-7-7-7---|
A|-2--x-x-x-0--x-x-x-2--x-x-x-0-x-x-x-3-3-3-3--5-5-5-5---|
E|-0--x-x------------0--x-x------------------------------|

e|---------------------------------------------------------|
B|---------------------------------------------------------|
G|----------2-2-2-2-----------2-2-2-2--5-5-5-5--7-7-7-7----|
D|-2-2-2-2--2-2-2-2--2-2-2-2--2-2-2-2--5-5-5-5--7-7-7-7----|
A|-2-2-2-2--0-0-0-0--2-2-2-2--0-0-0-0--3-3-3-3--5-5-5-5----|
E|-0-0-0-0-----------0-0-0-0-------------------------------|

e|------------------------------------|
B|------------------------------------|
G|------------------------------------|
D|-4-4-4-4-4-4-4-4-4-4-4-4-4-4-4-4----|
A|-4-4-4-4-4-4-4-4-4-4-4-4-4-4-4-4----|
E|-2-2-2-2-2-2-2-2-2-2-2-2-2-2-2-2----|

  Bridge
e|------------------------------------------|
B|------------------------------------------|
G|--5-5-5-5-5-5-5-5-------------------------|
D|--5-5-5-5-5-5-5-5--5-5-5-5-5-5-5-5--------|
A|--3-3-3-3-3-3-3-3--5-5-5-5-5-5-5-5--------| 
E|-------------------3-3-3-3-3-3-3-3--------|

e|------------------------------------------|
B|------------------------------------------|
G|--5-5-5-5-5-5-5-5----------7-7-7-7--------|
D|--5-5-5-5-5-5-5-5--5-5-5-5-7-7-7-7--------|
A|--3-3-3-3-3-3-3-3--5-5-5-5-5-5-5-5--------| 
E|-------------------3-3-3-3----------------|

e|------------------------------------------|
B|------------------------------------------|
G|--5-5-5-5-5-5-5-5-------------------------|
D|--5-5-5-5-5-5-5-5--5-5-5-5-5-5-5-5--------|
A|--3-3-3-3-3-3-3-3--5-5-5-5-5-5-5-5--------| 
E|-------------------3-3-3-3-2-2-2-2--------|

e|------------------------------------------|
B|------------------------------------------|
G|-------------------5-5-5-5-7-7-7-7--------|
D|--2-2-2-2-2-2-2-2--5-5-5-5-7-7-7-7--------|
A|--2-2-2-2-2-2-2-2--3-3-3-3-5-5-5-5--------|
E|--0-0-0-0-0-0-0-0-------------------------|



CHORUS
e|-------------------------------------------------|
B|-------------------------------------------------|
G|-5-5-5-5--7-7-7-7-----------5-5-5-5--7-7-7-7-----|
D|-5-5-5-5--7-7-7-7--5-5-5-5--5-5-5-5--7-7-7-7-----|
A|-3-3-3-3--5-5-5-5--5-5-5-5--3-3-3-3--5-5-5-5-----|x 2
E|-------------------3-3-3-3-----------------------|
                    
e|------------------------------------------|
B|------------------------------------------|
G|----------5-5-5-5--7-7-7-7-7-7-7-7--------|
D|-5-5-5-5--5-5-5-5--7-7-7-7-7-7-7-7--------|
A|-5-5-5-5--3-3-3-3--5-5-5-5-5-5-5-5--------|
E|-3-3-3-3----------------------------------|

Next bit is dubbed on 2 guitars...guitar 1 plays a few octaves
2nd plays the same as the riff in the 2nd chorus


e|---------------------------------------------------------------|
B|---------------------------------------------------------------|
G|-------------2-2-2-2--------------2-2-2-2--5-5-5-5--7-7-7-7----|
D|-2--2--2--2--2-2-2-2--2--2--2--2--2-2-2-2--5-5-5-5--7-7-7-7----|
A|-2--2--2--2--0-0-0-0--2--2--2--2--0-0-0-0--3-3-3-3--5-5-5-5----|x 2
E|-0--0--0--0-----------0--0--0--0-------------------------------|

e|----------------------------------------------------------------------|
B|----------------------------------------------------------------------|
G|-12-12-12-12----------12-12-12-12----------12-12-12-12-11-11-11-11----|
D|-x--x--x--x-----------x--x--x--x-----------x--x--x--x--x--x--x--x-----|
A|-10-10-10-10----------10-10-10-10----------10-10-10-10-9--9--9--9-----| x 2
E|----------------------------------------------------------------------|

e|-------|
B|-------|
G|-------|
D|-2xxx--|
A|-2xxx--|
E|-0xxx--|

track 10 - Donner Party (all night)

Intro
e|------------------------------------|
B|------------------------------------|
G|11-11-11-11---------7-7-7-7-7-7-7-7-|
D|11-11-11-11-7-7-7-7-7-7-7-7-7-7-7-7-|
A|9--9--9--9--7-7-7-7-5-5-5-5-5-5-5-5-| x 2
E|------------5-5-5-5-----------------|
 
Verse
e|------------------------------------|
B|------------------------------------|
G|11-11-11-11---------7-7-7-7-7-7-7-7-|
D|11-11-11-11-7-7-7-7-7-7-7-7-7-7-7-7-|
A|9--9--9--9--7-7-7-7-5-5-5-5-5-5-5-5-| x 8
E|------------5-5-5-5-----------------|

  Chorus
e|------------------------------------------------------------|
B|------------------------------------------------------------|
G|------------------------------------------------6-6-6-6-6-6-|
D|7-7-7-7-7-7-7-7-7-7-7-7-7-7-7-7-7-7-7-7-7-7-7-7-7-7-7-7-7-7-|
A|7-7-7-7-7-7-7-7-7-7-7-7-7-7-7-7-7-7-7-7-7-7-7-7-4-4-4-4-4-4-|
E|5-5-5-5-5-5-5-5-5-5-5-5-5-5-5-5-5-5-5-5-5-5-5-5-------------|
  
e|---------------------------|
B|---------------------------|
G|-11-11-11-11-9-9-9-9-9-9-9-|
D|-11-11-11-11-9-9-9-9-9-9-9-|
A|-9--9--9--9--7-7-7-7-7-7-7-|x 2
E|---------------------------|

  Chorus Ending1
e|---------------------------|
B|---------------------------|
G|7-7-xx-7-7-xx-7-7-xx--9\---|
D|7-7-xx-7-7-xx-7-7-xx--9\---|
A|5-5-xx-5-5-xx-7-7-xx--7\---|
E|---------------------------|

Intro
e|------------------------------------|
B|------------------------------------|
G|11-11-11-11---------7-7-7-7-7-7-7-7-|
D|11-11-11-11-7-7-7-7-7-7-7-7-7-7-7-7-|
A|9--9--9--9--7-7-7-7-5-5-5-5-5-5-5-5-| x 2
E|------------5-5-5-5-----------------|

  Verse 2
e|------------------------------------|
B|------------------------------------|
G|11~-----------------7~--------------|
D|11~---------7~------7~--------------|
A|9-~---------7~------5~--------------|x 4
E|------------5~----------------------|

  Chorus
e|------------------------------------------------------------|
B|------------------------------------------------------------|
G|------------------------------------------------6-6-6-6-6-6-|
D|7-7-7-7-7-7-7-7-7-7-7-7-7-7-7-7-7-7-7-7-7-7-7-7-7-7-7-7-7-7-|
A|7-7-7-7-7-7-7-7-7-7-7-7-7-7-7-7-7-7-7-7-7-7-7-7-4-4-4-4-4-4-|
E|5-5-5-5-5-5-5-5-5-5-5-5-5-5-5-5-5-5-5-5-5-5-5-5-------------|
  
e|---------------------------|
B|---------------------------|
G|-11-11-11-11-9-9-9-9-9-9-9-|
D|-11-11-11-11-9-9-9-9-9-9-9-|
A|-9--9--9--9--7-7-7-7-7-7-7-|x 2
E|---------------------------|

  Bridge 1
e|--------------|
B|--------------|
G|7-\-6---------|
D|4-\-4---7-\-7-|
A|--------4-\-5-|x 2
E|--------------|
  
  Bridge 2
e|--------------------|
B|--------------------|
G|77-7-6-66-----------|
D|44-4-4-44-77-7-7-77-|
A|44-4-4-44-44-4-5-55-| x 4
E|----------44-4-5-55-|

  Chorus
e|------------------------------------------------------------|
B|------------------------------------------------------------|
G|------------------------------------------------6-6-6-6-6-6-|
D|7-7-7-7-7-7-7-7-7-7-7-7-7-7-7-7-7-7-7-7-7-7-7-7-7-7-7-7-7-7-|
A|7-7-7-7-7-7-7-7-7-7-7-7-7-7-7-7-7-7-7-7-7-7-7-7-4-4-4-4-4-4-|
E|5-5-5-5-5-5-5-5-5-5-5-5-5-5-5-5-5-5-5-5-5-5-5-5-------------|
  
e|---------------------------|
B|---------------------------|
G|-11-11-11-11-9-9-9-9-9-9-9-|
D|-11-11-11-11-9-9-9-9-9-9-9-|
A|-9--9--9--9--7-7-7-7-7-7-7-|x 2
E|---------------------------|  
  
e|-----------------------------------|
B|-----------------------------------|
G|7-7-7-7-7-7-7-7-7-7-7-7-9~---------|
D|7-7-7-7-7-7-7-7-7-7-7-7-9~------7~-|
A|5-5-5-5-5-5-5-5-5-5-5-5-7~------7~-|
E|--------------------------------5~-|

track 11 - If We Never Go Inside

Intro
  
e|------------------------------------------------------------------------|
B|------------------------------------------------------------------------|
G|------------------------------------------------------------------------|
D|6-6-6-7-7-7-6-6-6-7-7-7-2-2-4-4-6-6-6-7-7-7-6-6-6-7-7-7-2-2-4-4---------|
A|0-0-0-0-0-0-0-0-0-0-0-0-0-0-0-0-4-4-4-4-4-4-4-4-4-4-4-4-0-0-0-0---------|
E|------------------------------------------------------------------------|

e|------------------------------------------------------------------------|
B|------------------------------------------------------------------------|
G|9-9-9-9-9-9-9-9-4-4-4-4-4-4-4-4-----------------------------------------|
D|9-9-9-9-9-9-9-9-4-4-4-4-4-4-4-4-2-2-2-2-4-4-4-4-6-6-6-6-7-7-7-7---------|
A|7-7-7-7-7-7-7-7-2-2-2-2-2-2-2-2-0-0-0-0-0-0-0-0-0-0-0-0-0-0-0-0---------| x 2
E|------------------------------------------------------------------------|

e|----------------------------------|
B|----------------------------------|
G|---(palm muted)-------------------|
D|6-6-6-7-7-7-6-6-6-7-7-7-2-2-4-4---|
A|0-0-0-0-0-0-0-0-0-0-0-0-0-0-0-0---|
E|----------------------------------|

 Verse - All Palm Muted
e|------------------------------------------------------------------------|
B|------------------------------------------------------------------------|
G|6-6-6-6-6-6-6-6--9-9-9-9-9-9-9-9----------------------------------------|
D|6-6-6-6-6-6-6-6--9-9-9-9-9-9-9-9--2-2-2-2-4-4-4-4-6-6-6-6-7-7-7-7-------|
A|4-4-4-4-4-4-4-4--7-7-7-7-7-7-7-7--0-0-0-0-0-0-0-0-0-0-0-0-0-0-0-0-------|
E|------------------------------------------------------------------------|

e|------------------------------------------------------------------------|
B|------------------------------------------------------------------------|
G|6-6-6-6-6-6-6-6--9-9-9-9-9-9-9-9--4-4-4-4-4-4-4-4--2-2-2-2-2-2-2-2------|
D|6-6-6-6-6-6-6-6--9-9-9-9-9-9-9-9--4-4-4-4-4-4-4-4--2-2-2-2-2-2-2-2------|
A|4-4-4-4-4-4-4-4--7-7-7-7-7-7-7-7--2-2-2-2-2-2-2-2--0-0-0-0-0-0-0-0------|x 2
E|------------------------------------------------------------------------|
                                        <      <      <      <
e|------------------------------------------------------------------------|
B|------------------------------------------------------------------------|
G|9-9-9-9-9-9-9-9--4-4-4-4-4-4-4-4--x-x-2--x-x-2--x-x-2--x-x-2------------|
D|9-9-9-9-9-9-9-9--4-4-4-4-4-4-4-4--2-2-2--2-2-2--2-2-2--2-2-2------------|
A|7-7-7-7-7-7-7-7--2-2-2-2-2-2-2-2--x-x-0--x-x-0--x-x-0--x-x-0------------|
E|------------------------------------------------------------------------|

e|------------------------------------------------------------------------|
B|------------------------------------------------------------------------|
G|9-9-9-9-9-9-9-9--4-4-4-4-4-4-4-4--2-2-2-2-2-2-2-2-----------------------|
D|9-9-9-9-9-9-9-9--4-4-4-4-4-4-4-4--2-2-2-2-2-2-2-2-----------------------|
A|7-7-7-7-7-7-7-7--2-2-2-2-2-2-2-2--0-0-0-0-0-0-0-0-----------------------|
E|------------------------------------------------------------------------|

  Not palm Muted 
e|------------------------------------------------------------------------|
B|------------------------------------------------------------------------|
G|------------------------------------------------------------------------|
D|6-6-6-7-7-7-6-6-6-7-7-7-2-2-4-4-----------------------------------------|
A|0-0-0-0-0-0-0-0-0-0-0-0-0-0-0-0-----------------------------------------|
E|------------------------------------------------------------------------|


  Chorus
e|------------------------------------------------------------------------|
B|------------------------------------------------------------------------|
G|-------4-4-4--2-2-2-2-2-2-2-2---------4-4-4--2-2-2-2-2-2-2-2------------|
D|2-2-2--4-4-4--2-2-2-2-2-2-2-2--2-2-2--4-4-4--2-2-2-2-2-2-2-2------------|
A|2-2-2--2-2-2--0-0-0-0-0-0-0-0--2-2-2--2-2-2--0-0-0-0-0-0-0-0------------|
E|0-0-0--------------------------0-0-0------------------------------------|

e|------------------------------------------------------------------------|
B|------------------------------------------------------------------------|
G|-----------------4-4-4-4-4-4-4-4--2-2-2-2-2-2-2-2-2-2-2-2-2-2-2-2-------|
D|2-2-2-2-2-2-2-2--4-4-4-4-4-4-4-4--2-2-2-2-2-2-2-2-2-2-2-2-2-2-2-2-------|
A|2-2-2-2-2-2-2-2--2-2-2-2-2-2-2-2--0-0-0-0-0-0-0-0-0-0-0-0-0-0-0-0-------|x 2
E|0-0-0-0-0-0-0-0---------------------------------------------------------|

e|------------------------------------------------------------------------|
B|------------------------------------------------------------------------|
G|------------------------------------------------------------------------|
D|6-6-6-7-7-7-6-6-6-7-7-7-2-2-4-4-6-6-6-7-7-7-6-6-6-7-7-7-2-2-4-4---------|
A|0-0-0-0-0-0-0-0-0-0-0-0-0-0-0-0-4-4-4-4-4-4-4-4-4-4-4-4-0-0-0-0---------|
E|------------------------------------------------------------------------|

e|------------------------------------------------------------------------|
B|------------------------------------------------------------------------|
G|9-9-9-9-9-9-9-9-4-4-4-4-4-4-4-4-----------------------------------------|
D|9-9-9-9-9-9-9-9-4-4-4-4-4-4-4-4-2-2-2-2-4-4-4-4-6-6-6-6-7-7-7-7---------|
A|7-7-7-7-7-7-7-7-2-2-2-2-2-2-2-2-0-0-0-0-0-0-0-0-0-0-0-0-0-0-0-0---------| 
E|------------------------------------------------------------------------|

 Verse - All Palm Muted
e|------------------------------------------------------------------------|
B|------------------------------------------------------------------------|
G|6-6-6-6-6-6-6-6--9-9-9-9-9-9-9-9----------------------------------------|
D|6-6-6-6-6-6-6-6--9-9-9-9-9-9-9-9--2-2-2-2-4-4-4-4-6-6-6-6-7-7-7-7-------|
A|4-4-4-4-4-4-4-4--7-7-7-7-7-7-7-7--0-0-0-0-0-0-0-0-0-0-0-0-0-0-0-0-------|
E|------------------------------------------------------------------------|

e|------------------------------------------------------------------------|
B|------------------------------------------------------------------------|
G|6-6-6-6-6-6-6-6--9-9-9-9-9-9-9-9--4-4-4-4-4-4-4-4--2-2-2-2-2-2-2-2------|
D|6-6-6-6-6-6-6-6--9-9-9-9-9-9-9-9--4-4-4-4-4-4-4-4--2-2-2-2-2-2-2-2------|
A|4-4-4-4-4-4-4-4--7-7-7-7-7-7-7-7--2-2-2-2-2-2-2-2--0-0-0-0-0-0-0-0------|x 2
E|------------------------------------------------------------------------|
                                        <      <      <      <
e|------------------------------------------------------------------------|
B|------------------------------------------------------------------------|
G|9-9-9-9-9-9-9-9--4-4-4-4-4-4-4-4--x-x-2--x-x-2--x-x-2--x-x-2------------|
D|9-9-9-9-9-9-9-9--4-4-4-4-4-4-4-4--2-2-2--2-2-2--2-2-2--2-2-2------------|
A|7-7-7-7-7-7-7-7--2-2-2-2-2-2-2-2--x-x-0--x-x-0--x-x-0--x-x-0------------|
E|------------------------------------------------------------------------|

e|------------------------------------------------------------------------|
B|------------------------------------------------------------------------|
G|9-9-9-9-9-9-9-9--4-4-4-4-4-4-4-4--2-2-2-2-2-2-2-2-----------------------|
D|9-9-9-9-9-9-9-9--4-4-4-4-4-4-4-4--2-2-2-2-2-2-2-2-----------------------|
A|7-7-7-7-7-7-7-7--2-2-2-2-2-2-2-2--0-0-0-0-0-0-0-0-----------------------|
E|------------------------------------------------------------------------|

e|------------------------------------------------------------------------|
B|------------------------------------------------------------------------|
G|-------4-4-4--2-2-2-2-2-2-2-2---------4-4-4--2-2-2-2-2-2-2-2------------|
D|2-2-2--4-4-4--2-2-2-2-2-2-2-2--2-2-2--4-4-4--2-2-2-2-2-2-2-2------------|
A|2-2-2--2-2-2--0-0-0-0-0-0-0-0--2-2-2--2-2-2--0-0-0-0-0-0-0-0------------|
E|0-0-0--------------------------0-0-0------------------------------------|

e|------------------------------------------------------------------------|
B|------------------------------------------------------------------------|
G|-----------------4-4-4-4-4-4-4-4--2-2-2-2-2-2-2-2-2-2-2-2-2-2-2-2-------|
D|2-2-2-2-2-2-2-2--4-4-4-4-4-4-4-4--2-2-2-2-2-2-2-2-2-2-2-2-2-2-2-2-------|
A|2-2-2-2-2-2-2-2--2-2-2-2-2-2-2-2--0-0-0-0-0-0-0-0-0-0-0-0-0-0-0-0-------|x 2
E|0-0-0-0-0-0-0-0---------------------------------------------------------|

 Bridge
e|------------------------------------------------------------------------|
B|------------------------------------------------------------------------|
G|------------------------------------------------------------------------|
D|---------------------------------------2-2-2-2-4-4-4-4-6-6-6-6-7-7-7-7--|
A|7-7-7-7-7-7-6-6--9--9--9--9---7-7-7-7--0-0-0-0-0-0-0-0-0-0-0-0-0-0-0-0--|x 2
E|------------------------------------------------------------------------|

 Verse 3
e|------------------------------------------------------------------------|
B|------------------------------------------------------------------------|
G|6-6-6-6-6-6-6-6--9-9-9-9-9-9-9-9----------------------------------------|
D|6-6-6-6-6-6-6-6--9-9-9-9-9-9-9-9--2-2-2-2-4-4-4-4-6-6-6-6-7-7-7-7-------|
A|4-4-4-4-4-4-4-4--7-7-7-7-7-7-7-7--0-0-0-0-0-0-0-0-0-0-0-0-0-0-0-0-------|x 4
E|------------------------------------------------------------------------|

e|-----------------------------------|
B|-----------------------------------|
G|4-4-4-4-4-4-4-4-4-4-4-4-4-4-4-4----|
D|4-4-4-4-4-4-4-4-4-4-4-4-4-4-4-4----|
A|2-2-2-2-2-2-2-2-2-2-2-2-2-2-2-2----|
E|-----------------------------------|


Last Chorus
e|------------------------------------------------------------------------|
B|------------------------------------------------------------------------|
G|----4---2-------4---2-------------------4-4-4-4-4-4-4-4-2-2-2-2-2-2-2-2-|
D|2---4---2---2---4---2---2-2-2-2-2-2-2-2-4-4-4-4-4-4-4-4-2-2-2-2-2-2-2-2-|
A|2---2---0---2---2---0---2-2-2-2-2-2-2-2-2-2-2-2-2-2-2-2-0-0-0-0-0-0-0-0-|
E|0-----------0-----------0-0-0-0-0-0-0-0---------------------------------|

e|------------------------------------------------------------------------|
B|------------------------------------------------------------------------|
G|9-9-9-9-8-8-8-8-9-9-9-9-9-9-9-9--9-9-9-9-8-8-8-8-9-9-9-9-9-9-9-9--------|
D|x-x-x-x-x-x-x-x-x-x-x-x-x-x-x-x--x-x-x-x-x-x-x-x-x-x-x-x-x-x-x-x--------|
A|7-7-7-7-6-6-6-6-7-7-7-7-7-7-7-7--7-7-7-7-6-6-6-6-7-7-7-7-7-7-7-7--------|
E|------------------------------------------------------------------------|

e|------------------------------------------------------------------------|
B|------------------------------------------------------------------------|
G|9-9-9-9-9-9-9-9-13-13-13-13-13-13-13-13--11-11-11-11-11-11-11-11--------|
D|x-x-x-x-x-x-x-x--x-x-x-x-x-x-x-x-x-x-x---x--x--x--x--x--x--x--x---------|
A|7-7-7-7-7-7-7-7-11-11-11-11-11-11-11-11--9--9--9--9--9--9--9--9---------|
E|------------------------------------------------------------------------|

e|------------------------------------------------------------------------|
B|------------------------------------------------------------------------|
G|-11-11-11-11-11-11-11-11------------------------------------------------|
D|-x--x--x--x--x--x--x--x----6-6-6-7-7-7-6-6-6-7-7-7-2-2-4-4--2-----------|
A|-9--9--9--9--9--9--9--9----0-0-0-0-0-0-0-0-0-0-0-0-0-0-0-0--2-----------|
E|------------------------------------------------------------0-----------|


track 12 - Blue in the Face

Intro
e|--------------------------|
B|0-000-0-0-0--00-0-0-0-0---|
G|1-111-1-1-1--12-2-2-2-2---|
D|2-222-2-2-2--22-2-2-2-2---|
A|2-222-2-2-2--22-2-2-2-2---|X 4
E|0-000-0-0-0--00-0-0-0-0---|

Verse
 
e|-------------------------------------------------------|
B|-------------------------------------------------------|
G|9-9-9-9-9-9--9-9-9--9-9-9------------------------------|
D|9-9-9-9-9-9--6-6-6--7-7-7--7-7-7--6-6-6--7-7-7-7-7-7---|
A|7-7-7-7-7-7--7-7-7--7-7-7--4-4-4--4-4-4--7-7-7-7-7-7---| X 3
E|0-0-0-0-0-0--0-0-0--0-0-0--0-0-0--0-0-0--5-5-5-5-5-5---|

 
e|-------------------------------------------------------|
B|-------------------------------------------------------|
G|9-9-9-9-9-9--9-9-9--9-9-9------------------------------|
D|9-9-9-9-9-9--6-6-6--7-7-7--7-7-7--6-6-6--4-4-4-4-4-4---|
A|7-7-7-7-7-7--7-7-7--7-7-7--4-4-4--4-4-4--4-4-4-4-4-4---| 
E|0-0-0-0-0-0--0-0-0--0-0-0--0-0-0--0-0-0--2-2-2-2-2-2---|

Chorus: 
  
e|-------------------------------|
B|-------------------------------|
G|-2-2-2--1-1-1--4-4-4-4-4-4-----|
D|-2-2-2--2-2-2--4-4-4-4-4-4-----|
A|-0-0-0--2-2-2--2-2-2-2-2-2-----| x 3
E|-0-0-0--0-0-0--0-0-0-0-0-0-----|

e|-------------------------------|
B|-------------------------------|
D|-------------------------------|
G|--------------------9-9-9------|
A|-7-7-7-7-7-7--7-7-7-9-9-9------| 
E|-4-4-4-4-4-4--5-5-5-7-7-7------|

Fill in
e|-------------------------------------------------------|
B|-------------------------------------------------------|
G|9-9-9-9-9-9--9-9-9--9-9-9------------------------------|
D|9-9-9-9-9-9--6-6-6--7-7-7--7-7-7--6-6-6--7-7-7-7-7-7---|
A|7-7-7-7-7-7--7-7-7--7-7-7--4-4-4--4-4-4--7-7-7-7-7-7---| X 2
E|0-0-0-0-0-0--0-0-0--0-0-0--0-0-0--0-0-0--5-5-5-5-5-5---|

Verse 2
e|-------------------------------------------------------|
B|-------------------------------------------------------|
G|9-9-9-9-9-9--9-9-9--9-9-9------------------------------|
D|9-9-9-9-9-9--6-6-6--7-7-7--7-7-7--6-6-6--7-7-7-7-7-7---|
A|7-7-7-7-7-7--7-7-7--7-7-7--4-4-4--4-4-4--7-7-7-7-7-7---| X 3
E|0-0-0-0-0-0--0-0-0--0-0-0--0-0-0--0-0-0--5-5-5-5-5-5---|

 
e|-------------------------------------------------------|
B|-------------------------------------------------------|
G|9-9-9-9-9-9--9-9-9--9-9-9------------------------------|
D|9-9-9-9-9-9--6-6-6--7-7-7--7-7-7--6-6-6--4-4-4-4-4-4---|
A|7-7-7-7-7-7--7-7-7--7-7-7--4-4-4--4-4-4--4-4-4-4-4-4---| 
E|0-0-0-0-0-0--0-0-0--0-0-0--0-0-0--0-0-0--2-2-2-2-2-2---|


Chorus
e|-------------------------------|
B|-------------------------------|
G|-2-2-2--1-1-1--4-4-4-4-4-4-----|
D|-2-2-2--2-2-2--4-4-4-4-4-4-----|
A|-0-0-0--2-2-2--2-2-2-2-2-2-----| x 3
E|-0-0-0--0-0-0--0-0-0-0-0-0-----|

e|-------------------------------|
B|-------------------------------|
D|-------------------------------|
G|--------------------9-9-9------|
A|-7-7-7-7-7-7--7-7-7-9-9-9------| 
E|-4-4-4-4-4-4--5-5-5-7-7-7------|

Fill in
e|--------------------------|
B|0-000-0-0-0--00-0-0-0-0---|
G|1-111-1-1-1--12-2-2-2-2---|
D|2-222-2-2-2--22-2-2-2-2---|
A|2-222-2-2-2--22-2-2-2-2---|X 2
E|0-000-0-0-0--00-0-0-0-0---|
 
Bridge
e|-----------------------------------------------------|
B|-----------------------------------------------------|
G|9-9-9-9-9-9--9-9-9-9-9-9-----------------------------|
D|9-9-9-9-9-9--9-9-9-9-9-9--9-9-9-9-9-9--7-7-7-7-7-7---|
A|7-7-7-7-7-7--6-6-6-6-6-6--9-9-9-9-9-9--7-7-7-7-7-7---| X 3
E|0-0-0-0-0-0--0-0-0-0-0-0--7-7-7-7-7-7--5-5-5-5-5-5---|            

e|-----------------------------------------------------|
B|-----------------------------------------------------|
G|9-9-9-9-9-9------------------------------------------|
D|9-9-9-9-9-9--7-7-7-7-7-7--9-9-9-9-9-9--9-9-9-9-9-9---|
A|7-7-7-7-7-7--7-7-7-7-7-7--9-9-9-9-9-9--9-9-9-9-9-9---| 
E|0-0-0-0-0-0--5-5-5-5-5-5--7-7-7-7-7-7--7-7-7-7-7-7---|   


Final Chorus
e|------------------------------------------------------|
B|------------------------------------------------------|
G|9-9-9-9-9-9--9-9-9--9-9-9-----------------------------|
D|9-9-9-9-9-9--7-7-7--6-6-6-----------------------------|
A|7-7-7-7-7-7--7-7-7--7-7-7--7-7-7-7-7-7--7-7-7-7-7-7---| X 3
E|0-0-0-0-0-0--0-0-0--0-0-0--4-4-4-4-4-4--5-5-5-5-5-5---|

e|---------------------------------------------|
B|---------------------------------------------|
G|---------------------------------------------|
D|9-9-9-9-9-9--9-9-9-9-9-9--7-7-7-7-7-7--9x----|
A|9-9-9-9-9-9--9-9-9-9-9-9--7-7-7-7-7-7--9x----| 
E|7-7-7-7-7-7--7-7-7-7-7-7--5-5-5-5-5-5--7x----| 

e|-----|
B|0----|
G|1----|
D|2----|let ring
A|2----|
E|0----|
comments
print report bad tab
4 comments total. Showing first comments.
0 reply
imburningstar4 wrote on July 18 2006, 04:10 pm

pretty much the best tab of all time
haha well its a good one

0 reply
Adarsh wrote on July 19 2006, 12:57 am

thanks, it took me frickin ages to do it

0 reply
DirtyFcknK666 wrote on September 23 2013, 10:20 am

Great tab. The only thing, in Blue in the Face, the the last chord before the chorus is,

g|-4
d|-4
a|-2
e|--

so it goes,

g|9-9-9-----4~
d|9-6-7-7-6-4~
a|7-7-7-4-4-2~
e|0-0-0------~

and I also applaud how you got the chord progression change on the last line of the bridge on Blue in the Face as well, most people forget that it goes to a before it goes to b, they just leave out the a altogether.

Very nice tab.

I want to post or [tab]
guest
You may want to rate the tab now too:
select rating
Please do not post tabs as comments. Select "correction" instead!