Oops, an error
Loading. Please wait.

In Vein Tab

ver1
ver1

Whole song

More versions @911Tabs.com
5,988 views 15 this week
2 commentsread comments
1 2 3 4 5
excellent!
x 4
Autoscroll
+/-
esc
set tempo
stop
Contributor
WARNING: You are trying to view
                                    content from Ultimate-Guitar.com
                                    in an unauthorized application,
                                    which is prohibited.

                                    Please use an official Ultimate
                                    Guitar Tabs application for iPhone,
                                    iPad or Android to access legitimate
                                    chords, guitar, bass, and drum tabs
                                    from Ultimate-Guitar.com database.

                                    Type "ultimate guitar tabs" in Apple
                                    App Store's or Android Market's
                                    search to find the application.
In Vein
Alkaline Trio
Guitar Tab

Intro - Guitar One

e|---------56666665|-----5---5---5---|-5---5---66666665|-----5---5---5---|
B|---------66666666|-----6---6---6---|-6---6---66666666|-----6---6---6---|
G|---------77777777|-----7---7---7---|-7---7---77777777|-----7---7---7---|
D|-----------------|-----------------|-----------------|-----------------|
A|-----------------|-----------------|-----------------|-----------------|
E|-----------------|-----------------|-----------------|-----------------|
   1 + 2 + 3 + 4 +   1 + 2 + 3 + 4 +   1 + 2 + 3 + 4 +   1 + 2 + 3 + 4 +


e|-5---5---66666665|
B|-6---6---66666666|
G|-7---7---77777777|
D|-----------------|
A|-----------------|
E|-----------------|
   1 + 2 + 3 + 4 +


Verse -	My point of reference makes me afraid to begin convincing,
	But you might as well just change your name.
	'Cause I only recognize this shadow,
	Kind of like a superhero with nobody's best interests in mind.

- Guitar One

e|-----5---5---5---|-5---5---5---5---|-6---6---6---6---|-5---5---5---5---|
B|-----6---6---6---|-6---6---6---6---|-6---6---6---6---|-5---5---5---5---|
G|-----7---7---7---|-5---5---5---5---|-3---3---3---3---|-6---6---6---6---|
D|-----------------|-----------------|-----------------|-----------------|
A|-----------------|-----------------|-----------------|-----------------|
E|-----------------|-----------------|-----------------|-----------------|
   1 + 2 + 3 + 4 +   1 + 2 + 3 + 4 +   1 + 2 + 3 + 4 +   1 + 2 + 3 + 4 +


e|-5---5---5---5---|-5---5---5---5---|-6---6---6---6---|-----------------|
B|-6---6---6---6---|-6---6---6---6---|-6---6---6---6---|-----------------|
G|-7---7---7---7---|-5---5---5---5---|-3---3---3---3---|-2-2-2-2-3-3-3-3-|
D|-----------------|-----------------|-----------------|-2-2-2-2-3-3-3-3-|
A|-----------------|-----------------|-----------------|-0-0-0-0-1-1-1-1-|
E|-----------------|-----------------|-----------------|-----------------|
   1 + 2 + 3 + 4 +   1 + 2 + 3 + 4 +   1 + 2 + 3 + 4 +   1 + 2 + 3 + 4 +

Interlude

- Guitar One


e|-----------------|-----------------|-----------------|---------66666665|
B|-----------------|-----------------|-----------------|-2-------66666666|
G|-----------------|-----------------|-2-2-3-3-2-2-3-3-|-2-------77777777|
D|-7---------------|-----------------|-2-2-2-2-2-2-2-2-|-2---------------|
A|-5-------7-------|-8-------3-------|-0-0-0-0-0-0-0-0-|-0---------------|
E|---------5-------|-6-------1-------|-----------------|-----------------|
   1 + 2 + 3 + 4 +   1 + 2 + 3 + 4 +   1 + 2 + 3 + 4 +   1 + 2 + 3 + 4 +


Verse - Now there's blood in the waters, that I squeezed from this stone, 	here, And we 
into our cheap wine.
	And I swallowed every drop, yes, I could feel my stomach rotting,
	You were so supportive as I drank through the pain.

- Guitar One

e|-----5---5---5---|-5---5---5---5---|-6---6---6---6---|-5---5---5---5---|
B|-----6---6---6---|-6---6---6---6---|-6---6---6---6---|-5---5---5---5---|
G|-----7---7---7---|-5---5---5---5---|-3---3---3---3---|-6---6---6---6---|
D|-----------------|-----------------|-----------------|-----------------|
A|-----------------|-----------------|-----------------|-----------------|
E|-----------------|-----------------|-----------------|-----------------|
   1 + 2 + 3 + 4 +   1 + 2 + 3 + 4 +   1 + 2 + 3 + 4 +   1 + 2 + 3 + 4 +


e|-5---5---5---5---|-5---5---5---5---|-6---6---6---6---|-----------------|
B|-6---6---6---6---|-6---6---6---6---|-6---6---6---6---|-----------------|
G|-7---7---7---7---|-5---5---5---5---|-3---3---3---3---|-2-2-2-2-3-3-3-3-|
D|-----------------|-----------------|-----------------|-2-2-2-2-3-3-3-3-|
A|-----------------|-----------------|-----------------|-0-0-0-0-1-1-1-1-|
E|-----------------|-----------------|-----------------|-----------------|
   1 + 2 + 3 + 4 +   1 + 2 + 3 + 4 +   1 + 2 + 3 + 4 +   1 + 2 + 3 + 4 +


Chorus - 	You recognize this shape, it's the back of your hand.
		You placed it on my face here again, and again, yeah.
		And I don't wanna be the one who takes this place in vein.


- Guitar One

e|-----------------|-----------------|-----------------|-----------------|
B|-----------------|-----------------|-----------------|-----------------|
G|-7-7-7-7\3-3-3-3-|-101010-\9/109---|-7-7-7-7\3-3-3-3-|-----------------|
D|-7-7-7-7\3-3-3-3-|-X-X-X---X-X\X---|-7-7-7-7\3-3-3-3-|-5-5-5-5/7-7-7-7-|
A|-5-5-5-5\1-1-1-1-|-8-8-8--\7/8\7---|-5-5-5-5\1-1-1-1/|-5-5-5-5/7-7-7-7-|
E|-----------------|-----------------|-----------------|-3-3-3-3/5-5-5-5-|
 | 1 + 2 + 3 + 4 +   1 + 2 + 3 + 4 +   1 + 2 + 3 + 4 +   1 + 2 + 3 + 4 +
 |
 | Guitar Two
e|-10--13--12--13--|-12--13--6h8-5---|-10------10------|-10------10------|
B|-----------------|-----------------|-----10------10--|-----10------10--|
G|-----------------|-----------------|-----------------|-----------------|
D|-----------------|-----------------|-----------------|-----------------|
A|-----------------|-----------------|-----------------|-----------------|
E|-----------------|-----------------|-----------------|-----------------|
   1 + 2 + 3 + 4 +   1 + 2 + 3 + 4 +   1 + 2 + 3 + 4 +   1 + 2 + 3 + 4 +

e|-----------------|-----------------|-----------------|-----------------|
B|-----------------|-----------------|-----------------|-----------------|
G|-7-7-7-7\3-3-3-3-|-101010-\9/109---|-7-7-7-7\3-3-3-3-|-----------------|
D|-7-7-7-7\3-3-3-3-|-X-X-X---X-X\X---|-7-7-7-7\3-3-3-3-|-5-5-5-5/7-7-7-7-|
A|-5-5-5-5\1-1-1-1-|-8-8-8--\7/8\7---|-5-5-5-5\1-1-1-1/|-5-5-5-5/7-7-7-7-|
E|-----------------|-----------------|-----------------|-3-3-3-3/5-5-5-5-|
 | 1 + 2 + 3 + 4 +   1 + 2 + 3 + 4 +   1 + 2 + 3 + 4 +   1 + 2 + 3 + 4 +
 |
e|-10--13--12--13--|-12--13--6h8-5---|-10------10------|-10------10------|
B|-----------------|-----------------|-----10------10--|-----10------10--|
G|-----------------|-----------------|-----------------|-----------------|
D|-----------------|-----------------|-----------------|-----------------|
A|-----------------|-----------------|-----------------|-----------------|
E|-----------------|-----------------|-----------------|-----------------|
   1 + 2 + 3 + 4 +   1 + 2 + 3 + 4 +   1 + 2 + 3 + 4 +   1 + 2 + 3 + 4 +

e|-----------------|-----------------|-----------------|---------56666665|
B|-----------------|-----------------|-----------------|-2-------66666666|
G|-7-7-7-7-5-5-5-5-|-3-3-3-3---------|-2-2-3-3-2-2-3-3-|-2-------77777777|
D|-7-7-7-7-5-5-5-5-|-3-3-3-3-3-3-3-3-|-2-2-2-2-2-2-2-2-|-2---------------|
A|-5-5-5-5-3-3-3-3-|-1-1-1-1-3-3-3-3-|-0-0-0-0-0-0-0-0-|-0---------------|
E|-----------------|---------1-1-1-1-|-----------------|-----------------|
   1 + 2 + 3 + 4 +   1 + 2 + 3 + 4 +   1 + 2 + 3 + 4 +   1 + 2 + 3 + 4 +

Interlude

-Guitar One

e|-----5---5---5---|-5---5---66666665|-----5---5---5---|-5---5---66666665|
B|-----6---6---6---|-6---6---66666666|-----6---6---6---|-6---6---66666666|
G|-----7---7---7---|-7---7---77777777|-----7---7---7---|-7---7---77777777|
D|-----------------|-----------------|-----------------|-----------------|
A|-----------------|-----------------|-----------------|-----------------|
E|-----------------|-----------------|-----------------|-----------------|
 | 1 + 2 + 3 + 4 +   1 + 2 + 3 + 4 +   1 + 2 + 3 + 4 +   1 + 2 + 3 + 4 +
 |
 | Guitar Two
e|-10------10------|-10------10------|-10------10------|-10------10------|
B|-----10------10--|-----10------10--|-----10------10--|-----10----------|
G|-----------------|-----------------|-----------------|-----------------|
D|-----------------|-----------------|-----------------|-----*lower pitch|
A|-----------------|-----------------|-----------------|--------w/ bar---|
E|-----------------|-----------------|-----------------|-----------------|
   1 + 2 + 3 + 4 +   1 + 2 + 3 + 4 +   1 + 2 + 3 + 4 +   1 + 2 + 3 + 4 +

Verse - Dove off the deep side platform, jack-knifed and bone dry,  hit floor
	One broken ankle saved my name.
	And this eraser burn, I dig in deep at every turn.
	It keeps getting darker and the fear stays the same.

- Guitar One

e|-----5---5---5---|-5---5---5---5---|-6---6---6---6---|-5---5---5---5---|
B|-----6---6---6---|-6---6---6---6---|-6---6---6---6---|-5---5---5---5---|
G|-----7---7---7---|-5---5---5---5---|-3---3---3---3---|-6---6---6---6---|
D|-----------------|-----------------|-----------------|-----------------|
A|-----------------|-----------------|-----------------|-----------------|
E|-----------------|-----------------|-----------------|-----------------|
   1 + 2 + 3 + 4 +   1 + 2 + 3 + 4 +   1 + 2 + 3 + 4 +   1 + 2 + 3 + 4 +


e|-5---5---5---5---|-5---5---5---5---|-6---6---6---6---|-----------------|
B|-6---6---6---6---|-6---6---6---6---|-6---6---6---6---|-----------------|
G|-7---7---7---7---|-5---5---5---5---|-3---3---3---3---|-2-2-2-2-3-3-3-3-|
D|-----------------|-----------------|-----------------|-2-2-2-2-3-3-3-3-|
A|-----------------|-----------------|-----------------|-0-0-0-0-1-1-1-1-|
E|-----------------|-----------------|-----------------|-----------------|
 | 1 + 2 + 3 + 4 +   1 + 2 + 3 + 4 +   1 + 2 + 3 + 4 +   1 + 2 + 3 + 4 +
 |
e|-----------------|-----------------|-----------------|-----------------|
B|-----------------|-----------------|-----------------|-----------------|
G|-----------------|-----------------|-----------------|-2-2-2-2-3-3-3-3-|
D|-----------------|-----------------|-----------------|-2-2-2-2-3-3-3-3-|
A|-5---------------|-3---------------|-5---------------|-0-0-0-0-1-1-1-1-|
E|-----------------|-----------------|-----------------|-----------------|
   1 + 2 + 3 + 4 +   1 + 2 + 3 + 4 +   1 + 2 + 3 + 4 +   1 + 2 + 3 + 4 +

Chorus - 	You recognize this shape, it's the back of your hand.
		You placed it on my face here again, and again, yeah.
		And I don't wanna be the one who takes this place in vein.
		I don't wanna be the one who takes,
		I don't wanna be the one who takes this place in vein.

   Guitar One
e|-----------------|-----------------|-----------------|-----------------|
B|-----------------|-----------------|-----------------|-----------------|
G|-7-7-7-7\3-3-3-3-|-101010-\9/109---|-7-7-7-7\3-3-3-3-|-----------------|
D|-7-7-7-7\3-3-3-3-|-X-X-X---X-X\X---|-7-7-7-7\3-3-3-3-|-5-5-5-5/7-7-7-7-|
A|-5-5-5-5\1-1-1-1-|-8-8-8--\7/8\7---|-5-5-5-5\1-1-1-1/|-5-5-5-5/7-7-7-7-|
E|-----------------|-----------------|-----------------|-3-3-3-3/5-5-5-5-|
 | 1 + 2 + 3 + 4 +   1 + 2 + 3 + 4 +   1 + 2 + 3 + 4 +   1 + 2 + 3 + 4 +
 |
 | Guitar Two
e|-10--13--12--13--|-12--13--6h8-5---|-10------10------|-10------10------|
B|-----------------|-----------------|-----10------10--|-----10------10--|
G|-----------------|-----------------|-----------------|-----------------|
D|-----------------|-----------------|-----------------|-----------------|
A|-----------------|-----------------|-----------------|-----------------|
E|-----------------|-----------------|-----------------|-----------------|
   1 + 2 + 3 + 4 +   1 + 2 + 3 + 4 +   1 + 2 + 3 + 4 +   1 + 2 + 3 + 4 +


e|-----------------|-----------------|-----------------|-----------------|
B|-----------------|-----------------|-----------------|-----------------|
G|-7-7-7-7\3-3-3-3-|-101010-\9/109---|-7-7-7-7\3-3-3-3-|-----------------|
D|-7-7-7-7\3-3-3-3-|-X-X-X---X-X\X---|-7-7-7-7\3-3-3-3-|-5-5-5-5/7-7-7-7-|
A|-5-5-5-5\1-1-1-1-|-8-8-8--\7/8\7---|-5-5-5-5\1-1-1-1/|-5-5-5-5/7-7-7-7-|
E|-----------------|-----------------|-----------------|-3-3-3-3/5-5-5-5-|
 | 1 + 2 + 3 + 4 +   1 + 2 + 3 + 4 +   1 + 2 + 3 + 4 +   1 + 2 + 3 + 4 +
 |
 |
e|-10--13--12--13--|-12--13--6h8-5---|-10------10------|-10------10------|
B|-----------------|-----------------|-----10------10--|-----10------10--|
G|-----------------|-----------------|-----------------|-----------------|
D|-----------------|-----------------|-----------------|-----------------|
A|-----------------|-----------------|-----------------|-----------------|
E|-----------------|-----------------|-----------------|-----------------|
   1 + 2 + 3 + 4 +   1 + 2 + 3 + 4 +   1 + 2 + 3 + 4 +   1 + 2 + 3 + 4 +


e|-----------------|-----------------|-----------------|-----------------|
B|-----------------|-----------------|-----------------|-----------------|
G|-7-7-7-7-5-5-5-5-|-3-3-3-3---------|-7-7-7-7-5-5-5-5-|-3-3-3-3---------|
D|-7-7-7-7-5-5-5-5-|-3-3-3-3-3-3-3-3-|-7-7-7-7-5-5-5-5-|-3-3-3-3-3-3-3-3-|
A|-5-5-5-5-3-3-3-3-|-1-1-1-1-3-3-3-3-|-5-5-5-5-3-3-3-3-|-1-1-1-1-3-3-3-3-|
E|-----------------|---------1-1-1-1-|-----------------|---------1-1-1-1-|
 | 1 + 2 + 3 + 4 +   1 + 2 + 3 + 4 +   1 + 2 + 3 + 4 +   1 + 2 + 3 + 4 +
 |
e|-----------------|-----------------|-----------------|-----------------|
B|-----------------|-----------------|-----------------|-----------------|
G|-7-7-7-7-5-5-5-5-|-3-3-3-3---------|-7-7-7-7-5-5-5-5-|-3-3-3-3---------|
D|-7-7-7-7-5-5-5-5-|-3-3-3-3-3-3-3-3-|-7-7-7-7-5-5-5-5-|-3-3-3-3-3-3-3-3-|
A|-5-5-5-5-3-3-3-3-|-1-1-1-1-3-3-3-3-|-5-5-5-5-3-3-3-3-|-1-1-1-1-3-3-3-3-|
E|-----------------|---------1-1-1-1-|-----------------|---------1-1-1-1-|
   1 + 2 + 3 + 4 +   1 + 2 + 3 + 4 +   1 + 2 + 3 + 4 +   1 + 2 + 3 + 4 +


e|-----------------|-----------------|-----------------|-----------------|
B|-----------------|-----------------|-----------------|-----------------|
G|-7-7-7-7-9-9-9-9-|-1010101012121010|-1414141414141414|-1414141414141414|
D|-X-X-X-X-X-X-X-X-|-X-X-X-X-X-X-X-X-|-X-X-X-X-X-X-X-X-|-X-X-X-X-X-X-X-X-|
A|-5-5-5-5-7-7-7-7-|-8-8-8-8-10108-8-|-1212121212121212|-1212121212121212|
E|-----------------|-----------------|-----------------|-----------------|
 | 1 + 2 + 3 + 4 +   1 + 2 + 3 + 4 +   1 + 2 + 3 + 4 +   1 + 2 + 3 + 4 +
 |
e|-----------------|-----------------|-----------------|-----------------|
B|-----------------|-----------------|-----------------|-2---------------|
G|-----------------|-----------------|-2-2-3-3-2-2-3-3-|-2---------------|
D|-----------------|-----------------|-2-2-2-2-2-2-2-2-|-2---------------|
A|-----------------|-----------------|-----------------|-----------------|
E|-----------------|-----------------|-----------------|-----------------|
   1 + 2 + 3 + 4 +   1 + 2 + 3 + 4 +   1 + 2 + 3 + 4 +   1 + 2 + 3 + 4 +


Interlude - with weird phaser effect


e|-----------------|-----------------|-----------------|---------8-------|
B|-11--------------|-11--------------|-10--------------|-10------X---10--|
G|-X---------------|-X---------------|-X---------------|-X-------X---X---|
D|-8---------------|-8---------------|-7---------------|-7-------7---7---|
A|----*16 Times----|-----*16 Times---|---X16-----------|--X8------X4--X4-|
E|-----------------|-----------------|-----------------|-----------------|
   1 + 2 + 3 + 4 +   1 + 2 + 3 + 4 +   1 + 2 + 3 + 4 +   1 + 2 + 3 + 4 +

e|-----------------|-----------------|-----------------|-----------------|
B|-11--------------|-11--------------|-10--------------|-10--------------|
G|-X---------------|-X---------------|-X---------------|-X---------------|
D|-8---------------|-8---------------|-7---------------|-7---------------|
A|----*16 Times----|-----*16 Times---|---X16-----------|--X16------------|
E|-----------------|-----------------|-----------------|-----------------|
   1 + 2 + 3 + 4 +   1 + 2 + 3 + 4 +   1 + 2 + 3 + 4 +   1 + 2 + 3 + 4 +

e|-----------------|-----------------|-----------------|-----------------|
B|-11--------------|-11--------------|-10--------------|-10--------------|
G|-X---------------|-X---------------|-X---------------|-X---------------|
D|-8---------------|-8---------------|-7---------------|-7---------------|
A|----*16 Times----|-----*16 Times---|---X16-----------|--X16------------|
E|-----------------|-----------------|-----------------|-----------------|
   1 + 2 + 3 + 4 +   1 + 2 + 3 + 4 +   1 + 2 + 3 + 4 +   1 + 2 + 3 + 4 +

e|-----------------|-----------------|---------------8-|-------8---------|
B|-1111111111111111|-1111111111111111|-10101010101010X-|---10--X---101010|
G|-X-X-X-X-X-X-X-X-|-X-X-X-X-X-X-X-X-|-X-X-X-X-X-X-X-X-|---X---X---X-X-X-|
D|-8-8-8-8-8-8-8-8-|-8-8-8-8-8-8-8-8-|-7-7-7-7-7-7-7-7-|-7-7-7-7-7-7-7-7-|
A|-----------------|-----------------|-----------------|-----------------|
E|-----------------|-----------------|-----------------|-----------------|
   1 + 2 + 3 + 4 +   1 + 2 + 3 + 4 +   1 + 2 + 3 + 4 +   1 + 2 + 3 + 4 +

e|-----------------|-----------------|---------------8-|-------8---------|
B|-1111111111111111|-1111111111111111|-10101010101010X-|---10--X---101010|
G|-X-X-X-X-X-X-X-X-|-X-X-X-X-X-X-X-X-|-X-X-X-X-X-X-X-X-|---X---X---X-X-X-|
D|-8-8-8-8-8-8-8-8-|-8-8-8-8-8-8-8-8-|-7-7-7-7-7-7-7-7-|-7-7-7-7-7-7-7-7-|
A|-----------------|-----------------|-----------------|-----------------|
E|-----------------|-----------------|-----------------|-----------------|
   1 + 2 + 3 + 4 +   1 + 2 + 3 + 4 +   1 + 2 + 3 + 4 +   1 + 2 + 3 + 4 +


Bridge - 	I don't wanna take, I don't wanna take this place, no.
		I don't want to take, I don't wanna take this place, no.
		No-oh, no-oh. I don't wanna take this place, no.
		No-oh, no-oh. I don't wanna take this place, no.

e|-----------------|-----------------|-----------------|-----------------|
B|-11--------------|-----------------|-10--------------|-----------------|
G|-X---------------|-----------------|-----------------|-----------------|
D|-8---------------|-----------------|-----------------|-----------------|
A|-----------------|-----------------|-----------------|-----------------|
E|-----------------|-----------------|-----------------|-----------------|
   1 + 2 + 3 + 4 +   1 + 2 + 3 + 4 +   1 + 2 + 3 + 4 +   1 + 2 + 3 + 4 +

e|-----------------|-----------------|-----------------|-----------------|
B|-----------------|-----------------|-----------------|-----------------|
G|-----------------|-----------------|-----------------|-----------------|
D|-----------------|-----------------|-----------------|-----------------|
A|-----------------|-----------------|-----------------|-----------------|
E|-----------------|-----------------|-----------------|-----------------|
   1 + 2 + 3 + 4 +   1 + 2 + 3 + 4 +   1 + 2 + 3 + 4 +   1 + 2 + 3 + 4 +

e|---6---6---6---5-|---5---5---5---6-|---6---6---6---8-|---5---8---5---6-|
B|-6-6-6-6-6-6-6-6-|-6-6-6-6-6-6-6-6-|-6-6-6-6-6-6-6-6-|-6-6-6-6-6-6-6-6-|
G|-----------------|-----------------|-----------------|-----------------|
D|-----------------|-----------------|-----------------|-----------------|
A|-----------------|-----------------|-----------------|-----------------|
E|-----------------|-----------------|-----------------|-----------------|
 | 1 + 2 + 3 + 4 +   1 + 2 + 3 + 4 +   1 + 2 + 3 + 4 +   1 + 2 + 3 + 4 +
 |
e|-----------------|-----------------|-----------------|-----------------|
B|-----------------|-----------------|-----------------|-----------------|
G|---3---3---3---2-|---2---2---2---3-|---3---3---3---5-|---2---5---2---3-|
D|-3-3-3-3-3-3-3-3-|-3-3-3-3-3-3-3-3-|-3-3-3-3-3-3-3-3-|-3-3-3-3-3-3-3-3-|
A|-----------------|-----------------|-----------------|-----------------|
E|-----------------|-----------------|-----------------|-----------------|
   1 + 2 + 3 + 4 +   1 + 2 + 3 + 4 +   1 + 2 + 3 + 4 +   1 + 2 + 3 + 4 +


e|---6---6---6---5-|---5---5---5---8-|---6---5---5---8-|---6---5---5---5-|
B|-6-6-6-6-6-6-6-6-|-6-6-6-6-6-6-6-6-|-6-6-6-6-6-6-6-6-|-6-6-6-6-6-6-6-6-|
G|-----------------|-----------------|-----------------|-----------------|
D|-----------------|-----------------|-----------------|-----------------|
A|-----------------|-----------------|-----------------|-----------------|
E|-----------------|-----------------|-----------------|-----------------|
 | 1 + 2 + 3 + 4 +   1 + 2 + 3 + 4 +   1 + 2 + 3 + 4 +   1 + 2 + 3 + 4 +
 |
e|-----------------|-----------------|-----------------|-----------------|
B|-----------------|-----------------|-----------------|-----------------|
G|---3---3---3---2-|---2---2---2---5-|---3---2---2---5-|---3---2---2---2-|
D|-3-3-3-3-3-3-3-3-|-3-3-3-3-3-3-3-3-|-3-3-3-3-3-3-3-3-|-3-3-3-3-3-3-3-3-|
A|-----------------|-----------------|-----------------|-----------------|
E|-----------------|-----------------|-----------------|-----------------|
   1 + 2 + 3 + 4 +   1 + 2 + 3 + 4 +   1 + 2 + 3 + 4 +   1 + 2 + 3 + 4 +

e|-6-6-6-6-6-6-6-6-|-8---------------|---------|
B|-6-6-6-6-6-6-6-6-|-8---------------|---------|
G|-----------------|-----------------|---------|
D|-----------------|-----------------|---------|
A|-----------------|-----------------|---------|
E|-----------------|-----------------|---------|
 | 1 + 2 + 3 + 4 +   1 + 2 + 3 + 4 +   1 + 2 +
 |
e|-----------------|-----------------|---------|
B|-----------------|-----------------|---------|
G|-3-3-3-3-3-3-3-3-|-5---------------|---------|
D|-3-3-3-3-3-3-3-3-|-5---------------|---------|
A|-----------------|-3---------------|---------|
E|-----------------|-----------------|---------|
   1 + 2 + 3 + 4 +   1 + 2 + 3 + 4 +   1 + 2 +

Chorus - 	You recognize this shape, it's the back of your hand.
		You placed it on my face here again, and again, yeah.
		And I don't wanna be the one who takes this place in vein.
		I don't wanna be the one who takes,
		I don't wanna be the one who takes this place in vein.

   Guitar One
e|-----------------|-----------------|-----------------|-----------------|
B|-----------------|-----------------|-----------------|-----------------|
G|-7-7-7-7\3-3-3-3-|-101010-\9/109---|-7-7-7-7\3-3-3-3-|-----------------|
D|-7-7-7-7\3-3-3-3-|-X-X-X---X-X\X---|-7-7-7-7\3-3-3-3-|-5-5-5-5/7-7-7-7-|
A|-5-5-5-5\1-1-1-1-|-8-8-8--\7/8\7---|-5-5-5-5\1-1-1-1/|-5-5-5-5/7-7-7-7-|
E|-----------------|-----------------|-----------------|-3-3-3-3/5-5-5-5-|
 | 1 + 2 + 3 + 4 +   1 + 2 + 3 + 4 +   1 + 2 + 3 + 4 +   1 + 2 + 3 + 4 +
 |
 | Guitar Two
e|-10--13--12--13--|-12--13--6h8-5---|-10------10------|-10------10------|
B|-----------------|-----------------|-----10------10--|-----10------10--|
G|-----------------|-----------------|-----------------|-----------------|
D|-----------------|-----------------|-----------------|-----------------|
A|-----------------|-----------------|-----------------|-----------------|
E|-----------------|-----------------|-----------------|-----------------|
   1 + 2 + 3 + 4 +   1 + 2 + 3 + 4 +   1 + 2 + 3 + 4 +   1 + 2 + 3 + 4 +


e|-----------------|-----------------|-----------------|-----------------|
B|-----------------|-----------------|-----------------|-----------------|
G|-7-7-7-7\3-3-3-3-|-101010-\9/109---|-7-7-7-7\3-3-3-3-|-----------------|
D|-7-7-7-7\3-3-3-3-|-X-X-X---X-X\X---|-7-7-7-7\3-3-3-3-|-5-5-5-5/7-7-7-7-|
A|-5-5-5-5\1-1-1-1-|-8-8-8--\7/8\7---|-5-5-5-5\1-1-1-1/|-5-5-5-5/7-7-7-7-|
E|-----------------|-----------------|-----------------|-3-3-3-3/5-5-5-5-|
 | 1 + 2 + 3 + 4 +   1 + 2 + 3 + 4 +   1 + 2 + 3 + 4 +   1 + 2 + 3 + 4 +
 |
 |
e|-10--13--12--13--|-12--13--6h8-5---|-10------10------|-10------10------|
B|-----------------|-----------------|-----10------10--|-----10------10--|
G|-----------------|-----------------|-----------------|-----------------|
D|-----------------|-----------------|-----------------|-----------------|
A|-----------------|-----------------|-----------------|-----------------|
E|-----------------|-----------------|-----------------|-----------------|
   1 + 2 + 3 + 4 +   1 + 2 + 3 + 4 +   1 + 2 + 3 + 4 +   1 + 2 + 3 + 4 +


e|-----------------|-----------------|-----------------|-----------------|
B|-----------------|-----------------|-----------------|-----------------|
G|-7-7-7-7-5-5-5-5-|-3-3-3-3---------|-7-7-7-7-5-5-5-5-|-3-3-3-3---------|
D|-7-7-7-7-5-5-5-5-|-3-3-3-3-3-3-3-3-|-7-7-7-7-5-5-5-5-|-3-3-3-3-3-3-3-3-|
A|-5-5-5-5-3-3-3-3-|-1-1-1-1-3-3-3-3-|-5-5-5-5-3-3-3-3-|-1-1-1-1-3-3-3-3-|
E|-----------------|---------1-1-1-1-|-----------------|---------1-1-1-1-|
 | 1 + 2 + 3 + 4 +   1 + 2 + 3 + 4 +   1 + 2 + 3 + 4 +   1 + 2 + 3 + 4 +
 |
e|-10--------------|-----------------|-10--------------|-----------------|
B|-----------------|-------------10--|-----------------|-------------10--|
G|-----------------|-----------------|-----------------|-----------------|
D|-----------------|-----------------|-----------------|-----------------|
A|-----------------|-----------------|-----------------|-----------------|
E|-----------------|-----------------|-----------------|-----------------|
   1 + 2 + 3 + 4 +   1 + 2 + 3 + 4 +   1 + 2 + 3 + 4 +   1 + 2 + 3 + 4 +


e|-----------------|-----------------|-----------------|---------55555555|
B|-----------------|-----------------|-----------------|---------66666666|
G|-7-7-7-7-9-9-9-9-|-1010101012121010|-1414141414141414|-1414141477777777|
D|-X-X-X-X-X-X-X-X-|-X-X-X-X-X-X-X-X-|-X-X-X-X-X-X-X-X-|-X-X-X-X---------|
A|-5-5-5-5-7-7-7-7-|-8-8-8-8-10108-8-|-1212121212121212|-12121212--------|
E|-----------------|-----------------|-----------------|-----------------|
 | 1 + 2 + 3 + 4 +   1 + 2 + 3 + 4 +   1 + 2 + 3 + 4 +   1 + 2 + 3 + 4 +
 |
e|-10--------------|-----------------|-----------------|---------56666665|
B|-----------------|-------------11--|-1010101010101010|-1010101066666666|
G|-----------------|-----------------|-----------------|---------77777777|
D|-----------------|-----------------|-----------------|-----------------|
A|-----------------|-----------------|-----------------|-----------------|
E|-----------------|-----------------|-----------------|-----------------|
   1 + 2 + 3 + 4 +   1 + 2 + 3 + 4 +   1 + 2 + 3 + 4 +   1 + 2 + 3 + 4 +
2 comments total.
0 reply
Radeon92 wrote on September 1 2008, 06:44 am

Thanks man

Great tab

Thanks for the timings too, real helpful for a complete n00b like me :D

0 reply
AlienFreak77 wrote on January 31 2011, 08:44 pm

RIGHT ON. AMAZING JOB. YOU GOT NOTES THAT EVEN I COULDN'T FIGURE OUT. But my tab is pretty much identical to yours up until the bridge, which you totally out-shinned me in. And this is not an easy task to accomplish, so kudos to you man. ****ing excellent work.

I want to post or [tab]
guest
You may want to rate the tab now too:
select rating
Please do not post tabs as comments. Select "correction" instead!