Oops, an error
Loading. Please wait.

Lead Poisoning Bass Tab

ver1
ver1

Whole song

More versions @911Tabs.com
887 views 3 this week
no commentswrite comment
1 2 3 4 5
excellent!
x 2
add to favorites launch autoscroll
font size
0
reset
Autoscroll
+/-
esc
set tempo
stop
Contributor
WARNING: You are trying to view
                                    content from Ultimate-Guitar.com
                                    in an unauthorized application,
                                    which is prohibited.

                                    Please use an official Ultimate
                                    Guitar Tabs application for iPhone,
                                    iPad or Android to access legitimate
                                    chords, guitar, bass, and drum tabs
                                    from Ultimate-Guitar.com database.

                                    Type "ultimate guitar tabs" in Apple
                                    App Store's or Android Market's
                                    search to find the application.
Artist - Alkaline Trio
Album - This Addiction
Track - Lead Poisoning
Tuning - Standard (EADG)

NB - (n) notes inside parentheses are optional
   - where two 'o' are used, repeat between (if repeat is more than x2, it will be ABOVE bar)

Intro
G|---------------------------------|---------------------------------|
D|o--------------------------------|--------------------------------o|
A|o--------------------------------|--------------------------------o|
E|---------------------------------|---------------------------------|

Verse 1
G|---------------------------------|---------------------------------|
D|o--------------------------------|---------------------------------|
A|o--------------------------------|---------------------------------|
E|-3------------3----3----3--------|-3------------3----3----3--------|

G|---------------------------------|---------------------------------|
D|---------------------------------|-2------------0----0----0-------o|
A|-2------------2----2----2--------|--------------------------------o|
E|---------------------------------|---------------------------------|

G|---------------------------------|---------------------------------|
D|---------------------------------|---------------------------------|
A|-3------------3----3----3--------|---------------------------------|
E|---------------------------------|-3------------3----3----3--------|

G|---------------------------------|---------------------------------|
D|-0------------0----0----0--------|-2------------0----0----0--------|
A|---------------------------------|---------------------------------|
E|---------------------------------|---------------------------------|

G|---------------------------------|---------------------------------|
D|---------------------------------|---------------------------------|
A|-3------------3----3----3--------|-3------------3----3----3--------|
E|---------------------------------|---------------------------------|

G|---------------------------------|---------------------------------|
D|-0------------0----0----0--------|-1------------1----1----1--------|
A|---------------------------------|---------------------------------|
E|---------------------------------|---------------------------------|

Chorus
G|---------------------------------|---------------------------------|
D|---------------------------------|---------------------------------|
A|---------------------------------|---------------------------------|
E|--0---0---3---2---0---0---3---2--|-0---0---3---2---0---0---3---2---|

G|---------------------------------|---------------------------------|
D|---------------------------------|-5---5---5---5-------------------|
A|-3---3---3---3---3---3---3---3---|-----------------5---5---5---5---|
E|---------------------------------|---------------------------------|

G|---------------------------------|---------------------------------|
D|---------------------------------|---------------------------------|
A|---------------------------------|---------------------------------|
E|--0---0---3---2---0---0---3---2--|-0---0---3---2---0---0---3---2---|

G|---------------------------------|---------------------------------|
D|---------------------------------|---------------------------------|
A|-3---3---3---3---3---3---3---3---|-----------------5---5---5---5---|
E|---------------------------------|-5---5---5---5-------------------|

G|---------------------------------|---------------------------------|
D|---------------------------------|---------------------------------|
A|---------------------------------|---------------------------------|
E|--0---0---3---2---0---0---3---2--|-0---0---3---2---0---0---3---2---|

G|---------------------------------|---------------------------------|
D|---------------------------------|-5---5---5---5-------------------|
A|-3---3---3---3---3---3---3---3---|-----------------5---5---5---5---|
E|---------------------------------|---------------------------------|

G|---------------------------------|---------------------------------|
D|---------------------------------|---------------------------------|
A|---------------------------------|---------------------------------|
E|--0---0---3---2---0---0---3---2--|-0---0---3---2---0---0---3---2---|

G|---------------------------------|---------------------------------|
D|---------------------------------|---------------------------------|
A|-3---3---3---3---3---3---3---3---|-5-------------------------------|
E|---------------------------------|---------------------------------|

Post Chorus
G|---------------------------------|---------------------------------|
D|o--------------------------------|--------------------------------o|
A|o--------------------------------|--------------------------------o|
E|-3------------3----3----3--------|-3------------3----3----3--------|

Verse 2
G|---------------------------------|---------------------------------|
D|o--------------------------------|---------------------------------|
A|o--------------------------------|---------------------------------|
E|-3------------3----3----3--------|-3------------3----3----3--------|

G|---------------------------------|---------------------------------|
D|---------------------------------|-2------------0----0----0-------o|
A|-2------------2----2----2--------|--------------------------------o|
E|---------------------------------|---------------------------------|

G|---------------------------------|---------------------------------|
D|---------------------------------|---------------------------------|
A|-3------------3----3----3--------|---------------------------------|
E|---------------------------------|-3------------3----3----3--------|

G|---------------------------------|---------------------------------|
D|-0------------0----0----0--------|-2------------0----0----0--------|
A|---------------------------------|---------------------------------|
E|---------------------------------|---------------------------------|

G|---------------------------------|---------------------------------|
D|---------------------------------|---------------------------------|
A|-3------------3----3----3--------|-3------------3----3----3--------|
E|---------------------------------|---------------------------------|

G|---------------------------------|---------------------------------|
D|-0------------0----0----0--------|-1------------1----1----1--------|
A|---------------------------------|---------------------------------|
E|---------------------------------|---------------------------------|

Chorus
G|---------------------------------|---------------------------------|
D|---------------------------------|---------------------------------|
A|---------------------------------|---------------------------------|
E|--0---0---3---2---0---0---3---2--|-0---0---3---2---0---0---3---2---|

G|---------------------------------|---------------------------------|
D|---------------------------------|-5---5---5---5-------------------|
A|-3---3---3---3---3---3---3---3---|-----------------5---5---5---5---|
E|---------------------------------|---------------------------------|

G|---------------------------------|---------------------------------|
D|---------------------------------|---------------------------------|
A|---------------------------------|---------------------------------|
E|--0---0---3---2---0---0---3---2--|-0---0---3---2---0---0---3---2---|

G|---------------------------------|---------------------------------|
D|---------------------------------|---------------------------------|
A|-3---3---3---3---3---3---3---3---|-----------------5---5---5---5---|
E|---------------------------------|-5---5---5---5-------------------|

G|---------------------------------|---------------------------------|
D|---------------------------------|---------------------------------|
A|---------------------------------|---------------------------------|
E|--0---0---3---2---0---0---3---2--|-0---0---3---2---0---0---3---2---|

G|---------------------------------|---------------------------------|
D|---------------------------------|-5---5---5---5-------------------|
A|-3---3---3---3---3---3---3---3---|-----------------5---5---5---5---|
E|---------------------------------|---------------------------------|

G|---------------------------------|---------------------------------|
D|---------------------------------|---------------------------------|
A|---------------------------------|---------------------------------|
E|--0---0---3---2---0---0---3---2--|-0---0---3---2---0---0---3---2---|

G|---------------------------------|---------------------------------|
D|---------------------------------|---------------------------------|
A|-3---3---3---3---3---3---3---3---|-5-------------------------------|
E|---------------------------------|---------------------------------|

Post Chorus
G|---------------------------------|---------------------------------|
D|o--------------------------------|--------------------------------o|
A|o--------------------------------|--------------------------------o|
E|-3------------3----3----3--------|-3------------3----3----3--------|

Verse 3
G|---------------------------------|---------------------------------|
D|---------------------------------|---------------------------------|
A|---------------------------------|-------------------2----3--------|
E|-3------------3----3----3--------|-3------------3------------------|

G|---------------------------------|------------------------0--------|
D|---------------------------------|-------------------4-------------|
A|-5------------5----5----5--------|-5------------5------------------|
E|---------------------------------|---------------------------------|

G|---------------------------------|------------------------0--------|
D|-2------------2----2----2--------|-2------------2----4-------------|
A|---------------------------------|---------------------------------|
E|---------------------------------|---------------------------------|

G|---------------------------------|---------------------------------|
D|---------------------------------|---------------------------------|
A|-3------------3----3----3--------|-3-------2-------0-------2-------|
E|---------------------------------|---------------------------------|

G|---------------------------------|---------------------------------|
D|---------------------------------|---------------------------------|
A|---------------------------------|-------------------2----3--------|
E|-3------------3----3----3--------|-3------------3------------------|

G|---------------------------------|------------------------0--------|
D|---------------------------------|-------------------4-------------|
A|-5------------5----5----5--------|-5------------5------------------|
E|---------------------------------|---------------------------------|

G|---------------------------------|------------------------0--------|
D|-2------------2----2----2--------|-2------------2----4-------------|
A|---------------------------------|---------------------------------|
E|---------------------------------|---------------------------------|

G|---------------------------------|---------------------------------|
D|---------------------------------|---------------------------------|
A|-3------------3----3----3--------|-5------------5----5----5--------|
E|---------------------------------|---------------------------------|

Interlude
G|---------------------------------|---------------------------------|
D|---------------------------------|---------------------------------|
A|---------------------------------|-------------------2----3--------|
E|-3------------3----3----3--------|-3------------3------------------|

G|---------------------------------|------------------------0--------|
D|---------------------------------|-------------------4-------------|
A|-5------------5----5----5--------|-5------------5------------------|
E|---------------------------------|---------------------------------|

G|---------------------------------|------------------------0--------|
D|-2------------2----2----2--------|-2------------2----4-------------|
A|---------------------------------|---------------------------------|
E|---------------------------------|---------------------------------|

G|---------------------------------|---------------------------------|
D|---------------------------------|---------------------------------|
A|-3------------3----3----3--------|-3-------2-------0-------2-------|
E|---------------------------------|---------------------------------|

G|---------------------------------|---------------------------------|
D|---------------------------------|---------------------------------|
A|---------------------------------|-------------------2----3--------|
E|-3------------3----3----3--------|-3------------3------------------|

G|---------------------------------|------------------------0--------|
D|---------------------------------|-------------------4-------------|
A|-5------------5----5----5--------|-5------------5------------------|
E|---------------------------------|---------------------------------|

G|---------------------------------|------------------------0--------|
D|-2------------2----2----2--------|-2------------2----4-------------|
A|---------------------------------|---------------------------------|
E|---------------------------------|---------------------------------|

G|---------------------------------|---------------------------------|
D|---------------------------------|---------------------------------|
A|-3------------3----3----3--------|-5------------5----5----5--------|
E|---------------------------------|---------------------------------|

Chorus
G|---------------------------------|---------------------------------|
D|---------------------------------|---------------------------------|
A|---------------------------------|---------------------------------|
E|--0---0---3---2---0---0---3---2--|-0---0---3---2---0---0---3---2---|

G|---------------------------------|---------------------------------|
D|---------------------------------|-5---5---5---5-------------------|
A|-3---3---3---3---3---3---3---3---|-----------------5---5---5---5---|
E|---------------------------------|---------------------------------|

G|---------------------------------|---------------------------------|
D|---------------------------------|---------------------------------|
A|---------------------------------|---------------------------------|
E|--0---0---3---2---0---0---3---2--|-0---0---3---2---0---0---3---2---|

G|---------------------------------|---------------------------------|
D|---------------------------------|---------------------------------|
A|-3---3---3---3---3---3---3---3---|-----------------5---5---5---5---|
E|---------------------------------|-5---5---5---5-------------------|

G|---------------------------------|---------------------------------|
D|---------------------------------|---------------------------------|
A|---------------------------------|---------------------------------|
E|--0---0---3---2---0---0---3---2--|-0---0---3---2---0---0---3---2---|

G|---------------------------------|---------------------------------|
D|---------------------------------|-5---5---5---5-------------------|
A|-3---3---3---3---3---3---3---3---|-----------------5---5---5---5---|
E|---------------------------------|---------------------------------|

G|---------------------------------|---------------------------------|
D|---------------------------------|---------------------------------|
A|---------------------------------|---------------------------------|
E|--0---0---3---2---0---0---3---2--|-0---0---3---2---0---0---3---2---|

G|---------------------------------|---------------------------------|
D|---------------------------------|---------------------------------|
A|-3---3---3---3---3---3---3---3---|-5-------------------------------|
E|---------------------------------|---------------------------------|

Post Chorus
G|---------------------------------|---------------------------------|
D|---------------------------------|---------------------------------|
A|---------------------------------|---------------------------------|
E|-3------------3----3----3--------|-3------------3----3----3--------|

G|---------------------------------|---------------------------------|
D|---------------------------------|-5-------------------------------|
A|---------------------------------|---------------------------------|
E|-3------------3----3----3--------|---------------------------------|
comments
We did not receive enough feedback on this tab! Please rate:
print report bad tab
1 2 3 4 5
I want to post or [tab]
guest
You may want to rate the tab now too:
select rating
Please do not post tabs as comments. Select "correction" instead!