Oops, an error
Loading. Please wait.

Love Love Kiss Kiss Tab

ver1
ver1

Intro

Whole song

More versions @911Tabs.com
6,884 views 9 this week
3 commentsread comments
1 2 3 4 5
please rate
Autoscroll
+/-
esc
set tempo
stop
Contributor
Difficulty
WARNING: You are trying to view
                                    content from Ultimate-Guitar.com
                                    in an unauthorized application,
                                    which is prohibited.

                                    Please use an official Ultimate
                                    Guitar Tabs application for iPhone,
                                    iPad or Android to access legitimate
                                    chords, guitar, bass, and drum tabs
                                    from Ultimate-Guitar.com database.

                                    Type "ultimate guitar tabs" in Apple
                                    App Store's or Android Market's
                                    search to find the application.
                              LOVE LOVE, KISS KISS
                          As recorded by Alkaline Trio
                       (From the 2008 Album AGONY & IRONY)

Music by Matt Skiba, Dan Andriano, Derek Grant
Transcribed by Tristan, conamoreefuoco@gmail.com

 Intro
  Q=116
 4/4
  Gtr I (Vocals)
|-----------------|-----------------||------------------|------------------||
|-----------------|-----------------||o-----------------|-----------------o||
|-----------------|-----------------||------------------|------------------||
|-----------------|-----------------||------------------|------------------||
|-----------------|-----------------||o-----------------|-----------------o||
|-----------------|-----------------||------------------|------------------||
|
| Gtr II (Matt Skiba on guitar)
|-----------------|-----------------||------------------|------------------||
|-----------------|-----------------||o-----------------|-----------------o||
|-0-----0-----0---|-4---4---5---5---||--0-----0-----0---|-4---4---5---5----||
|---0-----0-----0-|---4---4---5---5-||----0-----0-----0-|---4---4---5---5--||
|-----0-----0-----|-----------------||o-----0-----0-----|-----------------o||
|-----------------|-----------------||------------------|------------------||


 Verse 1
|---------------|-------------------|----------------|-------------------|
|---------------|-3-1-1---1---------|----------------|-------------------|
|---4-4-4-2-2---|-------4-----------|--4-4-4-4-2-2---|-------2-2---------|
|-------------5-|--------------5----|--------------5-|-5-5-5--------5----|
|---------------|-------------------|----------------|-------------------|
|---------------|-------------------|----------------|-------------------|
|
|---------------|-------------------|----------------|-------------------|
|---------------|-------------------|----------------|-------------------|
|---------------|-------------------|----------------|-------------------|
|---------------|-------------------|----------------|-------------------|
|---5-----5---5-|-----9-----10---10-|----5-----5---5-|-----9-----10---10-|
|---3-----3---3-|-----7------8----8-|----3-----3---3-|-----7------8----8-|


|-----------------|-----------------|------------------|-----------------|
|-----------------|-----------------|------------------|-----------------|
|---4-4-4-4-2-2---|---2-2---2-------|---4-4-4--4--2-2--|-------2-2-------|
|---------------5-|-5---------5-5---|------------------|-5-5-5-------5---|
|-----------------|-----------------|------------------|-----------------|
|-----------------|-----------------|------------------|-----------------|
|
|-----------------|-----------------|------------------|-----------------|
|---0-----0-------|-1-1-0-0-1-1-0-0-|---0---0-(0)------|-1---1---3---3---|
|-----0-----------|-0-0-0-0-0-0-0-0-|------------------|---0---0---2---2-|
|-2-----2---------|-----------------|-2---2------------|-----------------|
|-----------------|-----------------|------------------|-----------------|
|-----------------|-----------------|------------------|-----------------|


|-------------------|-----------------|----------------|---------------|
|-------------------|-----------------|----------------|---------------|
|-----4-4-4-2-2-----|-------2-2-------|----------------|---------------|
|----------------5--|-5-5-5-------4---|-(4)------------|---------------|
|-------------------|-----------------|----------------|---------------|
|-------------------|-----------------|----------------|---------------|
|
|-------------------|-----------------|----------------|---------------|
|-------------------|-1---1---3---3---|----------------|---------------|
|-------------------|---0---0---2---2-|----------------|---------------|
|-5-----------------|-----------------|--5-------------|---------5-5-5-|
|---5-----------(5)-|-----------------|-----5------(5)-|-(5)-----3-3-2-|
|-------------------|-----------------|----------------|---------------|


 Verse 2
|----------------|-------------------|----------------|-------------------|
|----------------|-3-1-1-------------|----------------|-3-1-1-------------|
|--4-4-4-4-2-2---|-------4-4--2-2----|-4----4-4-2-2---|-------4-4--2-2----|
|--------------5-|-----------------5-|--------------5-|-----------------5-|
|----------------|-------------------|----------------|-------------------|
|----------------|-------------------|----------------|-------------------|
|
|----------------|-------------------|----------------|-------------------|
|----------------|-------------------|----------------|-------------------|
|----------------|-------------------|----------------|-------------------|
|----------------|-------------------|----------------|-------------------|
|----5-----5---5-|-----9-----10---10-|----5-----5---5-|-----9-----10---10-|
|----3-----3---3-|-----7------8----8-|----3-----3---3-|-----7------8----8-|


|-----------------|-----------------|-------------------|-----------------|
|-----------------|-----------------|-------------------|-------3-3-3-5---|
|---4-4-4-2-2-----|-------------2---|-----4-4--4--2-2---|-----------------|
|-2-----------5-5-|-5-5-5-5-5-5---4-|---5-------------5-|-5-5-5-----------|
|-----------------|-----------------|-------------------|-----------------|
|-----------------|-----------------|-------------------|-----------------|
|
|-----------------|-----------------|-------------------|-----------------|
|---0-----0-------|-1-1-0-0-1-1-0-0-|---0---0-(0)-------|-1---1---3---3---|
|-----0-----------|-0-0-0-0-0-0-0-0-|-------------------|---0---0---2---2-|
|-2-----2---------|-----------------|-2---2-------------|-----------------|
|-----------------|-----------------|-------------------|-----------------|
|-----------------|-----------------|-------------------|-----------------|


 Chorus
  $
|-----------------|-----------------|-----------------|-----------------|
|-3---1---0---3---|-1-------3---1---|-0-----1-3-3-1---|-3-----3-3-5-3---|
|-----------------|-----------------|-----------------|-----------------|
|-----------------|-----------------|-----------------|-----------------|
|-----------------|-----------------|-----------------|-----------------|
|-----------------|-----------------|-----------------|-----------------|
|
|-----------------|-----------------|-----------------|-----------------|
|---0-----0-------|-1-------3-------|---0-----0-------|-1-------3-------|
|-----0-----0---0-|---0---0---0---0-|-----0-----0---0-|---0---0---0---0-|
|-0-----0-----0---|-----0-------0---|-0-----0-----0---|-----0-------0---|
|-----------------|-----------------|-----------------|-----------------|
|-----------------|-----------------|-----------------|-----------------|


|-----------------|-----------------|-----------------|
|-3---5-3-3---3---|-3-3-1-1-0-0-----|-0-3-3-1-0-----3-|
|-----------------|-------------2-2-|-------------0---|
|---------------5-|-----------------|-----------------|
|-----------------|-----------------|-----------------|
|-----------------|-----------------|-----------------|
|
|-----------------|-----------------|-----------------|
|-----------------|-----------------|-----------------|
|-----------------|-----------------|-----------------|
|-9-9-9-9-9-9-9-9-|-5-5-5-5-7-7-7-7-|-9-9-9-9-9-9-9-9-|
|-7-7-7-7-7-7-7-7-|-3-3-3-3-5-5-5-5-|-7-7-7-7-7-7-7-7-|
|-----------------|-----------------|-----------------|


|-----------------|-----------------|-----------------|
|-3-1-1-0-0-------|-----1---0---3---|-1---------------|
|-----------2-2-0-|-0---------------|---------2-------|
|-----------------|-----------------|-------------4---|
|-----------------|-----------------|-----------------|
|-----------------|-----------------|-----------------|
|
|-----------------|-----------------|-----------------|
|-----------------|-----------------|-----------------|
|-----------------|-7-7-7-7-7-7-7-7-|-----------------|
|-5-5-5-5-7-7-7-7-|-5-5-5-5-5-5-5-5-|-5-5-5-5-7-7-7-7-|
|-3-3-3-3-5-5-5-5-|-----------------|-3-3-3-3-5-5-5-5-|
|-----------------|-----------------|-----------------|


                                Bridge
                       To Coda
|-------------|---------------||------------------|
|-------------|---------------||------------------|
|-------------|---------------||------------------|
|-5-----------|---------------||------------------|
|-------------|---------------||------------------|
|-------------|---------------||------------------|
|
|-------------|---------------||------------------|
|-------------|-----3---------||------------------|
|-------------|-4-----5--4----||-0-----0-----0----|
|-5-----5-----|---5--------5--||---0-----0-----0--|
|----5-----5--|---------------||-----0-----0------|
|-------------|---------------||------------------|


|-----------------|-----------------|-----------------|
|-----------------|-----------------|-----------------|
|-----------------|-----------------|---------------2-|
|-----------------|-----------------|-----------5-5---|
|-----------------|-----------------|-----------------|
|-----------------|-----------------|-----------------|
|
|-----------------|-----------------|-----------------|
|-----------------|-----------------|-----------------|
|-4---4---5---5---|-0-----0-----0---|-4---4---5---5---|
|---4---4---5---5-|---0-----0-----0-|---4---4---5---5-|
|-----------------|-----0-----0-----|-----------------|
|-----------------|-----------------|-----------------|


 Verse 3
|-----------------|-------------------|
|-----------------|-3-1-1-------------|
|-4-4-4-4-4-2-2---|-------4-4--2-2----|
|---------------5-|-----------------5-|
|-----------------|-------------------|
|-----------------|-------------------|
|
|-----------------|-------------------|
|-----------------|-------------------|
|-----------------|-------------------|
|-----------------|-------------------|
|-----5-----5---5-|-----9-----10---10-|
|-----3-----3---3-|-----7------8----8-|


|----------------|-------------------|-----------------|-----------------|
|----------------|-------------------|-----------------|---------3-1-1---|
|-4----4-4-2-2---|---2-2-2-2-------2-|-----4-4-4-2-2---|---2-2-2-------4-|
|--------------5-|-5----------5-5----|-2-------------5-|-5---------------|
|----------------|-------------------|-----------------|-----------------|
|----------------|-------------------|-----------------|-----------------|
|
|----------------|-------------------|-----------------|-----------------|
|----------------|-------------------|---0-----0-------|-1-1-0-0-1-1-0-0-|
|----------------|-------------------|-----0-----------|-0-0-0-0-0-0-0-0-|
|----------------|-------------------|-2-----2---------|-----------------|
|----5-----5---5-|-----9-----10---10-|-----------------|-----------------|
|----3-----3---3-|-----7------8----8-|-----------------|-----------------|


                                        Interlude
                          D.S. al Coda   Coda
|-------------------|-----------------||-----3-3-3---------|-------------------|
|-------3--3--1-1---|-----3-3-3-5-3-3-||-----------3-3--3--|-3-----3-3-1-------|
|-4---4-----------4-|-4---------------||-------------------|-----4-------4-----|
|-------------------|-----------------||---5---------------|---5---------------|
|-------------------|-----------------||-------------------|-------------------|
|-------------------|-----------------||-------------------|-------------------|
|
|-------------------|-----------------||-------------------|-------------------|
|---0---0-(0)-------|-1---1---3---3---||-------------------|-------------------|
|-------------------|---0---0---2---2-||-4-----4-------(4)-|-2-----0-------(0)-|
|-2---2-------------|-----------------||-5-----5-------(5)-|-4-----2-------(2)-|
|-------------------|-----------------||-7-----5-------(5)-|-5-----3-------(3)-|
|-------------------|-----------------||-------------------|-------------------|


|-----3-3-3---------|---------------|-----3-3-3---------|--------------------|
|-----------3-3--3--|-3-1-----3-5-3-|-----------3-3--3--|-3-------3-1--------|
|-------------------|-----4-4-------|-------------------|-------------4------|
|---5---------------|---------------|---5---------------|---5-5-5------------|
|-------------------|---------------|-------------------|--------------------|
|-------------------|---------------|-------------------|--------------------|
|
|-------------------|---------------|-------------------|--------------------|
|-------------------|---------------|-------------------|--------------------|
|-4-----4-------(4)-|---------7-9-7-|-4-----4-------(4)-|-2-----0-------(0)--|
|-5-----5-------(5)-|-7-7-7-7-------|-5-----5-------(5)-|-4-----2-------(2)--|
|-7-----5-------(5)-|-5-5-5-5-5-7-5-|-7-----5-------(5)-|-5-----3-------(3)--|
|-------------------|---------------|-------------------|--------------------|


|-----------------|-----------------3---2---||
|-------------3---|-3---1-------------------||
|-2---------2-----|---------4---------------||
|-----------------|-------------------------||
|-----------------|-------------------------||
|-----------------|-------------------------||
|
|-----------------|-------------------------||
|-----------------|-------------------------||
|-----------------|-------------------------||
|-7-7-7-7-7-7-7-7-|-5-5---5---5-7-7---7---7-||
|-5-5-5-5-5-5-5-5-|-3-3---3---3-5-5---5---5-||
|-----------------|-------------------------||


 Quiet chorus
|-3---(3)---(3)---(3)---|-----------------|
|------3-----0-----3----|-1-------3---1---|
|-----------------------|-----------------|
|-----------------------|-----------------|
|-----------------------|-----------------|
|-----------------------|-----------------|
|
|-----------------------|-----------------|
|-----------------------|-1---1---3---3---|
|-0-------0--------0----|---0---0---2---2-|
|---0--------0--------0-|-----------------|
|------0--------0-------|-----------------|
|-----------------------|-----------------|


|-----------------|-----------------|-----------------|-----------------|
|-------1-3-3-1---|-3-----3-3-5-3---|-3---5-3-3---3---|-3-3-1-1---------|
|-4---------------|-----------------|-----------------|---------4-4-2-2-|
|-----------------|-----------------|---------------5-|-----------------|
|-----------------|-----------------|-----------------|-----------------|
|-----------------|-----------------|-----------------|-----------------|
|
|-----------------|-----------------|-----------------|-----------------|
|-----------------|-1---1---3---3---|-----------------|-----------------|
|-0---0-----0---0-|---0---0---2---2-|-----------------|-----------------|
|---0---0-0---0---|-----------------|-9-9-9-9-9-9-9-9-|-5-5-5-5-7-7-7-7-|
|-----------------|-----------------|-7-7-7-7-7-7-7-7-|-3-3-3-3-5-5-5-5-|
|-----------------|-----------------|-----------------|-----------------|


|-----------------|-----------------|
|---3-3-1-------3-|-3-1-1-----------|
|-4-------4-------|-------4-4-2-2---|
|-------------5---|---------------5-|
|-----------------|-----------------|
|-----------------|-----------------|
|
|-----------------|-----------------|
|-----------------|-----------------|
|-----------------|-----------------|
|-9-9-9-9-9-9-9-9-|-5-5-5-5-7-7-7-7-|
|-7-7-7-7-7-7-7-7-|-3-3-3-3-5-5-5-5-|
|-----------------|-----------------|


|-----------------|-----------------|-------------|
|-------------3---|-1---------------|-------------|
|-----5---4-------|---------2-------|-------------|
|-5---------------|-------------4---|-5-----------|
|-----------------|-----------------|-------------|
|-----------------|-----------------|-------------|
|
|-----------------|-----------------|-------------|
|-----------------|-----------------|-------------|
|-7-7-7-7-7-7-7-7-|-----------------|-------------|
|-5-5-5-5-5-5-5-5-|-5-5-5-5-7-7-7-7-|-5-----5-----|
|-----------------|-3-3-3-3-5-5-5-5-|----5-----5--|
|-----------------|-----------------|-------------|


                  Final chorus
|---------------||-----------------|-----------------|
|---------------||-----3---0---3---|-1-------3---1---|
|---------------||-----------------|-----------------|
|---------------||-----------------|-----------------|
|---------------||-----------------|-----------------|
|---------------||-----------------|-----------------|
|
|---------------||-----------------|-----------------|
|-----3---------||-----------------|-1---1---3---3---|
|-4-----5--4----||-0-----0-----0---|---0---0---2---2-|
|---5--------5--||---0-----0-----0-|-----------------|
|---------------||-----0-----0-----|-----------------|
|---------------||-----------------|-----------------|


|-----------------|-----------------|-----------------|-----------------|
|-------1-3-3-1---|-3-----3-3-5-3---|-3---5-3-3---3---|-3-3-1-1---------|
|-4---------------|-----------------|-----------------|---------4-4-2-2-|
|-----------------|-----------------|---------------5-|-----------------|
|-----------------|-----------------|-----------------|-----------------|
|-----------------|-----------------|-----------------|-----------------|
|
|-----------------|-----------------|-----------------|-----------------|
|-----------------|-1---1---3---3---|-----------------|-----------------|
|-0---0-----0---0-|---0---0---2---2-|-----------------|-----------------|
|---0---0-0---0---|-----------------|-9-9-9-9-9-9-9-9-|-5-5-5-5-7-7-7-7-|
|-----------------|-----------------|-7-7-7-7-7-7-7-7-|-3-3-3-3-5-5-5-5-|
|-----------------|-----------------|-----------------|-----------------|


|-----------------|-----------------|-----------------|------------|----------*|
|---3-3-1-------3-|-3-1-1-----------|-------------3---|-1----------|----------*|
|-4-------4-------|-------4-4-2-2---|-----5---4-------|------2-----|----------*|
|-------------5---|---------------5-|-5---------------|---------4--|-5--------*|
|-----------------|-----------------|-----------------|------------|----------*|
|-----------------|-----------------|-----------------|------------|----------*|
|
|-----------------|-----------------|-----------------|------------|----------*|
|-----------------|-----------------|-----------------|------------|----------*|
|-----------------|-----------------|-7-7-7-7-7-7-7-7-|------------|-7--------*|
|-9-9-9-9-9-9-9-9-|-5-5-5-5-7-7-7-7-|-5-5-5-5-5-5-5-5-|-5----7-----|-5--------*|
|-7-7-7-7-7-7-7-7-|-3-3-3-3-5-5-5-5-|-----------------|-3----5-----|----------*|
|-----------------|-----------------|-----------------|------------|----------*|



************************************************************************************

***
* Generated using Power Tab Editor by Brad Larsen - 

http://powertab.guitarnetwork.org *
************************************************************************************

***
comments
We did not receive enough feedback on this tab! Please rate:
1 2 3 4 5
3 comments total.
+1 reply
xDjFx wrote on May 10 2008, 04:20 am

You didn't tab this you go it from alkalinetrio.com

0 reply
Undernarf wrote on May 10 2008, 04:36 pm

Yes but he made it easier for anyone who can't read notes. So thanks.

0 reply
fredzeskater wrote on May 12 2008, 03:12 am

where can i find this song?

I want to post or [tab]
guest
You may want to rate the tab now too:
select rating
Please do not post tabs as comments. Select "correction" instead!