Oops, an error
Loading. Please wait.

My Standard Break From Life Tab

ver2
ver2

Whole song

More versions @911Tabs.com
8,154 views 6 this week
no commentswrite comment
1 2 3 4 5
excellent!
x 5
Autoscroll
+/-
esc
set tempo
stop
WARNING: You are trying to view
                                    content from Ultimate-Guitar.com
                                    in an unauthorized application,
                                    which is prohibited.

                                    Please use an official Ultimate
                                    Guitar Tabs application for iPhone,
                                    iPad or Android to access legitimate
                                    chords, guitar, bass, and drum tabs
                                    from Ultimate-Guitar.com database.

                                    Type "ultimate guitar tabs" in Apple
                                    App Store's or Android Market's
                                    search to find the application.
-------------------------------------------------------------------------------
                   MY STANDARD BREAK FROM LIFE - Alkaline Trio
-------------------------------------------------------------------------------
Tabbed by:John Proach
Email:

Tuning:Standard

Off the Hell Yes 7".

e|---------------------------------------------------------------------------|
B|---------------------------------------------------------------------------|
G|--9-9-9-9-9-9-9-9-9-9-9--9-9-9-9-9-9-9-9-9-9-9-9-9-9-9--9-9-9-9-9-9--------|
D|--9-9-9-9-9-9-9-9-9-9-9--7-7-7-7-7-7-7-7-7-7-7-7-7-7-7--9-9-9-9-9-9--------|
A|--7-7-7-7-7-7-7-7-7-7-7--0-0-0-0-0-0-0-0-0-0-0-0-0-0-0--7-7-7-7-7-7--------|
E|---------------------------------------------------------------------------|
   Ive got a regular problem......
e|---------------------------------------------------------------------------|
B|---------------------------------------------------------------------------|
G|-----9-9-9-9-9-9-9-9-------------------------------------------------------|
D|--9--9-9-9-9-9-9-9-9-------------------------------------------------------|
A|--9--7-7-7-7-7-7-7-7-------------------------------------------------------|
E|--7------------------------------------------------------------------------|

e|---------------------------------------------------------------------------|
B|---------------------------------------------------------------------------|
G|-9-9-9-9-9-9-9-9-9-9-9---------------------------------9-9-9-9-9-9---------|
D|-9-9-9-9-9-9-9-9-9-9-9--7-7-7-7-7-7-7-7-7-7-7-7-7-7-7--9-9-9-9-9-9---------|
A|-7-7-7-7-7-7-7-7-7-7-7--7-7-7-7-7-7-7-7-7-7-7-7-7-7-7--7-7-7-7-7-7---------|
E|------------------------5-5-5-5-5-5-5-5-5-5-5-5-5-5-5----------------------|
   (MUTE............................................................)
e|---------------------------------------------------------------------------|
B|---------------------------------------------------------------------------|
G|-----9-9-9-9-9-9-9-9-------------------------------------------------------|
D|--9--9-9-9-9-9-9-9-9-------------------------------------------------------|
A|--9--7-7-7-7-7-7-7-7-------------------------------------------------------|
E|--7------------------------------------------------------------------------|

e|---------------------------------------------------------------------------|
B|---------------------------------------------------------------------------|
G|--2-2-2-2------------4-4-4-4-4---9-9-9-9-9-9-9--9-9-9-9-9-9-9--9-9-9-9-9---|
D|--2-2-2-2--4-4--6-6--4-4-4-4-4---9-9-9-9-9-9-9--7-7-7-7-7-7-7--9-9-9-9-9---|
A|--0-0-0-0--0-0--0-0--2-2-2-2-2---7-7-7-7-7-7-7--0-0-0-0-0-0-0--7-7-7-7-7---|
E|---------------------------------------------------------------------------|
   You see i dont know what i said to you.......
e|---------------------------------------------------------------------------|
B|---------------------------------------------------------------------------|
G|-9-9-9---------------------8/9-9-9-9-9-9-9-9-9-----------------------------|
D|-9-9-9--9-9-9-9-9-9-9-9-9--x/x-x-x-x-x-x-x-x-x--9-9-9-9-9-9-9--------------|
A|-7-7-7--9-9-9-9-9-9-9-9-9--6/7-7-7-7-7-7-7-7-7--9-9-9-9-9-9-9--------------|
E|--------7-7-7-7-7-7-7-7-7-----------------------7-7-7-7-7-7-7--------------|
  
e|---------------------------------------------------------------------------|
B|---------------------------------------------------------------------------|
G|-9-9-9-9-9-9-9-9-9-9-9---------------------------------9-9-9-9-9-9---------|
D|-9-9-9-9-9-9-9-9-9-9-9--7-7-7-7-7-7-7-7-7-7-7-7-7-7-7--9-9-9-9-9-9---------|
A|-7-7-7-7-7-7-7-7-7-7-7--7-7-7-7-7-7-7-7-7-7-7-7-7-7-7--7-7-7-7-7-7---------|
E|------------------------5-5-5-5-5-5-5-5-5-5-5-5-5-5-5----------------------|
   (MUTE............................................................)
   I try to leave a good impression...
e|---------------------------------------------------------------------------|
B|---------------------------------------------------------------------------|
G|-----9-9-9-9-9-9-9-9-------------------------------------------------------|
D|--9--9-9-9-9-9-9-9-9-------------------------------------------------------|
A|--9--7-7-7-7-7-7-7-7-------------------------------------------------------|
E|--7------------------------------------------------------------------------|

e|---------------------------------------------------------------------------|
B|---------------------------------------------------------------------------|
G|-8/9-9-9-9-9-9-9-9-9-9---------------------------------9-9-9-9-9-9---------|
D|-x/x-9-9-9-9-9-9-9-9-9--7-7-7-7-7-7-7-7-7-7-7-7-7-7-7--9-9-9-9-9-9---------|
A|-6/7-7-7-7-7-7-7-7-7-7--7-7-7-7-7-7-7-7-7-7-7-7-7-7-7--7-7-7-7-7-7---------|
E|------------------------5-5-5-5-5-5-5-5-5-5-5-5-5-5-5----------------------|
       (MUTE........................................................)
   And when your only 23....
e|---------------------------------------------------------------------------|
B|---------------------------------------------------------------------------|
G|-----9-9-9-9-9-9-9-9-------------------------------------------------------|
D|--9--9-9-9-9-9-9-9-9-------------------------------------------------------|
A|--9--7-7-7-7-7-7-7-7-------------------------------------------------------|
E|--7------------------------------------------------------------------------|

e|---------------------------------------------------------------------------|
B|---------------------------------------------------------------------------|
G|--2-2-2-2------------4-4-4-4-4---9-9-9-9-9-9-9--9-9-9-9-9-9-9--9-9-9-9-9---|
D|--2-2-2-2--4-4--6-6--4-4-4-4-4---9-9-9-9-9-9-9--7-7-7-7-7-7-7--9-9-9-9-9---|
A|--0-0-0-0--0-0--0-0--2-2-2-2-2---7-7-7-7-7-7-7--0-0-0-0-0-0-0--7-7-7-7-7---|
E|---------------------------------------------------------------------------|
   Yes I can bitch until my eyes are blue....
e|---------------------------------------------------------------------------|
B|---------------------------------------------------------------------------|
G|-9-9-9---------------------8/9-9-9-9-9-9-9-9-9-----------------------------|
D|-9-9-9--9-9-9-9-9-9-9-9-9--x/x-x-x-x-x-x-x-x-x--9-9-9-9-9-9-9--------------|
A|-7-7-7--9-9-9-9-9-9-9-9-9--6/7-7-7-7-7-7-7-7-7--9-9-9-9-9-9-9--------------|
E|--------7-7-7-7-7-7-7-7-7-----------------------7-7-7-7-7-7-7--------------|

e|---------------------------------------------------------------------------|
B|---------------------------------------------------------------------------|
G|--2-2-2-2------------4-4-4-4-4---9-9-9-9-9-9-9--6-6-6-6-6-6-6--------------|
D|--2-2-2-2--4-4--6-6--4-4-4-4-4---9-9-9-9-9-9-9--6-6-6-6-6-6-6--7-7---------|
A|--0-0-0-0--0-0--0-0--2-2-2-2-2---7-7-7-7-7-7-7--4-4-4-4-4-4-4--7-7---------|
E|---------------------------------------------------------------5-5---------|
    You say Im fixable......
e|---------------------------------------------------------------------------|
B|---------------------------------------------------------------------------|
G|---------------------------------------------------------------------------|
D|-7-7-7--7-7-7--7-7-7---9-9-9-9-9-9-9-9-9-9-9-9-9-9--x-x-x------------------|
A|-7-7-7--7-7-7--7-7-7---9-9-9-9-9-9-9-9-9-9-9-9-9-9--x-x-x------------------|
E|-5-5-5--5-5-5--5-5-5---7-7-7-7-7-7-7-7-7-7-7-7-7-7--x-x-x------------------|

e|---------------------------------------------------------------------------|
B|---------------------------------------------------------------------------|
G|--9-9-9-9---------6-----9-9-9-9---------6----9-9-9-9---------6-------------|
D|--9-9-9-9---6/7-9---9---9-9-9-9---6/7-9---9--9-9-9-9---6/7-9---9-----------|
A|--7-7-7-7-0-------------7-7-7-7-0------------7-7-7-7-0---------------------|
E|---------------------------------------------------------------------------|

e|---------------------------------------------------------------------------|
B|---------------------------------------------------------------------------|
G|--4-4-4-4--2-2-------------------------------------------------------------|
D|--4-4-4-4--2-2--4--6-------------------------------------------------------|
A|--2-2-2-2--0-0--0--0-------------------------------------------------------|
E|---------------------------------------------------------------------------|

e|---------------------------------------------------------------------------|
B|---------------------------------------------------------------------------|
G|--9-9-9-9---------6-----9-9-9-9---------6----9-9-9-9---------6-------------|
D|--9-9-9-9---6/7-9---9---9-9-9-9---6/7-9---9--9-9-9-9---6/7-9---9-----------|
A|--7-7-7-7-0-------------7-7-7-7-0------------7-7-7-7-0---------------------|
E|---------------------------------------------------------------------------|

e|---------------------------------------------------------------------------|
B|---------------------------------------------------------------------------|
G|--4-4-4-4------------------------------------------------------------------|
D|--4-4-4-4------------------------------------------------------------------|
A|--2-2-2-2------------------------------------------------------------------|
E|---------------------------------------------------------------------------|

e|---------------------------------------------------------------------------|
B|---------------------------------------------------------------------------|
G|-9-9-9-9-9-9-9-9-9-9-9---------------------------------9-9-9-9-9-9---------|
D|-9-9-9-9-9-9-9-9-9-9-9--7-7-7-7-7-7-7-7-7-7-7-7-7-7-7--9-9-9-9-9-9---------|
A|-7-7-7-7-7-7-7-7-7-7-7--7-7-7-7-7-7-7-7-7-7-7-7-7-7-7--7-7-7-7-7-7---------|
E|------------------------5-5-5-5-5-5-5-5-5-5-5-5-5-5-5----------------------|
   (MUTE............................................................)
   Ive got a motivation problem....
e|---------------------------------------------------------------------------|
B|---------------------------------------------------------------------------|
G|-----9-9-9-9-9-9-9-9-------------------------------------------------------|
D|--9--9-9-9-9-9-9-9-9-------------------------------------------------------|
A|--9--7-7-7-7-7-7-7-7-------------------------------------------------------|
E|--7------------------------------------------------------------------------|

e|---------------------------------------------------------------------------|
B|---------------------------------------------------------------------------|
G|-8/9-9-9-9-9-9-9-9-9-9---------------------------------9-9-9-9-9-9---------|
D|-x/x-9-9-9-9-9-9-9-9-9--7-7-7-7-7-7-7-7-7-7-7-7-7-7-7--9-9-9-9-9-9---------|
A|-6/7-7-7-7-7-7-7-7-7-7--7-7-7-7-7-7-7-7-7-7-7-7-7-7-7--7-7-7-7-7-7---------|
E|------------------------5-5-5-5-5-5-5-5-5-5-5-5-5-5-5----------------------|
       (MUTE........................................................)
       Spent over 30 hours in this bed.....
e|---------------------------------------------------------------------------|
B|---------------------------------------------------------------------------|
G|-----9-9-9-9-9-9-9-9-------------------------------------------------------|
D|--9--9-9-9-9-9-9-9-9-------------------------------------------------------|
A|--9--7-7-7-7-7-7-7-7-------------------------------------------------------|
E|--7------------------------------------------------------------------------|

e|---------------------------------------------------------------------------|
B|---------------------------------------------------------------------------|
G|--2-2-2-2------------4-4-4-4-4---9-9-9-9-9-9-9--9-9-9-9-9-9-9--9-9-9-9-9---|
D|--2-2-2-2--4-4--6-6--4-4-4-4-4---9-9-9-9-9-9-9--7-7-7-7-7-7-7--9-9-9-9-9---|
A|--0-0-0-0--0-0--0-0--2-2-2-2-2---7-7-7-7-7-7-7--0-0-0-0-0-0-0--7-7-7-7-7---|
E|---------------------------------------------------------------------------|
   But now that im awake.....
e|---------------------------------------------------------------------------|
B|---------------------------------------------------------------------------|
G|-9-9-9---------------------8/9-9-9-9-9-9-9-9-9-----------------------------|
D|-9-9-9--9-9-9-9-9-9-9-9-9--x/x-x-x-x-x-x-x-x-x--9-9-9-9-9-9-9--------------|
A|-7-7-7--9-9-9-9-9-9-9-9-9--6/7-7-7-7-7-7-7-7-7--9-9-9-9-9-9-9--------------|
E|--------7-7-7-7-7-7-7-7-7-----------------------7-7-7-7-7-7-7--------------|

e|---------------------------------------------------------------------------|
B|---------------------------------------------------------------------------|
G|--2-2-2-2------------4-4-4-4-4---9-9-9-9-9-9-9--6-6-6-6-6-6-6--------------|
D|--2-2-2-2--4-4--6-6--4-4-4-4-4---9-9-9-9-9-9-9--6-6-6-6-6-6-6--7-7---------|
A|--0-0-0-0--0-0--0-0--2-2-2-2-2---7-7-7-7-7-7-7--4-4-4-4-4-4-4--7-7---------|
E|---------------------------------------------------------------5-5---------|
   You say its fixable.....
e|---------------------------------------------------------------------------|
B|---------------------------------------------------------------------------|
G|---------------------------------------------------------------------------|
D|-7-7-7--7-7-7--7-7-7---9-9-9-9-9-9-9-9-9-9-9-9-9-9--x-x-x------------------|
A|-7-7-7--7-7-7--7-7-7---9-9-9-9-9-9-9-9-9-9-9-9-9-9--x-x-x------------------|
E|-5-5-5--5-5-5--5-5-5---7-7-7-7-7-7-7-7-7-7-7-7-7-7--x-x-x------------------|

e|---------------------------------------------------------------------------|
B|---------------------------------------------------------------------------|
G|--9-9-9-9---------6-----9-9-9-9---------6----9-9-9-9---------6-------------|
D|--9-9-9-9---6/7-9---9---9-9-9-9---6/7-9---9--9-9-9-9---6/7-9---9-----------|
A|--7-7-7-7-0-------------7-7-7-7-0------------7-7-7-7-0---------------------|
E|---------------------------------------------------------------------------|

e|---------------------------------------------------------------------------|
B|---------------------------------------------------------------------------|
G|--4-4-4-4--2-2-------------------------------------------------------------|
D|--4-4-4-4--2-2--4--6-------------------------------------------------------|
A|--2-2-2-2--0-0--0--0-------------------------------------------------------|
E|---------------------------------------------------------------------------|

e|---------------------------------------------------------------------------|
B|---------------------------------------------------------------------------|
G|--9-9-9-9---------6-----9-9-9-9---------6----9-9-9-9---------6-------------|
D|--9-9-9-9---6/7-9---9---9-9-9-9---6/7-9---9--9-9-9-9---6/7-9---9-----------|
A|--7-7-7-7-0-------------7-7-7-7-0------------7-7-7-7-0---------------------|
E|---------------------------------------------------------------------------|

e|---------------------------------------------------------------------------|
B|---------------------------------------------------------------------------|
G|--4-4-4-4------------------------------------------------------------------|
D|--4-4-4-4------------------------------------------------------------------|
A|--2-2-2-2------------------------------------------------------------------|
E|---------------------------------------------------------------------------|


| /  slide up
| \  slide down
| h  hammer-on
| p  pull-off
| ~  vibrato
| +  harmonic
| x  Mute note
===============================================================================
comments
print report bad tab
I want to post or [tab]
guest
You may want to rate the tab now too:
select rating
Please do not post tabs as comments. Select "correction" instead!