Oops, an error
Loading. Please wait.

Over And Out Tab

ver1
ver1

Whole song

More versions @911Tabs.com
8,426 views 1 this week
no commentswrite comment
1 2 3 4 5
worth learning
x 2
Autoscroll
+/-
esc
set tempo
stop
Contributor
WARNING: You are trying to view
                                    content from Ultimate-Guitar.com
                                    in an unauthorized application,
                                    which is prohibited.

                                    Please use an official Ultimate
                                    Guitar Tabs application for iPhone,
                                    iPad or Android to access legitimate
                                    chords, guitar, bass, and drum tabs
                                    from Ultimate-Guitar.com database.

                                    Type "ultimate guitar tabs" in Apple
                                    App Store's or Android Market's
                                    search to find the application.
Over and Out
Alkaline Trio
Guitar Tab

Intro - 4 Bars of Bass and Keyboard then



   Guitar One
e|---------------------------------|---------------------------------|
B|---------------------------------|---------------------------------|
G|---------------------------------|---------------------------------|
D|---------------------------------|---------------------------------|
A|-4-------5-------7---------------|---------------------------------|
E|---------------------------------|---------------------------------|
 | 1 + + + 2 + + + 3 + + + 4 + + +   1 + + + 2 + + + 3 + + + 4 + + +
 |
 | Guitar Two
e|-9-----------------------7-------|-10--------------9---------------|
B|---------------------------------|---------------------------------|
G|---------------------------------|---------------------------------|
D|---------------------------------|---------------------------------|
A|---------------------------------|---------------------------------|
E|---------------------------------|---------------------------------|
 | 1 + + + 2 + + + 3 + + + 4 + + +   1 + + + 2 + + + 3 + + + 4 + + +
 |
 | Guitar Three
e|---------------------------------|---------------------------------|
B|---------------------------------|---------------------------------|
G|-14--14--14--14--14--14--14--14--|-14--14--14--14--14--14--14--14--|
D|-X---X---X---X---X---X---X---X---|-X---X---X---X---X---X---X---X---|
A|-12--12--12--12--12--12--12--12--|-12--12--12--12--12--12--12--12--|
E|---------------------------------|---------------------------------|
   1 + + + 2 + + + 3 + + + 4 + + +   1 + + + 2 + + + 3 + + + 4 + + +


   
e|---------------------------------|---------------------------------|
B|---------------------------------|---------------------------------|
G|-------------------------16--16--|-16--16--16--16--16//19--19--19--|
D|---------------------------------|---------------------------------|
A|-4---5---7---------------14--14--|-14--14--14--14--14//17--17--17--|
E|---------------------------------|---------------------------------|
 | 1 + + + 2 + + + 3 + + + 4 + + +   1 + + + 2 + + + 3 + + + 4 + + +
 |
 | 
e|-9-----------------------7-------|-10--------------9---------------|
B|---------------------------------|---------------------------------|
G|---------------------------------|---------------------------------|
D|---------------------------------|---------------------------------|
A|---------------------------------|---------------------------------|
E|---------------------------------|---------------------------------|
 | 1 + + + 2 + + + 3 + + + 4 + + +   1 + + + 2 + + + 3 + + + 4 + + +
 |
 |
e|---------------------------------|---------------------------------|
B|---------------------------------|---------------------------------|
G|-14--14--14--14--14--14--14--14--|-14--14--14--14--14--14--14--14--|
D|-X---X---X---X---X---X---X---X---|-X---X---X---X---X---X---X---X---|
A|-12--12--12--12--12--12--12--12--|-12--12--12--12--12--12--12--12--|
E|---------------------------------|---------------------------------|
   1 + + + 2 + + + 3 + + + 4 + + +   1 + + + 2 + + + 3 + + + 4 + + +


  
e|---------------------------------|---------------------------------|
B|---------------------------------|---------------------------------|
G|-19\\18--18--18--16--16--16--16--|-16\\14--14--14--14\\13—-13//14--|
D|-X---X---X---X---X---X---X---X---|-X---X---X---X---X---X---X---X---|
A|-17\\16--16--16--16\\14--14--14--|-14\\12--12--12--12\\11--11//12--|
E|---------------------------------|---------------------------------|
 | 1 + + + 2 + + + 3 + + + 4 + + +   1 + + + 2 + + + 3 + + + 4 + + +
 |
 | 
e|-9-----------------------7-------|-10--------------9---------------|
B|---------------------------------|---------------------------------|
G|---------------------------------|---------------------------------|
D|---------------------------------|---------------------------------|
A|---------------------------------|---------------------------------|
E|---------------------------------|---------------------------------|
 | 1 + + + 2 + + + 3 + + + 4 + + +   1 + + + 2 + + + 3 + + + 4 + + +
 |
 |
e|---------------------------------|---------------------------------|
B|---------------------------------|---------------------------------|
G|-14--14--14--14--14--14--14--14--|-14--14--14--14--14--14--14--14--|
D|-X---X---X---X---X---X---X---X---|-X---X---X---X---X---X---X---X---|
A|-12--12--12--12--12--12--12--12--|-12--12--12--12--12--12--12--12--|
E|---------------------------------|---------------------------------|
   1 + + + 2 + + + 3 + + + 4 + + +   1 + + + 2 + + + 3 + + + 4 + + +



  
e|---------------------------------|-----------------|-----------------|
B|---------------------------------|-----------------|-----------------|
G|-14--14--14--14--14--14--14--14--|-14--------------|-----------------|
D|-X---X---X---X---X---X---X---X---|-X---------------|-----------------|
A|-12--12--12--12--12--12--12--12--|-12--------------|-----------------|
E|---------------------------------|-----------------|-------------X\\\|
 | 1 + + + 2 + + + 3 + + + 4 + + +   1 + 2 + 3 + 4 +   1 + 2 + 3 + 4 +
 |
 |
e|-9-----------------------7-------|-10--------------|-----------------|
B|---------------------------------|-----------------|-----------------|
G|---------------------------------|-----------------|-----------------|
D|---------------------------------|-----------------|-----------------|
A|---------------------------------|-----------------|-----------------|
E|---------------------------------|-----------------|-----------------|
   1 + + + 2 + + + 3 + + + 4 + + +   1 + 2 + 3 + 4 +   1 + 2 + 3 + 4 +
 |
 | 
e|---------------------------------|-----------------|-----------------|
B|---------------------------------|-----------------|-----------------|
G|-14--14--14--14--14--14--14--14--|-14--------------|-----------------|
D|-X---X---X---X---X---X---X---X---|-X---------------|-----------------|
A|-12--12--12--12--12--12--12--12--|-12--------------|-----------------|
E|---------------------------------|-----------------|-----------------|
   1 + + + 2 + + + 3 + + + 4 + + +   1 + 2 + 3 + 4 +   1 + 2 + 3 + 4 +


1st Verse -		“Over and out,” she said, from a hospital bed
			"For what it’s worth it doesn’t hurt, don’t cry.”
			“Over and out,” he said, with a .45 to his head
			“The war has taken everything from me, it’s all I see so…”

Guitar One

e|-----------------|-----------------|-----------------|-----------------|
B|-----------------|-----------------|-----------------|-----------------|
G|-----------------|-----------------|-----------------|-----------------|
D|-----------------|-----------------|-----------------|-----------------|
A|-----------------|-----------------|-----------------|-----------------|
E|-----------------|-----------------|-----------------|-----------------|
   1 + 2 + 3 + 4 +   1 + 2 + 3 + 4 +   1 + 2 + 3 + 4 +   1 + 2 + 3 + 4 +   


                   
e|---------------------------------|---------------------------------|
B|---------------------------------|---------------------------------|
G|---------------------------------|---------------------------------|
D|---------------------------------|---------------------------------|
A|---------------------------------|---------------------------------|
E|---------------------------------|---------------------------------|
   1 + + + 2 + + + 3 + + + 4 + + +   1 + + + 2 + + + 3 + + + 4 + + +

                       
e|---------------------------------|---------------------------------|
B|---------------------------------|---------------------------------|
G|---------------------------------|---------------------------------|
D|---------------------------------|---------------------------------|
A|-12121212121212121212121212121212|-12121212121212121212121212121212|
E|-* Fade in ----------------------|---------------------------------|
   1 + + + 2 + + + 3 + + + 4 + + +   1 + + + 2 + + + 3 + + + 4 + + +
   PM---------------------------------------------------------------|


   Guitar One
e|---------------------------------|---------------------------------|
B|---------------------------------|---------------------------------|
G|---------------------------------|---------------------------------|
D|---------------------------------|---------------------------------|
A|-12121212121212121212121212121212|-12121212121212121212121212121212|
E|---------------------------------|---------------------------------|
 | 1 + + + 2 + + + 3 + + + 4 + + +   1 + + + 2 + + + 3 + + + 4 + + + 
 | PM--------------------------------------------------------------|
 |
 | Guitar Two
e|---------------------------------|---------------------------------|
B|---------------------------------|---------------------------------|
G|---------------------------------|---------------------------------|
D|-11--11--11--9---9---9---12--12--|-12--11--11--11--11--11--11--11--|
A|---------------------------------|---------------------------------|
E|---------------------------------|---------------------------------|
   1 + + + 2 + + + 3 + + + 4 + + +   1 + + + 2 + + + 3 + + + 4 + + +
   PM--------------------------------------------------------------|


               
e|---------------------------------|---------------------------------|
B|---------------------------------|---------------------------------|
G|---------------------------------|---------------------------------|
D|---------------------------------|---------------------------------|
A|-12121212121212121212121212121212|-12121212121212121212121212121212|
E|---------------------------------|---------------------------------|
 | 1 + + + 2 + + + 3 + + + 4 + + +   1 + + + 2 + + + 3 + + + 4 + + + 
 | PM--------------------------------------------------------------|
 |
 |           
e|---------------------------------|---------------------------------|
B|---------------------------------|---------------------------------|
G|---------------------------------|---------------------------------|
D|-11--11--11--9---9---9---12--12--|-12--11--11--11--11--11--11--11--|
A|---------------------------------|---------------------------------|
E|---------------------------------|---------------------------------|
   1 + + + 2 + + + 3 + + + 4 + + +   1 + + + 2 + + + 3 + + + 4 + + +
   PM--------------------------------------------------------------|

e|---------------------------------|---------------------------------|
B|---------------------------------|---------------------------------|
G|---------------------------------|---------------------------------|
D|---------------------------------|---------------------------------|
A|-12121212121212121212121212121212|-12121212121212121212121212121212|
E|---------------------------------|---------------------------------|
 | 1 + + + 2 + + + 3 + + + 4 + + +   1 + + + 2 + + + 3 + + + 4 + + + 
 | PM--------------------------------------------------------------|
 |
 |           
e|---------------------------------|---------------------------------|
B|---------------------------------|---------------------------------|
G|---------------------------------|---------------------------------|
D|-11--11--11--9---9---9---12--12--|-12--11--11--11--11--11--11--11--|
A|---------------------------------|---------------------------------|
E|---------------------------------|---------------------------------|
   1 + + + 2 + + + 3 + + + 4 + + +   1 + + + 2 + + + 3 + + + 4 + + +
   PM--------------------------------------------------------------|


e|---------------------------------|---------------------------------|
B|---------------------------------|---------------------------------|
G|---------------------------------|---------------------------------|
D|---------------------------------|---------------------------------|
A|-12121212121212121212121212121212|-12------------------------------|
E|---------------------------------|---------------------------------|
 | 1 + + + 2 + + + 3 + + + 4 + + +   1 + + + 2 + + + 3 + + + 4 + + + 
 | PM----------------------------|                                  
 |
 |           
e|---------------------------------|---------------------------------|
B|---------------------------------|---------------------------------|
G|---------------------------------|---------------------------------|
D|-11--11--11--9---9---9---12--12--|-12------------------------------|
A|---------------------------------|---------------------------------|
E|---------------------------------|---------------------------------|
   1 + + + 2 + + + 3 + + + 4 + + +   1 + + + 2 + + + 3 + + + 4 + + +
   PM--------------------------|                                    


Chorus - 	Run for cover as fast as you can
		Where fighters are lovers, enemies are friends
		And pens and knives apologize for leaving you tonight
 
   Guitar One
e|---------------------------------|---------------------------------|
B|---------------------------------|---------------------------------|
G|---------------------------------|---------------------------------|
D|-2---2---2---2---2---2---2---2---|-2---2---2---2---2---2---2---2---|
A|-0---0---0---0---0---0---0---0---|-0---0---0---0---0---0---0---0---|
E|---------------------------------|---------------------------------|
 | 1 + + + 2 + + + 3 + + + 4 + + +   1 + + + 2 + + + 3 + + + 4 + + + 
 | 
 |
 | Guitar Two
e|---------------------------------|---------------------------------|
B|-14--14--14--14--14--14--12--12--|-15--15--15--15--14--14--14--14--|
G|-X---X---X---X---X---X---X---X---|-X---X---X---X---X---X---X---X---|
D|-11--11--11--11--11--11--9---9---|-12--12--12--12--11--11--11--11--|
A|---------------------------------|---------------------------------|
E|---------------------------------|---------------------------------|
 | 1 + + + 2 + + + 3 + + + 4 + + +   1 + + + 2 + + + 3 + + + 4 + + +
 |
 | Guitar Three
e|---------------------------------|---------------------------------|
B|---------------------------------|---------------------------------|
G|-14--14--14--14--14--14--14--14--|-14--14--14--14--14--14--14--14--|
D|-X---X---X---X---X---X---X---X---|-X---X---X---X---X---X---X---X---|
A|-12--12--12--12--12--12--12--12--|-12--12--12--12--12--12--12--12--|
E|---------------------------------|---------------------------------|
   1 + + + 2 + + + 3 + + + 4 + + +   1 + + + 2 + + + 3 + + + 4 + + +

               
e|---------------------------------|---------------------------------|
B|---------------------------------|---------------------------------|
G|---------------------------------|---------------------------------|
D|-2---2---2---2---2---2---2---2---|-2---2---2---2---2---2---2---2---|
A|-2---2---2---2---2---2---2---2---|-2---2---2---2---2---2---2---2---|
E|-0---0---0---0---0---0---0---0---|-0---0---0---0---0---0---0---0---|
 | 1 + + + 2 + + + 3 + + + 4 + + +   1 + + + 2 + + + 3 + + + 4 + + + 
 | 
 |
 |                       
e|---------------------------------|---------------------------------|
B|-14--14--14--14--14--14--12--12--|-15--15--15--15--14--14--14--14--|
G|-X---X---X---X---X---X---X---X---|-X---X---X---X---X---X---X---X---|
D|-11--11--11--11--11--11--9---9---|-12--12--12--12--11--11--11--11--|
A|---------------------------------|---------------------------------|
E|---------------------------------|---------------------------------|
 | 1 + + + 2 + + + 3 + + + 4 + + +   1 + + + 2 + + + 3 + + + 4 + + +
 |
 |                  
e|---------------------------------|---------------------------------|
B|---------------------------------|---------------------------------|
G|-14--14--14--14--14--14--14--14--|-14--14--14--14--14--14--14--14--|
D|-X---X---X---X---X---X---X---X---|-X---X---X---X---X---X---X---X---|
A|-12--12--12--12--12--12--12--12--|-12--12--12--12--12--12--12--12--|
E|---------------------------------|---------------------------------|
   1 + + + 2 + + + 3 + + + 4 + + +   1 + + + 2 + + + 3 + + + 4 + + +


e|---------------------------------|---------------------------------|
B|---------------------------------|---------------------------------|
G|---------------------------------|---------------------------------|
D|-4---4---4---4---4---4---4---4---|-4---4---4---4---4---4---4---4---|
A|-4---4---4---4---4---4---4---4---|-4---4---4---4---4---4---4---4---|
E|-2---2---2---2---2---2---2---2---|-2---2---2---2---2---2---2---2---|
 | 1 + + + 2 + + + 3 + + + 4 + + +   1 + + + 2 + + + 3 + + + 4 + + + 
 | 
 |
 |                       
e|---------------------------------|---------------------------------|
B|-14--14--14--14--14--14--12--12--|-15--15--15--15--14--14--14--14--|
G|-X---X---X---X---X---X---X---X---|-X---X---X---X---X---X---X---X---|
D|-11--11--11--11--11--11--9---9---|-12--12--12--12--11--11--11--11--|
A|---------------------------------|---------------------------------|
E|---------------------------------|---------------------------------|
 | 1 + + + 2 + + + 3 + + + 4 + + +   1 + + + 2 + + + 3 + + + 4 + + +
 |
 |                  
e|---------------------------------|---------------------------------|
B|---------------------------------|---------------------------------|
G|-14--14--14--14--14--14--14--14--|-14--14--14--14--14--14--14--14--|
D|-X---X---X---X---X---X---X---X---|-X---X---X---X---X---X---X---X---|
A|-12--12--12--12--12--12--12--12--|-12--12--12--12--12--12--12--12--|
E|---------------------------------|---------------------------------|
   1 + + + 2 + + + 3 + + + 4 + + +   1 + + + 2 + + + 3 + + + 4 + + +


e|---------------------------------|---------------------------------|
B|---------------------------------|---------------------------------|
G|---------------------------------|---------------------------------|
D|-7---7---7---7---7---7---7---7---|-7---7---7---7---7---7---7---7---|
A|-5---5---5---5---5---5---5---5---|-5---5---5---5---5---5---5---5---|
E|---------------------------------|---------------------------------|
 | 1 + + + 2 + + + 3 + + + 4 + + +   1 + + + 2 + + + 3 + + + 4 + + + 
 | 
 |
 |                       
e|---------------------------------|---------------------------------|
B|-15--15--15--15--15--15--15--15--|-14--14--14--14--14--14--14--14--|
G|-X---X---X---X---X---X---X---X---|-X---X---X---X---X---X---X---X---|
D|-12--12--12--12--12--12--12--12--|-11--11--11--11--11--11--11--11--|
A|---------------------------------|---------------------------------|
E|---------------------------------|---------------------------------|
 | 1 + + + 2 + + + 3 + + + 4 + + +   1 + + + 2 + + + 3 + + + 4 + + +
 |
 |                  
e|---------------------------------|---------------------------------|
B|---------------------------------|---------------------------------|
G|-7---7---7---7---7---7---7---7---|-6---6---6---6---2---------------|
D|-X---X---X---X---X---X---X---X---|-X---X---X---X---2---------------|
A|-5---5---5---5---5---5---5---5---|-4---4---4---4---0---------------|
E|---------------------------------|---------------------------------|
   1 + + + 2 + + + 3 + + + 4 + + +   1 + + + 2 + + + 3 + + + 4 + + +

Interlude

e|---------------------------------|---------------------------------|
B|---------------------------------|---------------------------------|
G|---------------------------------|---------------------------------|
D|-2-------------------------------|---------------------------------|
A|-0-------------------------------|---------------------------------|
E|-* Fade Out ---------------------|---------------------------------|
 | 1 + + + 2 + + + 3 + + + 4 + + +   1 + + + 2 + + + 3 + + + 4 + + + 
 | 
 |
 |                       
e|---------------------------------|---------------------------------|
B|---------------------------------|---------------------------------|
G|---------------------------------|---------------------------------|
D|<12> ----------------------------|---------------------------------|
A|---------------------------------|---------------------------------|
E|-* Fade Out ---------------------|---------------------------------|
 | 1 + + + 2 + + + 3 + + + 4 + + +   1 + + + 2 + + + 3 + + + 4 + + +
 |
 |                  
e|---------------------------------|---------------------------------|
B|---------------------------------|---------------------------------|
G|---------------------------------|---------------------------------|
D|---------------------------------|---------------------------------|
A|---------------------------------|---------------------------------|
E|-* Hold last chord and fade out -|---------------------------------|
   1 + + + 2 + + + 3 + + + 4 + + +   1 + + + 2 + + + 3 + + + 4 + + +


                   
e|---------------------------------|---------------------------------|
B|---------------------------------|---------------------------------|
G|---------------------------------|---------------------------------|
D|---------------------------------|---------------------------------|
A|---------------------------------|---------------------------------|
E|---------------------------------|---------------------------------|
   1 + + + 2 + + + 3 + + + 4 + + +   1 + + + 2 + + + 3 + + + 4 + + +


e|-----------------|-----------------|-----------------|-----------------|
B|-----------------|-----------------|-----------------|-----------------|
G|-----------------|-----------------|-----------------|-----------------|
D|-----------------|-----------------|-----------------|-----------------|
A|-----------------|-----------------|-----------------|-----------------|
E|-----------------|-----------------|-----------------|-----------------|
   1 + 2 + 3 + 4 +   1 + 2 + 3 + 4 +   1 + 2 + 3 + 4 +   1 + 2 + 3 + 4 +  

2nd Verse - 	“Over and out,” he sighed, “it seems I’ve run out of time.
			Please tell my wife I loved her more than life itself.”
			"Over and out,” she sang, as the telephone rang
			“There’s no pain, no answering no more.”

Guitars One and Two Repeat 1st Verse
 

Chorus - 	Run for cover as fast as you can
		Where fighters are lovers, enemies are friends
		And pens and knives apologize for leaving you tonight
		Run for cover and you’ll find us there
		To take on the anguish, make it disappear
		When hand grenades and napalm flames are leaving you tonight

 

   Guitar One
e|---------------------------------|---------------------------------|
B|---------------------------------|---------------------------------|
G|---------------------------------|---------------------------------|
D|-2---2---2---2---2---2---2---2---|-2---2---2---2---2---2---2---2---|
A|-0---0---0---0---0---0---0---0---|-0---0---0---0---0---0---0---0---|
E|---------------------------------|---------------------------------|
 | 1 + + + 2 + + + 3 + + + 4 + + +   1 + + + 2 + + + 3 + + + 4 + + + 
 | 
 |
 | Guitar Two
e|---------------------------------|---------------------------------|
B|-14--14--14--14--14--14--12--12--|-15--15--15--15--14--14--14--14--|
G|-X---X---X---X---X---X---X---X---|-X---X---X---X---X---X---X---X---|
D|-11--11--11--11--11--11--9---9---|-12--12--12--12--11--11--11--11--|
A|---------------------------------|---------------------------------|
E|---------------------------------|---------------------------------|
 | 1 + + + 2 + + + 3 + + + 4 + + +   1 + + + 2 + + + 3 + + + 4 + + +
 |
 | Guitar Three
e|---------------------------------|---------------------------------|
B|---------------------------------|---------------------------------|
G|-14--14--14--14--14--14--14--14--|-14--14--14--14--14--14--14--14--|
D|-X---X---X---X---X---X---X---X---|-X---X---X---X---X---X---X---X---|
A|-12--12--12--12--12--12--12--12--|-12--12--12--12--12--12--12--12--|
E|---------------------------------|---------------------------------|
   1 + + + 2 + + + 3 + + + 4 + + +   1 + + + 2 + + + 3 + + + 4 + + +

               
e|---------------------------------|---------------------------------|
B|---------------------------------|---------------------------------|
G|---------------------------------|---------------------------------|
D|-2---2---2---2---2---2---2---2---|-2---2---2---2---2---2---2---2---|
A|-2---2---2---2---2---2---2---2---|-2---2---2---2---2---2---2---2---|
E|-0---0---0---0---0---0---0---0---|-0---0---0---0---0---0---0---0---|
 | 1 + + + 2 + + + 3 + + + 4 + + +   1 + + + 2 + + + 3 + + + 4 + + + 
 | 
 |
 |                       
e|---------------------------------|---------------------------------|
B|-14--14--14--14--14--14--12--12--|-15--15--15--15--14--14--14--14--|
G|-X---X---X---X---X---X---X---X---|-X---X---X---X---X---X---X---X---|
D|-11--11--11--11--11--11--9---9---|-12--12--12--12--11--11--11--11--|
A|---------------------------------|---------------------------------|
E|---------------------------------|---------------------------------|
 | 1 + + + 2 + + + 3 + + + 4 + + +   1 + + + 2 + + + 3 + + + 4 + + +
 |
 |                  
e|---------------------------------|---------------------------------|
B|---------------------------------|---------------------------------|
G|-14--14--14--14--14--14--14--14--|-14--14--14--14--14--14--14--14--|
D|-X---X---X---X---X---X---X---X---|-X---X---X---X---X---X---X---X---|
A|-12--12--12--12--12--12--12--12--|-12--12--12--12--12--12--12--12--|
E|---------------------------------|---------------------------------|
   1 + + + 2 + + + 3 + + + 4 + + +   1 + + + 2 + + + 3 + + + 4 + + +


e|---------------------------------|---------------------------------|
B|---------------------------------|---------------------------------|
G|---------------------------------|---------------------------------|
D|-4---4---4---4---4---4---4---4---|-4---4---4---4---4---4---4---4---|
A|-4---4---4---4---4---4---4---4---|-4---4---4---4---4---4---4---4---|
E|-2---2---2---2---2---2---2---2---|-2---2---2---2---2---2---2---2---|
 | 1 + + + 2 + + + 3 + + + 4 + + +   1 + + + 2 + + + 3 + + + 4 + + + 
 | 
 |
 |                       
e|---------------------------------|---------------------------------|
B|-14--14--14--14--14--14--12--12--|-15--15--15--15--14--14--14--14--|
G|-X---X---X---X---X---X---X---X---|-X---X---X---X---X---X---X---X---|
D|-11--11--11--11--11--11--9---9---|-12--12--12--12--11--11--11--11--|
A|---------------------------------|---------------------------------|
E|---------------------------------|---------------------------------|
 | 1 + + + 2 + + + 3 + + + 4 + + +   1 + + + 2 + + + 3 + + + 4 + + +
 |
 |                  
e|---------------------------------|---------------------------------|
B|---------------------------------|---------------------------------|
G|-14--14--14--14--14--14--14--14--|-14--14--14--14--14--14--14--14--|
D|-X---X---X---X---X---X---X---X---|-X---X---X---X---X---X---X---X---|
A|-12--12--12--12--12--12--12--12--|-12--12--12--12--12--12--12--12--|
E|---------------------------------|---------------------------------|
   1 + + + 2 + + + 3 + + + 4 + + +   1 + + + 2 + + + 3 + + + 4 + + +


e|---------------------------------|---------------------------------|
B|---------------------------------|---------------------------------|
G|---------------------------------|---------------------------------|
D|-7---7---7---7---7---7---7---7---|-7---7---7---7---7---7---7---7---|
A|-5---5---5---5---5---5---5---5---|-5---5---5---5---5---5---5---5---|
E|---------------------------------|---------------------------------|
 | 1 + + + 2 + + + 3 + + + 4 + + +   1 + + + 2 + + + 3 + + + 4 + + + 
 | 
 |
 |                       
e|---------------------------------|---------------------------------|
B|-15--15--17--17--17--15--15--15--|-14--14--14--15--15--15--14--14--|
G|-X---X---X---X---X---X---X---X---|-X---X---X---X---X---X---X---X---|
D|-12--12--14--14--14--12--12--12--|-11--11--11--12--12--12--11--11--|
A|---------------------------------|---------------------------------|
E|---------------------------------|---------------------------------|
 | 1 + + + 2 + + + 3 + + + 4 + + +   1 + + + 2 + + + 3 + + + 4 + + +
 |
 |                  
e|---------------------------------|---------------------------------|
B|---------------------------------|---------------------------------|
G|-7---7---7---7---7---7---7---7---|-6---6---6---7---7---7---6---6---|
D|-X---X---X---X---X---X---X---X---|-X---X---X---X---X---X---X---X---|
A|-5---5---5---5---5---5---5---5---|-4---4---4---5---5---5---4---4---|
E|---------------------------------|---------------------------------|
   1 + + + 2 + + + 3 + + + 4 + + +   1 + + + 2 + + + 3 + + + 4 + + +

             
e|---------------------------------|---------------------------------|
B|---------------------------------|---------------------------------|
G|---------------------------------|---------------------------------|
D|---------------------------------|---------------------------------|
A|-7---7---7---7---7---7---7---7---|-7---7---7---7---7---7---7---7---|
E|-5---5---5---5---5---5---5---5---|-5---5---5---5---5---5---5---5---|
 | 1 + + + 2 + + + 3 + + + 4 + + +   1 + + + 2 + + + 3 + + + 4 + + + 
 | 
 |
 |              
e|---------------------------------|---------------------------------|
B|-14--14--14--14--14--14--12--12--|-15--15--15--15--14--14--14--14--|
G|-X---X---X---X---X---X---X---X---|-X---X---X---X---X---X---X---X---|
D|-11--11--11--11--11--11--9---9---|-12--12--12--12--11--11--11--11--|
A|---------------------------------|---------------------------------|
E|---------------------------------|---------------------------------|
 | 1 + + + 2 + + + 3 + + + 4 + + +   1 + + + 2 + + + 3 + + + 4 + + +
 |
 |              
e|---------------------------------|---------------------------------|
B|---------------------------------|---------------------------------|
G|-14--14--14--14--14--14--14--14--|-14--14--14--14--14--14--14--14--|
D|-X---X---X---X---X---X---X---X---|-X---X---X---X---X---X---X---X---|
A|-12--12--12--12--12--12--12--12--|-12--12--12--12--12--12--12--12--|
E|---------------------------------|---------------------------------|
   1 + + + 2 + + + 3 + + + 4 + + +   1 + + + 2 + + + 3 + + + 4 + + +

               
e|---------------------------------|---------------------------------|
B|---------------------------------|---------------------------------|
G|---------------------------------|---------------------------------|
D|---------------------------------|---------------------------------|
A|-7---7---7---7---7---7---7---7---|-7---7---7---7---7---7---7---7---|
E|-4---4---4---4---4---4---4---4---|-4---4---4---4---4---4---4---4---|
 | 1 + + + 2 + + + 3 + + + 4 + + +   1 + + + 2 + + + 3 + + + 4 + + + 
 | 
 |
 |                       
e|---------------------------------|---------------------------------|
B|-14--14--14--14--14--14--12--12--|-15--15--15--15--14--14--14--14--|
G|-X---X---X---X---X---X---X---X---|-X---X---X---X---X---X---X---X---|
D|-11--11--11--11--11--11--9---9---|-12--12--12--12--11--11--11--11--|
A|---------------------------------|---------------------------------|
E|---------------------------------|---------------------------------|
 | 1 + + + 2 + + + 3 + + + 4 + + +   1 + + + 2 + + + 3 + + + 4 + + +
 |
 |                  
e|---------------------------------|---------------------------------|
B|---------------------------------|---------------------------------|
G|-14--14--14--14--14--14--14--14--|-14--14--14--14--14--14--14--14--|
D|-X---X---X---X---X---X---X---X---|-X---X---X---X---X---X---X---X---|
A|-12--12--12--12--12--12--12--12--|-12--12--12--12--12--12--12--12--|
E|---------------------------------|---------------------------------|
   1 + + + 2 + + + 3 + + + 4 + + +   1 + + + 2 + + + 3 + + + 4 + + +


e|---------------------------------|---------------------------------|
B|---------------------------------|---------------------------------|
G|---------------------------------|---------------------------------|
D|-4---4---4---4---4---4---4---4---|-4---4---4---4---4---4---4---4---|
A|-4---4---4---4---4---4---4---4---|-4---4---4---4---4---4---4---4---|
E|-2---2---2---2---2---2---2---2---|-2---2---2---2---2---2---2---2---|
 | 1 + + + 2 + + + 3 + + + 4 + + +   1 + + + 2 + + + 3 + + + 4 + + + 
 | 
 |
 |                       
e|---------------------------------|---------------------------------|
B|-14--14--14--14--14--14--12--12--|-15--15--15--15--14--14--14--14--|
G|-X---X---X---X---X---X---X---X---|-X---X---X---X---X---X---X---X---|
D|-11--11--11--11--11--11--9---9---|-12--12--12--12--11--11--11--11--|
A|---------------------------------|---------------------------------|
E|---------------------------------|---------------------------------|
 | 1 + + + 2 + + + 3 + + + 4 + + +   1 + + + 2 + + + 3 + + + 4 + + +
 |
 |                  
e|---------------------------------|---------------------------------|
B|---------------------------------|---------------------------------|
G|-14--14--14--14--14--14--14--14--|-14--14--14--14--14--14--14--14--|
D|-X---X---X---X---X---X---X---X---|-X---X---X---X---X---X---X---X---|
A|-12--12--12--12--12--12--12--12--|-12--12--12--12--12--12--12--12--|
E|---------------------------------|---------------------------------|
   1 + + + 2 + + + 3 + + + 4 + + +   1 + + + 2 + + + 3 + + + 4 + + +


e|---------------------------------|---------------------------------|
B|---------------------------------|---------------------------------|
G|---------------------------------|---------------------------------|
D|-7---7---7---7---7---7---7---7---|-7---7---7---7---7---7---7---7---|
A|-5---5---5---5---5---5---5---5---|-5---5---5---5---5---5---5---5---|
E|---------------------------------|---------------------------------|
 | 1 + + + 2 + + + 3 + + + 4 + + +   1 + + + 2 + + + 3 + + + 4 + + + 
 | 
 |
 |                       
e|---------------------------------|---------------------------------|
B|-15--15--17--17--17--15--15--15--|-14--14--14--15--15--15--14--14--|
G|-X---X---X---X---X---X---X---X---|-X---X---X---X---X---X---X---X---|
D|-12--12--14--14--14--12--12--12--|-11--11--11--12--12--12--11--11--|
A|---------------------------------|---------------------------------|
E|---------------------------------|---------------------------------|
 | 1 + + + 2 + + + 3 + + + 4 + + +   1 + + + 2 + + + 3 + + + 4 + + +
 |
 |                  
e|---------------------------------|---------------------------------|
B|---------------------------------|---------------------------------|
G|-7---7---7---7---7---7---7---7---|-6---6---6---7---7---7---6---6---|
D|-X---X---X---X---X---X---X---X---|-X---X---X---X---X---X---X---X---|
A|-5---5---5---5---5---5---5---5---|-4---4---4---5---5---5---4---4---|
E|---------------------------------|---------------------------------|
   1 + + + 2 + + + 3 + + + 4 + + +   1 + + + 2 + + + 3 + + + 4 + + +

Bridge - 	Let this candle burn ‘til you get home
		Never forget your face, never lose hope
		Tonight…


Guitars One and Two

e|-----------------|-----------------|-----------------|-----------------|
B|-----------------|-----------------|-----------------|-----------------|
G|-----------------|-----------------|-7-7-7-7-7-7-7-6-|-6-6-6-7-7-7-7-7-|
D|-----------------|-----------------|-7-7-7-7-7-7-7-7-|-7-7-7-7-7-7-7-7-|
A|-----------------|-----------------|-5-5-5-5-5-5-5-5-|-5-5-5-5-5-5-5-5-|
E|-----------------|-----------------|-----------------|-----------------|
   1 + 2 + 3 + 4 +   1 + 2 + 3 + 4 +   1 + 2 + 3 + 4 +   1 + 2 + 3 + 4 + 

e|-----------------|-----------------|-----------------|-----------------|
B|-----------------|-----------------|-----------------|-----------------|
G|-----------------|-----------------|-7-7-7-7-7-7-7-6-|-6-6-6-7-7-7-7-7-|
D|-9-9---11--11----|-------9---9---0-|-7-7-7-7-7-7-7-7-|-7-7-7-7-7-7-7-7-|
A|-7-7---9---9---7-|---7---7---7---0-|-5-5-5-5-5-5-5-5-|-5-5-5-5-5-5-5-5-|
E|---------------5-|---5-------------|-----------------|-----------------|
   1 + 2 + 3 + 4 +   1 + 2 + 3 + 4 +   1 + 2 + 3 + 4 +   1 + 2 + 3 + 4 + 

e|-----------------|-----------------|-----------------|-----------------|
B|-----------------|-----------------|-----------------|-----------------|
G|-----------------|-----------------|-7-7-7-7-7-7-7-6-|-6-6-6-7-7-7-----|
D|-9-9---11--11----|-------9---9---0-|-7-7-7-7-7-7-7-7-|-7-7-7-7-7-7-----|
A|-7-7---9---9---7-|---7---7---7---0-|-5-5-5-5-5-5-5-5-|-5-5-5-5-5-5-----|
E|---------------5-|---5-------------|-----------------|-----------------|
   1 + 2 + 3 + 4 +   1 + 2 + 3 + 4 +   1 + 2 + 3 + 4 +   1 + 2 + 3 + 4 + 

Chorus - 	Run for cover as fast as you can
		Where fighters are lovers, enemies are friends
		And pens and knives apologize for leaving you tonight
		Run for cover and you’ll find us there
To take on the anger, make it disappear
When razor blades softly serenading you…

 

   Guitar One
e|---------------------------------|---------------------------------|
B|---------------------------------|---------------------------------|
G|---------------------------------|---------------------------------|
D|-2---2---2---2---2---2---2---2---|-2---2---2---2---2---2---2---2---|
A|-0---0---0---0---0---0---0---0---|-0---0---0---0---0---0---0---0---|
E|---------------------------------|---------------------------------|
 | 1 + + + 2 + + + 3 + + + 4 + + +   1 + + + 2 + + + 3 + + + 4 + + + 
 | 
 |
 | Guitar Two
e|---------------------------------|---------------------------------|
B|-14--14--14--14--14--14--12--12--|-15--15--15--15--14--14--14--14--|
G|-X---X---X---X---X---X---X---X---|-X---X---X---X---X---X---X---X---|
D|-11--11--11--11--11--11--9---9---|-12--12--12--12--11--11--11--11--|
A|---------------------------------|---------------------------------|
E|---------------------------------|---------------------------------|
 | 1 + + + 2 + + + 3 + + + 4 + + +   1 + + + 2 + + + 3 + + + 4 + + +
 |
 | Guitar Three
e|---------------------------------|---------------------------------|
B|---------------------------------|---------------------------------|
G|-14--14--14--14--14--14--14--14--|-14--14--14--14--14--14--14--14--|
D|-X---X---X---X---X---X---X---X---|-X---X---X---X---X---X---X---X---|
A|-12--12--12--12--12--12--12--12--|-12--12--12--12--12--12--12--12--|
E|---------------------------------|---------------------------------|
   1 + + + 2 + + + 3 + + + 4 + + +   1 + + + 2 + + + 3 + + + 4 + + +

               
e|---------------------------------|---------------------------------|
B|---------------------------------|---------------------------------|
G|---------------------------------|---------------------------------|
D|-2---2---2---2---2---2---2---2---|-2---2---2---2---2---2---2---2---|
A|-2---2---2---2---2---2---2---2---|-2---2---2---2---2---2---2---2---|
E|-0---0---0---0---0---0---0---0---|-0---0---0---0---0---0---0---0---|
 | 1 + + + 2 + + + 3 + + + 4 + + +   1 + + + 2 + + + 3 + + + 4 + + + 
 | 
 |
 |                       
e|---------------------------------|---------------------------------|
B|-14--14--14--14--14--14--12--12--|-15--15--15--15--14--14--14--14--|
G|-X---X---X---X---X---X---X---X---|-X---X---X---X---X---X---X---X---|
D|-11--11--11--11--11--11--9---9---|-12--12--12--12--11--11--11--11--|
A|---------------------------------|---------------------------------|
E|---------------------------------|---------------------------------|
 | 1 + + + 2 + + + 3 + + + 4 + + +   1 + + + 2 + + + 3 + + + 4 + + +
 |
 |                  
e|---------------------------------|---------------------------------|
B|---------------------------------|---------------------------------|
G|-14--14--14--14--14--14--14--14--|-14--14--14--14--14--14--14--14--|
D|-X---X---X---X---X---X---X---X---|-X---X---X---X---X---X---X---X---|
A|-12--12--12--12--12--12--12--12--|-12--12--12--12--12--12--12--12--|
E|---------------------------------|---------------------------------|
   1 + + + 2 + + + 3 + + + 4 + + +   1 + + + 2 + + + 3 + + + 4 + + +


e|---------------------------------|---------------------------------|
B|---------------------------------|---------------------------------|
G|---------------------------------|---------------------------------|
D|-4---4---4---4---4---4---4---4---|-4---4---4---4---4---4---4---4---|
A|-4---4---4---4---4---4---4---4---|-4---4---4---4---4---4---4---4---|
E|-2---2---2---2---2---2---2---2---|-2---2---2---2---2---2---2---2---|
 | 1 + + + 2 + + + 3 + + + 4 + + +   1 + + + 2 + + + 3 + + + 4 + + + 
 | 
 |
 |                       
e|---------------------------------|---------------------------------|
B|-14--14--14--14--14--14--12--12--|-15--15--15--15--14--14--14--14--|
G|-X---X---X---X---X---X---X---X---|-X---X---X---X---X---X---X---X---|
D|-11--11--11--11--11--11--9---9---|-12--12--12--12--11--11--11--11--|
A|---------------------------------|---------------------------------|
E|---------------------------------|---------------------------------|
 | 1 + + + 2 + + + 3 + + + 4 + + +   1 + + + 2 + + + 3 + + + 4 + + +
 |
 |                  
e|---------------------------------|---------------------------------|
B|---------------------------------|---------------------------------|
G|-14--14--14--14--14--14--14--14--|-14--14--14--14--14--14--14--14--|
D|-X---X---X---X---X---X---X---X---|-X---X---X---X---X---X---X---X---|
A|-12--12--12--12--12--12--12--12--|-12--12--12--12--12--12--12--12--|
E|---------------------------------|---------------------------------|
   1 + + + 2 + + + 3 + + + 4 + + +   1 + + + 2 + + + 3 + + + 4 + + +


e|---------------------------------|---------------------------------|
B|---------------------------------|---------------------------------|
G|---------------------------------|---------------------------------|
D|-7---7---7---7---7---7---7---7---|-7---7---7---7---7---7---7---7---|
A|-5---5---5---5---5---5---5---5---|-5---5---5---5---5---5---5---5---|
E|---------------------------------|---------------------------------|
 | 1 + + + 2 + + + 3 + + + 4 + + +   1 + + + 2 + + + 3 + + + 4 + + + 
 | 
 |
 |                       
e|---------------------------------|---------------------------------|
B|-15--15--17--17--17--15--15--15--|-14--14--14--15--15--15--14--14--|
G|-X---X---X---X---X---X---X---X---|-X---X---X---X---X---X---X---X---|
D|-12--12--14--14--14--12--12--12--|-11--11--11--12--12--12--11--11--|
A|---------------------------------|---------------------------------|
E|---------------------------------|---------------------------------|
 | 1 + + + 2 + + + 3 + + + 4 + + +   1 + + + 2 + + + 3 + + + 4 + + +
 |
 |                  
e|---------------------------------|---------------------------------|
B|---------------------------------|---------------------------------|
G|-7---7---7---7---7---7---7---7---|-6---6---6---7---7---7---6---6---|
D|-X---X---X---X---X---X---X---X---|-X---X---X---X---X---X---X---X---|
A|-5---5---5---5---5---5---5---5---|-4---4---4---5---5---5---4---4---|
E|---------------------------------|---------------------------------|
   1 + + + 2 + + + 3 + + + 4 + + +   1 + + + 2 + + + 3 + + + 4 + + +

             
e|---------------------------------|---------------------------------|
B|---------------------------------|---------------------------------|
G|---------------------------------|---------------------------------|
D|---------------------------------|---------------------------------|
A|-7---7---7---7---7---7---7---7---|-7---7---7---7---7---7---7---7---|
E|-5---5---5---5---5---5---5---5---|-5---5---5---5---5---5---5---5---|
 | 1 + + + 2 + + + 3 + + + 4 + + +   1 + + + 2 + + + 3 + + + 4 + + + 
 | 
 |
 |              
e|---------------------------------|---------------------------------|
B|-14--14--14--14--14--14--12--12--|-15--15--15--15--14--14--14--14--|
G|-X---X---X---X---X---X---X---X---|-X---X---X---X---X---X---X---X---|
D|-11--11--11--11--11--11--9---9---|-12--12--12--12--11--11--11--11--|
A|---------------------------------|---------------------------------|
E|---------------------------------|---------------------------------|
 | 1 + + + 2 + + + 3 + + + 4 + + +   1 + + + 2 + + + 3 + + + 4 + + +
 |
 |              
e|---------------------------------|---------------------------------|
B|---------------------------------|---------------------------------|
G|-14--14--14--14--14--14--14--14--|-14--14--14--14--14--14--14--14--|
D|-X---X---X---X---X---X---X---X---|-X---X---X---X---X---X---X---X---|
A|-12--12--12--12--12--12--12--12--|-12--12--12--12--12--12--12--12--|
E|---------------------------------|---------------------------------|
   1 + + + 2 + + + 3 + + + 4 + + +   1 + + + 2 + + + 3 + + + 4 + + +

               
e|---------------------------------|---------------------------------|
B|---------------------------------|---------------------------------|
G|---------------------------------|---------------------------------|
D|---------------------------------|---------------------------------|
A|-7---7---7---7---7---7---7---7---|-7---7---7---7---7---7---7---7---|
E|-4---4---4---4---4---4---4---4---|-4---4---4---4---4---4---4---4---|
 | 1 + + + 2 + + + 3 + + + 4 + + +   1 + + + 2 + + + 3 + + + 4 + + + 
 | 
 |
 |                       
e|---------------------------------|---------------------------------|
B|-14--14--14--14--14--14--12--12--|-15--15--15--15--14--14--14--14--|
G|-X---X---X---X---X---X---X---X---|-X---X---X---X---X---X---X---X---|
D|-11--11--11--11--11--11--9---9---|-12--12--12--12--11--11--11--11--|
A|---------------------------------|---------------------------------|
E|---------------------------------|---------------------------------|
 | 1 + + + 2 + + + 3 + + + 4 + + +   1 + + + 2 + + + 3 + + + 4 + + +
 |
 |                  
e|---------------------------------|---------------------------------|
B|---------------------------------|---------------------------------|
G|-14--14--14--14--14--14--14--14--|-14--14--14--14--14--14--14--14--|
D|-X---X---X---X---X---X---X---X---|-X---X---X---X---X---X---X---X---|
A|-12--12--12--12--12--12--12--12--|-12--12--12--12--12--12--12--12--|
E|---------------------------------|---------------------------------|
   1 + + + 2 + + + 3 + + + 4 + + +   1 + + + 2 + + + 3 + + + 4 + + +


e|---------------------------------|---------------------------------|
B|---------------------------------|---------------------------------|
G|---------------------------------|---------------------------------|
D|-5---5---5---5---5---5---5---5---|-5---5---5---5---5---5---5---5---|
A|-5---5---5---5---5---5---5---5---|-5---5---5---5---5---5---5---5---|
E|-3---3---3---3---3---3---3---3---|-3---3---3---3---3---3---3---3---|
 | 1 + + + 2 + + + 3 + + + 4 + + +   1 + + + 2 + + + 3 + + + 4 + + + 
 | 
 |
 |                       
e|---------------------------------|---------------------------------|
B|-14--14--14--14--14--14--12--12--|-15--15--15--15--14--14--14--14--|
G|-X---X---X---X---X---X---X---X---|-X---X---X---X---X---X---X---X---|
D|-11--11--11--11--11--11--9---9---|-12--12--12--12--11--11--11--11--|
A|---------------------------------|---------------------------------|
E|---------------------------------|---------------------------------|
 | 1 + + + 2 + + + 3 + + + 4 + + +   1 + + + 2 + + + 3 + + + 4 + + +
 |
 |                  
e|---------------------------------|---------------------------------|
B|---------------------------------|---------------------------------|
G|-14--14--14--14--14--14--14--14--|-14--14--14--14--14--14--14--14--|
D|-X---X---X---X---X---X---X---X---|-X---X---X---X---X---X---X---X---|
A|-12--12--12--12--12--12--12--12--|-12--12--12--12--12--12--12--12--|
E|---------------------------------|---------------------------------|
   1 + + + 2 + + + 3 + + + 4 + + +   1 + + + 2 + + + 3 + + + 4 + + +


e|---------------------------------|---------------------------------|
B|---------------------------------|---------------------------------|
G|---------------------------------|---------------------------------|
D|-7---7---7---7---7---7---7---7---|-7-------------------------------|
A|-5---5---5---5---5---5---5---5---|-5-------------------------------|
E|---------------------------------|---------------------------------|
 | 1 + + + 2 + + + 3 + + + 4 + + +   1 + + + 2 + + + 3 + + + 4 + + + 
 | 
 |
 |                       
e|---------------------------------|---------------------------------|
B|-15--15--17--17--17--15--15--15--|-14------------------------------|
G|-X---X---X---X---X---X---X---X---|-X-------------------------------|
D|-12--12--14--14--14--12--12--12--|-11------------------------------|
A|---------------------------------|---------------------------------|
E|---------------------------------|-* Fade Out ---------------------|
 | 1 + + + 2 + + + 3 + + + 4 + + +   1 + + + 2 + + + 3 + + + 4 + + +
 |
 |                  
e|---------------------------------|---------------------------------|
B|---------------------------------|---------------------------------|
G|-7---7---7---7---7---7---7---7---|-6-------------------------------|
D|-X---X---X---X---X---X---X---X---|-X-------------------------------|
A|-5---5---5---5---5---5---5---5---|-4-------------------------------|
E|---------------------------------|-* Fade Out ---------------------|
   1 + + + 2 + + + 3 + + + 4 + + +   1 + + + 2 + + + 3 + + + 4 + + +
comments
We did not receive enough feedback on this tab! Please rate:
print report bad tab
1 2 3 4 5
I want to post or [tab]
guest
You may want to rate the tab now too:
select rating
Please do not post tabs as comments. Select "correction" instead!