Oops, an error
Loading. Please wait.

Remains Tab

4,988 views 9 this week
2 commentsread comments
1 2 3 4 5
accurate
x 3
Autoscroll
+/-
esc
set tempo
stop
Contributor
WARNING: You are trying to view
                                    content from Ultimate-Guitar.com
                                    in an unauthorized application,
                                    which is prohibited.

                                    Please use an official Ultimate
                                    Guitar Tabs application for iPhone,
                                    iPad or Android to access legitimate
                                    chords, guitar, bass, and drum tabs
                                    from Ultimate-Guitar.com database.

                                    Type "ultimate guitar tabs" in Apple
                                    App Store's or Android Market's
                                    search to find the application.
Hey, I know this album is basically a compilation of a bunch of their songs.
But why not make it an album tab?  It has been out for a while.
So here it is.

Hell Yes Tab by Alkaline Trio, www.Ultimate-Guitar.Com


It's Perfect [ i guess ]


INTRO (clean) X1
--------------------------------------------------------------------------------------|
--------------------------------------------------------------------------------------|
--------------------------------------------------------------------------------------|
--9-9-9-9-9-9-9-9-9-9-7-7-6-6-6-6-6-6-6-6-6-6-6-6-9-9-7-7-6-6-4-4---------------------|
--7-7-7-7-7-7-7-7-0-0-0-0-0-0-0-0-4-4-4-4-4-4-4-4-0-0-0-0-0-0-0-0---------------------|
--------------------------------------------------------------------------------------|


INTRO (distorted) X1


VERSE X4 (palm muted)

-------------------------------------------------------------------------------------|
-------------------------------------------------------------------------------------|
-------------------------------------------------------------------------------------|
--9-9-9-9-9-9-9-9-9-9-9-9-9-9-9-9-7-7-7-7-7-7-7-7-7-7-7-7-7-7-7-7--------------------|
--7-7-7-7-7-7-7-7-7-7-7-7-7-9-9-9-0-0-0-0-0-0-0-0-0-0-0-0-0-0-0-0--------------------|
-------------------------------------------------------------------------------------|

On the 4th time around, end on a distorted, unmuted version of this:
(this is the part I'm unsure of- comments welcome)

----------------------------|
----------------------------|
----------------------------|
--9-9-9-9-7-7-7-7-----------|
--9-9-9-9-7-7-7-7-----------|
--7-7-7-7-5-5-5-5-----------|


INTRO X2
VERSE X4


CHORUS X4
("Bless me, dark father...")
--------------------------------------------------------------------------------------|
--------------------------------------------------------------------------------------|
--9-9-9-9-9-9-9-9-9-9-9-9-9-9-9-9-6-6-6-6-6-6-6-6-4-4-4-4-4-4-4-4---------------------|
--9-9-9-9-9-9-9-9-9-9-9-9-9-9-9-9-6-6-6-6-6-6-6-6-4-4-4-4-4-4-4-4---------------------|
--7-7-7-7-7-7-7-7-7-7-7-7-7-7-7-7-4-4-4-4-4-4-4-4-2-2-2-2-2-2-2-2---------------------|
--------------------------------------------------------------------------------------|


INTRO X2
VERSE X4
CHORUS X4


BRIDGE X4
("Whispering sweet nothings")
----------------------------------------------------------------------------------------|
----------------------------------------------------------------------------------------|
----------------------------------------------------------------------------------------|
--2-2-2-2-2-2-2-2-2-2-2-2-2-2-2-2-4-4-4-4-4-4-4-4-4-4-4-4-4-4-4-4-----------------------|
--0-0-0-0-0-0-0-0-0-0-0-0-0-0-0-0-2-2-2-2-2-2-2-2-2-2-2-2-2-2-2-2-----------------------|
----------------------------------------------------------------------------------------|


INTRO X2
CHORUS X4

ENDING (let ring)

----------------------------------------------------------|
----------------------------------------------------------|
--2--------------------------1----------------------------|
--2--------------------------2----------------------------|
--0--------------------------2----------------------------|
-----------------------------0----------------------------|

___________________________________________________________________________________________
My Standard Break From Life Tab by Alkaline Trio, www.Ultimate-Guitar.Com


Author/Artist: Alkaline Trio
Title: My Standard Break From Life
Album: Hell Yes 7' (Lookout records)
Transcribed by: Jim Taone
Email: j_bro124@hotmail.com

This song is originally available on Hell Yes 7' but was
re-released on Sub City's Take Action Tour compilation
c.d....

enjoy, jim


Intro:
--------------------------------------------------|
--------------------------------------------------|
-9-9-9-9-9--9-9-9-9-9--9-9-9-9-9-----9-9-9-9-9----|
-9-9-9-9-9--7-7-7-7-7--9-9-9-9-9--9--9-9-9-9-9----|
-7-7-7-7-7--0-0-0-0-0--7-7-7-7-7--9--7-7-7-7-7----|
----------------------------------7---------------|


Verse:
--------------------------------------------|
--------------------------------------------|
--9-9-9-9-----------9-9-9-9-----9-9-9-9-----|
--9-9-9-9--7-7-7-7--9-9-9-9--9--9-9-9-9-----|
--7-7-7-7--7-7-7-7--7-7-7-7--9--7-7-7-7-----|
-----------5-5-5-5-----------7--------------|


Pre-chorus:
--------------------------------------------------|
--------------------------------------------------|
--------------------9-9-9-9--9-9-9-9--9-9-9-9-----|
--7-7-7-7--9-9-9-9--9-9-9-9--7-7-7-7--9-9-9-9-----|
--7-7-7-7--9-9-9-9--7-7-7-7--0-0-0-0--7-7-7-7-----|
--5-5-5-5--7-7-7-7--------------------------------|

--------------------------------------------------|
--------------------------------------------------|
-----------8/9-9-9-9------------------------------|
--9-9-9-9--x-x-x-x-x--9-9-9-9-9-9-----------------|
--9-9-9-9--6/7-7-7-7--9-9-9-9-9-9-----------------|
--7-7-7-7-------------7-7-7-7-7-7-----------------|


Chorus:
------------------------------------------------------------|
------------------------------------------------------------|
---------------------------9-9-9-9-9-9----------------------|
-7-7-7-7-7-7--9-9-9-9-9-9--9-9-9-9-9-9--11-11-11-11-11-11---|
-7-7-7-7-7-7--9-9-9-9-9-9--7-7-7-7-7-7--11-11-11-11-11-11---|
-5-5-5-5-5-5--7-7-7-7-7-7---------------9--9--9--9--9--9----|

-----------------------------------------------------|
-----------------------------------------------------|
-9-9-9-9--11-11-11--13-13-13--11-11-11-11---9----8---|
-x-x-x-x--x--x--x---x--x--x---x--x--x--x----x----x---|
-7-7-7-7--9--9--9---11-11-11--9--9--9--9----7----6---|
-----------------------------------------------------|

----------------------------------------------|
----------------------------------------------|
-9-9-9-9--------6------9-9-9-9--------6-------|
-9-9-9-9--6--9------9--9-9-9-9--6--9-----9----|
-7-7-7-7---------------7-7-7-7----------------|
----------------------------------------------|

--------------------------------|---------------|
--------------------------------|---------------|
-9-9-9-9--------6---------------|---------------|
-9-9-9-9--6--9------9--9-9-9-9--|---7-7-7-7-----|  2x
-7-7-7-7---------------9-9-9-9--|---7-7-7-7-----|
-----------------------7-7-7-7--|---5-5-5-5-----|
                                    First time only

Songflow:
Intro
Verse
Pre-chorus
Verse 2x
Pre-chorus
Chorus
Verse 2x
Pre-chorus
Chorus

___________________________________________________________________________________________

Dead End Road Tab by Alkaline Trio, www.Ultimate-Guitar.Com


Author/Artist: Alkaline Trio
Title: Dead End Road
Album: Living Tomorrow Today
Transcribed by: Jim Taone
Email: j_bro124@hotmail.com

Hey hope you enjoy this one... it's off
Living Tomorrow Today A Benefit For Ty Cambra
It's a really good comp. c.d.
This should be a good tab... the timing isn't exact...
(as usual) enjoy...


Intro
------------------------------------------------------------------------------|
------------------------------------------------------------------------------|
------------------9-9-9-9-9-9---------------------9-9-9-9-9-9-----------------|
------------------6-6-6-6-7-7---------------------7-7-7-7-7-7-----------------|
-10-10-10-10-9-9----------------10-10-10-10-9-9---0-0-0-0-0-0-----------------|
-7--7--7--7--7-7----------------7--7--7--7--7-7-------------------------------|

------------------------------------------------------------------------------|
------------------------------------------------------------------------------|
------------------9-9-9-9-9-9---------------------9-9-9-9-9-9-----------------|
------------------6-6-6-6-7-7---------------------7-7-7-7-7-7-----------------|
-10-10-10-10-9-9----------------10-10-10-10-9-9---0-0-0-0-0-0-----------------|
-7--7--7--7--7-7----------------7--7--7--7--7-7-------------------------------|


------------------------------------------------------------------------------|
------------------------------------------------------------------------------|
-12-12-12--11-11-11--9-9-9--7-------------------------------------------------|
-12-12-12--11-11-11--9-9-9--7-------------------------------------------------|
-10-10-10--9--9--9---7-7-7--5-------------------------------------------------|
------------------------------------------------------------------------------|


Verse
------------------------------------------------------------------------------|
------------------------------------------------------------------------------|
-7-7-7-----7-7-7--------------------------------------------------------------|
-7-7-7-----7-7-7-----5-5-5-----7-7-7------------------------------------------|
-5-5-5-----5-5-5-----5-5-5-----7-7-7------------------------------------------|
---------------------3-3-3-----5-5-5------------------------------------------|


Pre-chorus
------------------------------------------------------------------------------|
------------------------------------------------------------------------------|
-4-4-4-4---7-7-7-7-------------9-9-9-9----------------------------------------|
-4-4-4-4---7-7-7-7---5-5-5-5---9-9-9-9----------------------------------------|
-2-2-2-2---5-5-5-5---5-5-5-5---7-7-7-7----------------------------------------|
---------------------3-3-3-3--------------------------------------------------|

------------------------------------------------------------------------------|
------------------------------------------------------------------------------|
-4-4-4-4---7-7-7-7------------------------------------------------------------|
-4-4-4-4---7-7-7-7---5-5-5-5---7-7-7-7----------------------------------------|
-2-2-2-2---5-5-5-5---5-5-5-5---7-7-7-7----------------------------------------|
---------------------3-3-3-3---5-5-5-5----------------------------------------|


Chorus
------------------------------------------------------------------------------|
------------------------------------------------------------------------------|
-7-7-7-7-7-7-7----------------------------------------------------------------|
-7-7-7-7-7-7-7----7-7-7-7----5-5-5-5------------------------------------------|
-5-5-5-5-4-4-4----7-7-7-7----5-5-5-5------------------------------------------|
------------------5-5-5-5----3-3-3-3------------------------------------------|

Songflow:

Intro
Verse 4x
1st bar of intro
Verse 4x
Pre-chorus
Chorus 2x
Intro
Verse 2x on 2nd half of singing
Pre-chorus
Chorus 4x

___________________________________________________________________________________________

The Metro Tab by Alkaline Trio, www.Ultimate-Guitar.Com


Author/Artist: Alkaline Trio
Title: The Metro
Album: N/A
Transcribed by: Jim Taone
Email: j_bro124@hotmail.com

This is an un-released song not on any albums...
It's when Mike was still in the band... I've heard
that Vagrant may release it on a "Before You Were
Punk" comp... but I just got it off Napster...
If you ask me it's a really bad-ass Alkaline Trio
song because it's not like their style... they didn't
write it... The song was originally written by a band
called Berlin... blah blah blah

enjoy, jim


Intro
------------------------------------------------|
------------------------------------------------|
------------------------------------------------|
-9-9-9-9-9-9-9-9-9-9--~--9-9-9-9-9-9-9-9-9-9----|
-9-9-9-9-9-9-9-9-9-9--~--9-9-9-9-9-9-9-9-9-9----|
-7-7-7-7-7-7-7-7-7-7--~--7-7-7-7-7-7-7-7-7-7----|


Verse part:
-------------------------------------------|
-------------------------------------------|
-------------------7-7---------------------|
-----9-9---------------7-7-10-10-9-9-------|
-7-7-----9-9-10-10-------------------------|
-------------------------------------------|


Chorus:
----------------------------------------------------|
--x-------------------------------------------------|
--x-x--------------------------------7-7-7-7-7-7----|
--x-x-x\--7-7-7-7--9-9-9-9--5-5-5-5--x-x-x-x-x-x----|
----x-x\--7-7-7-7--9-9-9-9--5-5-5-5--5-5-5-5-5-5----|
------x\--5-5-5-5--7-7-7-7--3-3-3-3-----------------|

--------------------------------------------|
--------------------------------------------|
--------------------------------------------|
--7-7-7-7--9-9-9-9--5-5-5\4-4-4/5-5-5-------|
--7-7-7-7--9-9-9-9--5-5-5\4-4-4/5-5-5-------|
--5-5-5-5--7-7-7-7--3-3-3-3-3-3-3-3-3-------|

--------------------------------------------|
--------------------------------------------|
-----------------------------7-7-7-7-7-7----|
--7-7-7-7--9-9-9-9--5-5-5-5--x-x-x-x-x-x----|
--7-7-7-7--9-9-9-9--5-5-5-5--5-5-5-5-5-5----|
--5-5-5-5--7-7-7-7--3-3-3-3-----------------|

--------------------------------------------|
--------------------------------------------|
--------------------------------------------|
--7-7-7-7--9-9-9--5-5-7-7--9-9-9-9-9-9-9----|
--7-7-7-7--9-9-9--5-5-7-7--9-9-9-9-9-9-9----|
--5-5-5-5--7-7-7--3-3-5-5--7-7-7-7-7-7-7----|

Post-chorus:
--12-----------------------------------|
------12--13------12------10-----------|
--------------14------12------11--9----|
---------------------------------------|
---------------------------------------|
---------------------------------------|


Bridge:
----------------------------------------------12-----------|
-12----------------------12---------12-----------------12--|
------------14---------------------------------------------|
-----------------------------------------------------------|
-----------------------------------------------------------|
-----------------------------------------------------------|
let all these notes ring^^^^

-12----------------------12-----------------------|
-----12--13------12----------12--13-------12------|
-------------14------12---------------14------12--|
--------------------------------------------------|
--------------------------------------------------|
--------------------------------------------------|

-12-------/19--17--14--15--12----|
-----12--------------------------|
---------------------------------|
---------------------------------|
---------------------------------|
---------------------------------|

Songflow:
Intro
Verse 4x (ending on high E)
Chorus
Post-chorus 2x
Verse 4x (palm-muted)
Chorus
Bridge
Chorus
Post-chorus 2x
Chorus

___________________________________________________________________________________________

Jaked On Green Beers Tab by Alkaline Trio, www.Ultimate-Guitar.Com


ALKALINE TRIO
JAKED ON GREEN BEERS
tabbed by e_mericana@hotmail.com


listen to cd for strumming paterns

"Intro"
e|--------------------------------------------------------------------|
B|--------------------------------------------------------------------|
G|-------------11---8-------11---------8------------------------------|
D|-FEEDBACK----11---8---9---11---------8---9----PICKSCRATCH-----------|
A|--------------9---6---9----9---------6---9--------------------------|
E|----------------------7--------7/9-------7--------------------------|
^ ^ ^ ^ ^

"1st Verse"
It's been a long time since I been close to you
It's been a long time since I been sad
It's been a while since I really spent time with you
Wish I could take back the times that I had
The only thing that you ever really did for me
Was make me oh so miserable
And the hope that I never see your face again
Is anything but questionable
e|--------------------------------------------------------------------|
B|--------------------------------------------------------------------|
G|--111111111111---------------------111111111111--88888--------------|
D|--111111111111--99999--1111111111--111111111111--88888--99999-------|
A|---9-9-9-9-9-9--99999--1111111111---9-9-9-9-9-9--66666--99999-------|
E|----------------77777---9-9-9-9-9-----------------------77777-------|

e|--------------------------------------------------------------------|
B|--------------------------------------------------------------------|
G|--111111111111---------------------111111111111--88888--------------|
D|--111111111111--99999--1111111111--111111111111--88888--99999-------|
A|---9-9-9-9-9-9--99999--1111111111---9-9-9-9-9-9--66666--99999-------|
E|----------------77777---9-9-9-9-9-----------------------77777-------|

"1st Chorus"
I hope this is goodbye
I hope this is goodbye
e|--------------------------------------------------------------------|
B|--------------------------------------------------------------------|
G|----------------10/11111111-----------------------------------------|
D|--444444444444---x/-x-x-x-x--111111111111--999999-------------------|
A|--444444444444---8/-9-9-9-9--111111111111--999999-------------------|
E|--222222222222----------------9-9-9-9-9-9--777777-------------------|

"2nd Verse"
There was a time when I thought you were a friend of me
I think those times I was probably just drunk
If they offered a test about being a good friend I'd put money down that
you'd surely flunk
The only think that you ever really took from me
Were my records to sell them for dope
Now all I have left is this heart in my chest
And my happiness seldom can cope
e|--------------------------------------------------------------------|
B|--------------------------------------------------------------------|
G|--111111111111---------------------111111111111--88888--------------|
D|--111111111111--99999--1111111111--111111111111--88888--99999-------|
A|---9-9-9-9-9-9--99999--1111111111---9-9-9-9-9-9--66666--99999-------|
E|----------------77777---9-9-9-9-9-----------------------77777-------|

(GUITAR 1)
e|--------------------------------------------------------------------|
B|--------------------------------------------------------------------|
G|--10/111111111111---------------------111111111111--88888-----------|
D|---x/-x-x-x-x-x-x--99999--1111111111--111111111111--88888--99999----|
A|---8/-9-9-9-9-9-9--99999--1111111111---9-9-9-9-9-9--66666--99999----|
E|-------------------77777---9-9-9-9-9-----------------------77777----|

(GUITAR 2)
e|--------------------------------------------------------------------|
B|--------------------------------------------------------------------|
G|--10/111111111111-10/111111111111-10/111111111111-10/111111111111---|
D|---x/-x-x-x-x-x-x--x/-x-x-x-x-x-x--x/-x-x-x-x-x-x--x/-x-x-x-x-x-x---|
A|---8/-9-9-9-9-9-9--8/-9-9-9-9-9-9--8/-9-9-9-9-9-9--8/-9-9-9-9-9-9---|
E|--------------------------------------------------------------------|

"2nd Chorus"
I hope this is goodbye
I hope this is goodbye
I hope this is goodbye
I hope this is goodbye
(GUITAR 1)
e|--------------------------------------------------------------------|
B|--------------------------------------------------------------------|
G|--------------------------------------------------------------------|
D|---------4---------4------------8------------9----------------------|
A|---------------------4---6-6-6----6------------7--------------------|
E|--2-2-2-----2-2-2---------------------7-7-7-------------------------|
* * * * * * * * * * * *

(GUITAR 2)
e|--------------------------------------------------------------------|
B|--------------------------------------------------------------------|
G|--------------------------------------------------------------------|
D|--------------------------------------------------------------------|
A|-------------------------6666666666---------------------------------|
E|--22222222222222222222----------------77777777777-------------------|
******************** ********** ***********

(GUITAR 1)
e|--------------------------------------------------------------------|
B|--------------------------------------------------------------------|
G|--------------------------------------------------------------------|
D|---------4---------4------------8------------9----------------------|
A|---------------------4---6-6-6----6------------7--------------------|
E|--2-2-2-----2-2-2---------------------7-7-7-------------------------|
* * * * * * * * * * * *

(GUITAR 2)
e|--------------------------------------------------------------------|
B|--------------------------------------------------------------------|
G|--------------------------------------------------------------------|
D|--------------------------------------------------------------------|
A|-------------------------6666666666---------------------------------|
E|--22222222222222222222----------------77777777777-------------------|
******************** ********** ***********

"Pre-Verse"
e|--------------------------------------------------------------------|
B|--------------------------------------------------------------------|
G|--111111111111---------------------111111111111--88888--------------|
D|--111111111111--99999--1111111111--111111111111--88888--99999-------|
A|---9-9-9-9-9-9--99999--1111111111---9-9-9-9-9-9--66666--99999-------|
E|----------------77777---9-9-9-9-9-----------------------77777-------|

"3rd Verse"
It's been a long time since I been close to you
It's been a long time since I been sad
It's been a while since I really spent time with you
Wish I could take back the times that I had
The only thing that you ever really did for me
Was make me oh so miserable
And the hope that I never see your face again
Is anything but questionable
There was a time when I thought you were a friend of me
I think those times I was probably just drunk
If they offered a test about being a good friend I'd put money down that
you'd surely flunk
The only thing that you ever really took from me
Were my records then hocked them for dope
Now all I have left is this heart in my chest
Your dishonesty helping me cope
e|--------------------------------------------------------------------|
B|--------------------------------------------------------------------|
G|--11----10/11----10/11----10/11----10/11----10/11-------------------|
D|--11----10/11----10/11----10/11----10/11----10/11---PICKSCRATCH-----|
A|---9-----8/-9-----8/-9-----8/-9-----8/-9-----8/-9-------------------|
E|--------------------------------------------------------------------|
^ ^ ^ ^ ^ ^

e|--------------------------------------------------------------------|
B|--------------------------------------------------------------------|
G|--111111111111---------------------111111111111--88888--------------|
D|--111111111111--99999--1111111111--111111111111--88888--99999-------|
A|---9-9-9-9-9-9--99999--1111111111---9-9-9-9-9-9--66666--99999-------|
E|----------------77777---9-9-9-9-9-----------------------77777-------|

(GUITAR 1)
e|--------------------------------------------------------------------|
B|--------------------------------------------------------------------|
G|--111111111111---------------------111111111111--88888--------------|
D|--111111111111--99999--1111111111--111111111111--88888--99999-------|
A|---9-9-9-9-9-9--99999--1111111111---9-9-9-9-9-9--66666--99999-------|
E|----------------77777---9-9-9-9-9-----------------------77777-------|

(GUITAR 2)
e|--------------------------------------------------------------------|
B|--------------------------------------------------------------------|
G|--10/111111111111-10/111111111111-10/111111111111-10/111111111111---|
D|---x/-x-x-x-x-x-x--x/-x-x-x-x-x-x--x/-x-x-x-x-x-x--x/-x-x-x-x-x-x---|
A|---8/-9-9-9-9-9-9--8/-9-9-9-9-9-9--8/-9-9-9-9-9-9--8/-9-9-9-9-9-9---|
E|--------------------------------------------------------------------|

"3rd Chorus"
I hope this is goodbye
I hope this is goodbye
I hope this is goodbye
I hope this is goodbye
I hope this is goodbye
I hope this is goodbye
I hope this is goodbye
I hope this is goodbye
I hope this is goodbye
I hope this is goodbye
I hope this is goodbye
I hope this is goodbye
e|--------------------------------------------------------------------|
B|--------------------------------------------------------------------|
G|-------8----4---------8----4----------------------------------------|
D|--4----8----4----4----8----4----------------------------------------|
A|--4----6----2----4----6----2----------------------------------------|
E|--2--------------2--------------------------------------------------|
^ ^ ^ ^ ^ ^

e|--------------------------------------------------------------------|
B|--------------------------------------------------------------------|
G|--------------------------888888888888---444444444444---------------|
D|--444444444444444444444---888888888888---444444444444---------------|
A|--444444444444444444444---666666666666---222222222222---------------|
E|--222222222222222222222---------------------------------------------|

e|--------------------------------------------------------------------|
B|--------------------------------------------------------------------|
G|--------------------------888888888888---444444444444---------------|
D|--444444444444444444444---888888888888---444444444444---------------|
A|--444444444444444444444---666666666666---222222222222---------------|
E|--222222222222222222222---------------------------------------------|

e|--------------------------------------------------------------------|
B|--------------------------------------------------------------------|
G|--------------------------888888888888---444444444444---------------|
D|--444444444444444444444---888888888888---444444444444---------------|
A|--444444444444444444444---666666666666---222222222222---------------|
E|--222222222222222222222---------------------------------------------|

e|--------------------------------------------------------------------|
B|--------------------------------------------------------------------|
G|--------------------------888888888888---444444444444---------------|
D|--444444444444444444444---888888888888---444444444444---------------|
A|--444444444444444444444---666666666666---222222222222---------------|
E|--222222222222222222222---------------------------------------------|

"Bridge"
e|--------------------------------------------------------------------|
B|--------------------------------------------------------------------|
G|--1111111111/1010/13131313/11111111--1111111111/10/13/11/10/111111--|
D|---x-x-x-x-x/-x-x/-x-x-x-x/-x-x-x-x---x-x-x-x-x/-x/-x/-x/-x/-x-x-x--|
A|---9-9-9-9-9/-8-8/11111111/-9-9-9-9---9-9-9-9-9/-8/11/-9/-8/-9-9-9--|
E|--------------------------------------------------------------------|

e|--------------------------------------------------------------------|
B|--------------------------------------------------------------------|
G|--1111111111/1010/13131313/11111111--1111111111/10/13/11/10/111111--|
D|---x-x-x-x-x/-x-x/-x-x-x-x/-x-x-x-x---x-x-x-x-x/-x/-x/-x/-x/-x-x-x--|
A|---9-9-9-9-9/-8-8/11111111/-9-9-9-9---9-9-9-9-9/-8/11/-9/-8/-9-9-9--|
E|--------------------------------------------------------------------|

"4th Chorus"
I hope this is goodbye
I hope this is goodbye
I hope this is goodbye
I hope this is goodbye
(GUITAR 1)
e|--------------------------------------------------------------------|
B|--------------------------------------------------------------------|
G|--------------------------888888888888---444444444444---------------|
D|--444444444444444444444---888888888888---444444444444---------------|
A|--444444444444444444444---666666666666---222222222222---------------|
E|--222222222222222222222---------------------------------------------|

(GUITAR 2)
e|--------------------------------------------------------------------|
B|--------------------------------------------------------------------|
G|--1111111111/1010/13131313/11111111--1111111111/10/13/11/10/111111--|
D|---x-x-x-x-x/-x-x/-x-x-x-x/-x-x-x-x---x-x-x-x-x/-x/-x/-x/-x/-x-x-x--|
A|---9-9-9-9-9/-8-8/11111111/-9-9-9-9---9-9-9-9-9/-8/11/-9/-8/-9-9-9--|
E|--------------------------------------------------------------------|

(GUITAR 1)
e|--------------------------------------------------------------------|
B|--------------------------------------------------------------------|
G|--------------------------888888888888---444444444444---------------|
D|--444444444444444444444---888888888888---444444444444-----------4-4-|
A|--444444444444444444444---666666666666---222222222222-----------4-4-|
E|--222222222222222222222-----------------------------------------2-2-|
^

(GUITAR 2)
e|--------------------------------------------------------------------|
B|--------------------------------------------------------------------|
G|--11111111/1010/13131313/11111111--11111111/10/13/11/10/111111------|
D|---x-x-x-x/-x-x/-x-x-x-x/-x-x-x-x---x-x-x-x/-x/-x/-x/-x/-x-x-x--4-4-|
A|---9-9-9-9/-8-8/11111111/-9-9-9-9---9-9-9-9/-8/11/-9/-8/-9-9-9--4-4-|
E|----------------------------------------------------------------2-2-|

___________________________________________________________________________________________

Queen Of Pain Tab by Alkaline Trio, www.Ultimate-Guitar.Com


Author/Artist: Alkaline Trio
Title: Queen Of Pain
Album: Alkaline Trio/Hot Water Music Split
Transcribed by: Jim Taone
Email: j_bro124@hotmail.com

This is a song off the upcoming HWM/Alk3 split, you
can get the mp3 at jadetree.com... there's 2 guitar parts
in this at certain times, and the timing in the tab
isn't perfect, but the 2 parts end on the same chord, so..

enjoy,
jim


Intro:
(guitar 1)
---------------------------------------------|
---------------------------------------------|
-8-8-8-8-8-8-8-8--6-6-6-6--4-4-4-4-4-4-4-4---|
-8-8-8-8-8-8-8-8--6-6-6-6--4-4-4-4-4-4-4-4---|
-6-6-6-6-6-6-6-6--4-4-4-4--2-2-2-2-2-2-2-2---|
---------------------------------------------|

--------------------------------|
--------------------------------|
----------------------------4---|
-8-8-8-8--6-6-6-6--8-8-8-8--4---|
-8-8-8-8--6-6-6-6--8-8-8-8--2---|
-6-6-6-6--4-4-4-4--6-6-6-6------|

Intro:
(guitar 2)
----------------------------------------------------------|
----------------------------------------------------------|
----------------------------------------------------------|
--------11-11-11-9-9-9-8-8-8---------11-11-11-9-9-9-8-8-8-|
-6-6-6----------------------------------------------------|
------------------------------7-7-7-----------------------|

--------------------------------|
--------------------------------|
----------------------------4---|
-------11-11-11-9-9-9-8-8-8-4---|
-6-6-6----------------------2---|
--------------------------------|


Verse 1 opening:
--------------------------------|
--------------------------------|
-8-8-8-8-8-8-8-8---6-6-----4----|
-8-8-8-8-8-8-8-8---6-6-----4----|
-6-6-6-6-6-6-6-6---4-4-----2----|
--------------------------------|


Post verse:
(guitar 1)
----------------------------------------------------|
----------------------------------------------------|
-8-8-8-8-8-8-8--6-6-6-6--4-4-4-4-4-4--6-6-6-6---8---|
-8-8-8-8-8-8-8--6-6-6-6--4-4-4-4-4-4--6-6-6-6---8---|
-6-6-6-6-6-6-6--4-4-4-4--2-2-2-2-2-2--4-4-4-4---6---|
----------------------------------------------------|

Post verse:
(guitar 2)
------------------------------------------------------------|
------------------------------------------------------------|
---------------------------------------------------------8--|
-------11-11-11-9-9-9-8-8-8--------11-11-11-9-9-9-8-8-8--8--|
-6-6-6---------------------------------------------------6--|
-----------------------------7-7-7--------------------------|


Pre-chorus:
--------------------------------|
--------------------------------|
-8-8-8-8-8-8-8-8---6-6---4-4----|
-8-8-8-8-8-8-8-8---6-6---4-4----|
-6-6-6-6-6-6-6-6---4-4---2-2----|
--------------------------------|


Chorus:
---------------------------------------------------------|
---------------------------------------------------------|
-----------------------------8-8-8--8-8-8--4-4-4--4-4-4--|
-4-4-4--4-4-4--4-4-4--4-4-4--8-8-8--8-8-8--4-4-4--4-4-4--|
-4-4-4--4-4-4--4-4-4--4-4-4--6-6-6--6-6-6--2-2-2--2-2-2--|
-2-2-2--2-2-2--2-2-2--2-2-2------------------------------|
play above riff 3x then below riff once
---------------------------------------------------------|
---------------------------------------------------------|
-----------------------------8-8-8--8-8-8--6-6-6--6-6-6--|
-4-4-4--4-4-4--4-4-4--4-4-4--8-8-8--8-8-8--6-6-6--6-6-6--|
-4-4-4--4-4-4--4-4-4--4-4-4--6-6-6--6-6-6--4-4-4--4-4-4--|
-2-2-2--2-2-2--2-2-2--2-2-2------------------------------|


Bridge:
---------------------------------------------------------|
---------------------------------------------------------|
-----------------------------8-8-8--8-8-8--6-6-6--6-6-6--|
-4-4-4--4-4-4--4-4-4--4-4-4--8-8-8--8-8-8--6-6-6--6-6-6--|
-4-4-4--4-4-4--4-4-4--4-4-4--6-6-6--6-6-6--4-4-4--4-4-4--|
-2-2-2--2-2-2--2-2-2--2-2-2------------------------------|

Outro:
(guitar 1)
---------------------------------------|
---------------------------------------|
-------------------8-8-8-8---6-6-6-6---|
-4-4-4-4-4-4-4-4---8-8-8-8---6-6-6-6---|
-4-4-4-4-4-4-4-4---6-6-6-6---4-4-4-4---|
-2-2-2-2-2-2-2-2-----------------------|

---------------------------------------|
---------------------------------------|
-------------------8-8-8-8---6-6-6-6---|
-4-4-4-4-4-4-4-4---8-8-8-8---6-6-6-6---|
-4-4-4-4-4-4-4-4---6-6-6-6---4-4-4-4---|
-2-2-2-2-2-2-2-2-----------------------|

Outro:
(guitar 2)
-----------------------------------------------------------|
-----------------------------------------------------------|
-----------------------------------------------------------|
-------11-11-11-9-9-9-8-8-8--------11-11-11-9-9-9-8-8-9-8--|
-9-9-9-----------------------6-6-6-------------------------|
-----------------------------------------------------------|

-----------------------------------------------------------|
-----------------------------------------------------------|
-----------------------------------------------------------|
-------11-11-11-9-9-9-8-8-8--------11-11-11-9-9-9-8-8-9-8--|
-9-9-9-----------------------6-6-6-------------------------|
-----------------------------------------------------------|


End song with this chord:
-----|
-----|
-----|
--4--|
--4--|
--2--|

Songflow:
Intro 2x
Verse 1 Opening
Post Verse 2x
Pre-Chorus
Chorus
Intro
Pre-Chorus
Chorus
Bridge 2x
Chorus
Outro 2x

___________________________________________________________________________________________

While Youre Waiting Tab by Alkaline Trio, www.Ultimate-Guitar.Com


Author/Artist: Alkaline Trio
Title: While You're Waiting
Album: Alkaline Trio/Hot Water Music Split
Transcribed by: Jim Taone
Email: j_bro124@hotmail.com


My pre-ordered c.d. just came today (1-3-02) the
website said they wouldn't ship until 1-19 but hey,
i'm not complaining... should be pretty accurate listen
to c.d. for timing.

jim

p.s. does this remind anyone else of a sped up cooking wine???


Intro:
---------------------------------|
---------------------------------|
-7-7-7-7-------------------------|
-7-7-7-7--7-7-7-7--5-5-5-5-5-5---|
-5-5-5-5--7-7-7-7--5-5\4-4/5-5---|
----------5-5-5-5--3-3-3-3-3-3---|

---------------------------------|
---------------------------------|
-7-7-7-7-------------------------|
-7-7-7-7--7-7-7-7--5-5-5-5---7---|
-5-5-5-5--7-7-7-7--5-5\4-4---7---|
----------5-5-5-5--3-3-3-3---5---|


Riff 1:
-------------------------------|
-------------------------------|
-7-7-7-------------------------|
-7-7-7---7-7-7---5-5-5-5-5-5---|
-5-5-5---7-7-7---5-5-5-5-5-5---|
---------5-5-5---2-2/3-3-3-3---|


Verse:
just hit this chord before verse, and let it ring throughout, w/ random feedback
------|
------|
-7----|
-7----|
-5----|
------|


Chorus:
Timing on chorus is wierd, first chorus he palm mutes, all the rest he just
jams on the chords, play w/ c.d.
------------------------------|
------------------------------|
------------------------------|
-9-----5-----2-----5-----7----|
-9-----5-----2-----5-----7----|
-7-----3-----0-----3-----5----|

Songflow:
Intro
Riff 1 (4x)
Verse chord
Riff 1 (2x)
Verse chord
Chorus
Riff 1 (4x)
Verse chord
Chorus
Riff 1 palm muted (4x)
Chorus
Riff 1 (4x)
End on verse chord

___________________________________________________________________________________________

Rooftops Tab by Alkaline Trio, www.Ultimate-Guitar.Com


Author/Artist: Alkaline Trio
Title: Rooftops
Album: Alkaline Trio/Hot Water Music Split
Transcribed by: Jim Taone
Email: j_bro124@hotmail.com


Oddly, even though it's a hwm cover, i think it's alk3's
best song on the album it's fun as hell to play and dan
and matt always sound great singing harmony parts...
enough rambling, here's the song

jim

Intro:
Guitar 1
-------------|
-------------|
-7--7--------|
-7--7----7---|
-5--6----7---|
---------5---|
Guitar 2
-------------|
-------------|
-7--6--7/9---|
-------------|
-------------|
-------------|


Verse:
palm mute
-------------------------------------|
-------------------------------------|
-------------------------7-7-7-7-7---|
-7-7-7-7-7---4-4-4-4-4---7-7-7-7-7---|
-7-7-7-7-7---4-4-4-4-4---5-5-5-5-5---|
-5-5-5-5-5---2-2-2-2-2---------------|


Chorus:
Timing on this is not exact, so play along with the c.d.
-----------------------------------------|
-----------------------------------------|
-----------------------------------7-7---|
-7-7-7---7-7-7--9-9-9---4-4-4------7-7---|
-7-7-7---7-7-7--9-9-9---4-4-4------5-5---|
-5-5-5---5-5-5--7-7-7---2-2-2------------|


Outro;
Guitar 1
-------------------------------------|
-------------------------------------|
-------------------------7-7-7-7-7---|
-7-7-7-7-7---4-4-4-4-4---7-7-7-7-7---|play 4x
-7-7-7-7-7---4-4-4-4-4---5-5-5-5-5---|
-5-5-5-5-5---2-2-2-2-2---------------|

Guitar 2:
------------------|
------------------|
-6h7--7/9--7--6---|
------------------| play approximately 10 times then go on to the below riff
------------------|
------------------|

---------------------------------------------|
---------------------------------------------|
-6-6-6--7-7-7--6-6-6--5-5-5--6-6-6--4-4--2---|
-x-x-x--x-x-x--x-x-x--x-x-x--x-x-x--x-x--x---|
-4-4-4--5-5-5--4-4-4--7-7-7--4-4-4--2-2--0---|
---------------------------------------------|

---------------------------------------------|
---------------------------------------------|
-6-6-6--7-7-7--9-9-9--7-7-7--6-6-6--4----6---|
-x-x-x--x-x-x--x-x-x--x-x-x--x-x-x--x----x---|
-4-4-4--5-5-5--7-7-7--5-5-5--4-4-4--2----4---|
---------------------------------------------|

Songflow:
Intro
Verse (4x)
Chorus (2x)
Verse (4x)
Chorus (4x)
Outro

___________________________________________________________________________________________

Old School Reasons Tab by Alkaline Trio, www.Ultimate-Guitar.Com


Alkaline Trio - Old School Reasons
Album - Good Mourning
Tabbed by - Andrew Biles

This is a long tab as I've put the lyrics underneath the chord changes, but it's
a good song, not the best off the album, but still worth a good listen. enjoy

|---------------|
|---------------|
|---7-7-----7-7-|
|-7-7-7--2--7-7-|
|-7-5-5--2--5-5-|
|-5------0------| (x2)

------------------------------------------------------------------|
------------------------------------------------------------------|
---------7-7-7-7---------7-7-7-7----------------------------------|
-7-7-7-7-7-7-7-7-2-2-2-2-7-7-7-7-7-7-7-7-7-7-7-7--2-2-2-2-2-2-2-2-|
-7-7-7-7-5-5-5-5-2-2-2-2-5-5-5-5-7-7-7-7-7-7-7-7--2-2-2-2-2-2-2-2-|
-5-5-5-5---------0-0-0-0---------5-5-5-5-5-5-5-5--0-0-0-0-0-0-0-0-|
                                                  ^down strums

Verse - from the 3rd staff down, rhythm changes and he accents every 3rd chord strum
|--------------------------------------------------------------------|
|--------------------------------------------------------------------|
|----------------------------------7---------------------------7-----|
|---------------7------------------7----------2----------------7-----|
|---------------7------------------5----------2----------------5-----|
|---------------5-----------------------------0----------------------|
 I've got these thoughts in my head, dirty as f*ck and never leavin'

-------------------------------------------------------------|
-------------------------------------------------------------|
------------------------------7---------------------------7--|
-------------7----------------7--------2------------------7--|
-------------7----------------5--------2------------------5--|
-------------5-------------------------0---------------------|
 and they're best left unsaid, all the drinks on your breath

-----------------------------------------------------------------|
-----------------------------------------------------------------|
--------------------------7---------------------------7----------|
---------7----------------7-----------2---------------7----------|
---------7----------------5-----------2---------------5----------|
---------5----------------------------0--------------------------|
got some shit on my chest suit, on my bag next to the monkeyness

-----------------------------------------------|
-----------------------------------------------|
-------------------7-------------------------7-|
-----7-------------7-----------2-------------7-|
-----7-------------5-----------2-------------5-|
-----5-------------------------0---------------|
that somebody left with me the day I was born

Break
|-----------------------------------------------------------------|
|-----------------------------------------------------------------|
|---------7-7-7-7---------7-7-7-7-------------------------7-7-7-7-|
|-7-7-7-7-7-7-7-7-2-2-2-2-7-7-7-7-7-7-7-7-2-2-2-2-4-4-4-4-7-7-7-7-|
|-7-7-7-7-5-5-5-5-2-2-2-2-5-5-5-5-7-7-7-7-2-2-2-2-4-4-4-4-5-5-5-5-|
|-5-5-5-5---------0-0-0-0---------5-5-5-5-0-0-0-0-2-2-2-2---------|

Verse - from 2nd staff, rhythm changes to same as last verse
|----------------------------------------------------------|
|----------------------------------------------------------|
|----------------------7--------------------------7--------|
|-------7--------------7----------2---------------7--------|
|-------7--------------5----------2---------------5--------|
|-------5-------------------------0------------------------|
I got a hole in my head, the size of lake f*cking Michigan

-------------------------------------------------------|
-------------------------------------------------------|
----------------------7------------------------------7-|
---7------------------7----------------2-------------7-|
---7------------------5----------------2-------------5-|
---5-----------------------------------0---------------|
my pipes lined in lead, got old school reasons to die

-----------------------------------------------------|
-----------------------------------------------------|
--------------------7------------------------7-------|
-------7------------7----------2-------------7-------|
-------7------------5----------2-------------5-------|
-------5-----------------------0---------------------|
all my money's been spent on a face lift via alcohol

----------------------------------------------------|
----------------------------------------------------|
-------------------7-----------------------7--------|
--------7----------7---------2-------------7--------|
--------7----------5---------2-------------5--------|
--------5--------------------0----------------------|
this sinner repents to an empty bathroom reflection

Chorus
|-----------------------------------------------------------------|
|-----------------------------------------------------------------|
|-----------------------------6-----------------7-----------------|
|-7---------------------------6-----------------7-----------------|
|-7---------------------------4-----------------5-----------------|
|-5---------------------------------------------------------------|
  Please take me to Earth and do with them what you would like to

------------------------------------------------------------------------|
------------------------------------------------------------------------|
---------------------------------------------------7-------9------------|
-7-----------6----------------4--------------------7-------9------------|
-7-----------6----------------4--------------------5-------7------------|
-5-----------4----------------2-----------------------------------------|
dream I had, drove me mad and just your time, it's just my f*cking life

Break
|-----------------------------------------------------------------|
|-----------------------------------------------------------------|
|---------7-7-7-7---------7-7-7-7-------------------------7-7-7-7-|
|-7-7-7-7-7-7-7-7-2-2-2-2-7-7-7-7-7-7-7-7-2-2-2-2-4-4-4-4-7-7-7-7-|
|-7-7-7-7-5-5-5-5-2-2-2-2-5-5-5-5-7-7-7-7-2-2-2-2-4-4-4-4-5-5-5-5-|
|-5-5-5-5---------0-0-0-0---------5-5-5-5-0-0-0-0-2-2-2-2---------|

Verse - first 2 staffs, 3 strums each chord, then to second rhythm of previous verses
|--------------------------------------------------------------------|
|--------------------------------------------------------------------|
|----------------------7------------------------------------7--------|
|--------7-------------7-----------------2------------------7--------|
|--------7-------------5-----------------2------------------5--------|
|--------5-------------------------------0---------------------------|
 I got a bottle in hand, straight to the ground with all my memories

------------------------------------------------------------|
------------------------------------------------------------|
---------------------7---------------------------------7--6-|
-----7---------------7------------------2--------------7--6-|
-----7---------------5------------------2--------------5--4-|
-----5----------------------------------0-------------------|
it's best left unsaid when they've all been left behind


--------------------------------------------|
--------------------------------------------|
--------------------7-----------------7-----|
-------7------------7----------2------7-----|
-------7------------5----------2------5-----|
-------5-----------------------0------------|
All my money's been spent on a DIY labotomy

------------------------------------------------|
------------------------------------------------|
-------------------7------------------7---------|
-----7-------------7------2-----------7---------|
-----7-------------5------2-----------5---------|
-----5--------------------0---------------------|
This sinner repents to a (?) bathroom mirror

Chorus
|-----------------------------------------------------------------|
|-----------------------------------------------------------------|
|-----------------------------6-----------------7-----------------|
|-7---------------------------6-----------------7-----------------|
|-7---------------------------4-----------------5-----------------|
|-5---------------------------------------------------------------|
  Please take me to Earth and do with them what you would like to

------------------------------------------------------------------------|
------------------------------------------------------------------------|
---------------------------------------------------7-------9------------|
-7-----------6----------------4--------------------7-------9------------|
-7-----------6----------------4--------------------5-------7------------|
-5-----------4----------------2-----------------------------------------|
dream I had, drove me mad and just your time, it's just my f*cking life

-----------------------------------------------------------------|
-----------------------------------------------------------------|
-----------------------------6-----------------7-----------------|
-7---------------------------6-----------------7-----------------|
-7---------------------------4-----------------5-----------------|
-5---------------------------------------------------------------|
 Please take me to Earth and do with them what you would like to

------------------------------------------------------------------------|
------------------------------------------------------------------------|
---------------------------------------------------7-------9------------|
-7-----------6----------------4--------------------7-------9------------|
-7-----------6----------------4--------------------5-------7------------|
-5-----------4----------------2-----------------------------------------|
dream I had, drove me mad and just your time, it's just my f*cking life

-------------------------------------------|
-------------------------------------------|
---------7-7-7-7---------7-7-7-7-----------|
-7-7-7-7-7-7-7-7-2-2-2-2-7-7-7-7-----------|
-7-7-7-7-5-5-5-5-2-2-2-2-5-5-5-5-----------|
-5-5-5-5---------0-0-0-0-------------------|
                        and that's my life

---------------------------------------------|
---------------------------------------------|
-------------------------7-7-7-7-------------|
-7-7-7-7-2-2-2-2-4-4-4-4-7-7-7-7-------------|
-7-7-7-7-2-2-2-2-4-4-4-4-5-5-5-5-------------|
-5-5-5-5-0-0-0-0-2-2-2-2---------------------|
                         over and

-------------------------------------|
-------------------------------------|
---------7-7-7-7---------7-7-7-7-----|
-7-7-7-7-7-7-7-7-2-2-2-2-7-7-7-7-----|
-7-7-7-7-5-5-5-5-2-2-2-2-5-5-5-5-----|
-5-5-5-5---------0-0-0-0-------------|
   over again   just my fucking life

---------------------------------|
---------------------------------|
-------------------------7-7-7-7-|
-7-7-7-7-2-2-2-2-4-4-4-4-7-7-7-7-|
-7-7-7-7-2-2-2-2-4-4-4-4-5-5-5-5-|
-5-5-5-5-0-0-0-0-2-2-2-2---------|

Bridge
|---------------------------------|
|---------------------------------|
|-6----------------------------7--|
|-6----------------------------7--|
|-4----------------------------5--|
|---------------------------------|
 It might seem meaningless to you

---------------------------------------|
---------------------------------------|
-6-----------------------------7-7-7-7-|
-6-----------------------------7-7-7-7-|
-4-----------------------------5-5-5-5-|
---------------------------------------|
  but that means everything to me

----------------------------|
----------------------------|
-7--7--7--7\----------------|
-7--7--7--7\----------------|
-5--5--5--5\----------------|
----------------------------|
 and I'm fucked without you

Chorus
|-----------------------------------------------------------------|
|-----------------------------------------------------------------|
|-----------------------------6-----------------7-----------------|
|-7---------------------------6-----------------7-----------------|
|-7---------------------------4-----------------5-----------------|
|-5---------------------------------------------------------------|
  Please take me to Earth and do with them what you would like to

------------------------------------------------------------------------|
------------------------------------------------------------------------|
---------------------------------------------------7-------9------------|
-7-----------6----------------4--------------------7-------9------------|
-7-----------6----------------4--------------------5-------7------------|
-5-----------4----------------2-----------------------------------------|
dream I had, drove me mad and just your time, it's just my f*cking life

-------------------------------------------|
-------------------------------------------|
---------7-7-7-7---------7-7-7-7-----------|
-7-7-7-7-7-7-7-7-2-2-2-2-7-7-7-7-----------|
-7-7-7-7-5-5-5-5-2-2-2-2-5-5-5-5-----------|
-5-5-5-5---------0-0-0-0-------------------|
                        and that's my life

---------------------------------------------|
---------------------------------------------|
-------------------------7-7-7-7-------------|
-7-7-7-7-2-2-2-2-4-4-4-4-7-7-7-7-------------|
-7-7-7-7-2-2-2-2-4-4-4-4-5-5-5-5-------------|
-5-5-5-5-0-0-0-0-2-2-2-2---------------------|
                         over and

-------------------------------------|
-------------------------------------|
---------7-7-7-7---------7-7-7-7-----|
-7-7-7-7-7-7-7-7-2-2-2-2-7-7-7-7-----|
-7-7-7-7-5-5-5-5-2-2-2-2-5-5-5-5-----|
-5-5-5-5---------0-0-0-0-------------|
   over again   just my fucking life

---------------------------|
---------------------------|
-------------------7-6-4-2-|
-7-7---2-2---4-4---7-6-4-2-|
-7-7---2-2---4-4---5-4-2-0-|
-5-5---0-0---2-2-----------|
___________________________________________________________________________________________

Warbrain Tab by Alkaline Trio, www.Ultimate-Guitar.Com


----------------------------------------------------------------------------
			     WARBRAIN - Alkaline Trio
----------------------------------------------------------------------------
Tabbed by: Jesse Benedick
Email: JBMETAL311@YAHOO.COM
Rock Against Bush Comp.

Tuning: Standard

e|-----|----------------------|-------------------------------------|
B|--9--|----------------------|--7---7---7---7---7---7---7---7------|
G|--x--|------------4---------|----4---4----------------------------|
D|--6--|--6----2----4----4----|------------6---6---4---4---4---4----|
A|-----|--6----2----2----4----|-------------------------------------|
E|-----|--4----0---------2----|-------------------------------------|
        Main Chords            Main Riff
e|-----------------------------------------------------------------------|
B|-----------------------------------------------------------------------|
G|-----------------------------------------------------------------------|
D|--2------6--4------2------6--4------2------6--4-------2------4----2----|
A|--2------6--4------2------6--4------2------6--4-------2------4----2----|
E|--0------4--2------0------4--2------0------4--2-------0------2----0----|
 Chorus Chords

| /  slide up
| \  slide down
| h  hammer-on
| p  pull-off
| ~  vibrato
| +  harmonic
| x  Mute note

___________________________________________________________________________________________

Fine Without You Tab by Alkaline Trio, www.Ultimate-Guitar.Com


Title: Fine Without You
Artist: Alkaline Trio
Album: Alkaline Trio/One Man Army Split
Year: 2004

Tabbed By: Kevin Cross
Email: PSAF@wi.rr.com
AIM: KevinC442

This is a relatively simple song to play.

If you need any help, or find an error,
or want to leave me a comment, email me at
PSAF@wi.rr.com or message me on AIM.

ORDER: Intro>Verse>Intro>Verse>Chorus>Intro>Verse>Chorus X2>Ending

INTRO
|---------------------------------------------------------------|
|---------------------------------------------------------------|
|6-6-6-7-7-7-6-6-6-7-7-7-6-6-7-7-6-6-6-7-7-7-2-2-2-4-4-4-9-7-6-6|  X2
|7-7-7-7-7-7-7-7-7-7-7-7-7-7-7-7-0-0-0-0-0-0-0-0-0-0-0-0-0-0-0-0|
|0-0-0-0-0-0-0-0-0-0-0-0-0-0-0-0--------------------------------|
|---------------------------------------------------------------|

*****************************************************************

VERSE
 Well I'll sit here...           If you keep...
 Well my friends...		 Won't listen to myself...
 I'll sit here trying...	 But you keep on pretending...
|---------------------------------------------------------------|
|---------------------------------------------------------------|
|6-------------------------------7------------------------------|  X2
|7-------------------------------0------------------------------|
|0--------------------------------------------------------------|
|---------------------------------------------------------------|

 I've got nothing here...        Holes in walls and...
 You got on a plane...           You're never coming back...
 I'd kill for you and...         Give you the heart and....
|---------------------------------------------------------------|
|---------------------------------------------------------------|
|6-------------7-----------------6--------------7---------------|  X2
|7-------------0-----------------7--------------0---------------|
|0-------------------------------0------------------------------|
|---------------------------------------------------------------|

 My head is pounding...          Like a big black song.
 I'm trying to convince...    ...true, convincing myself
 A thousand miles...          ...walking to hold you.
|---------------------------------------------------------------|
|---------------------------------------------------------------|
|9-------------------------------7------------------------------|
|9-------------------------------7------------------------------|
|7-------------------------------5------------------------------|
|0--------------------------------------------------------------|
*****************************************************************

CHORUS
 I'll be just fine without you.
|---------------------------------------------------------------|
|---------------------------------------------------------------|
|6-6-6-7-7-7-6-6-6-7-7-7-6-6-7-7-6-6-6-7-7-7-2-2-2-4-4-4-9-7-6-6|  X2
|7-7-7-7-7-7-7-7-7-7-7-7-7-7-7-7-0-0-0-0-0-0-0-0-0-0-0-0-0-0-0-0|
|0-0-0-0-0-0-0-0-0-0-0-0-0-0-0-0--------------------------------|
|---------------------------------------------------------------|

 I'll be just fine without you,  I'll be here telling myself it's true
|---------------------------------------------------------------|
|---------------------------------------------------------------|
|9-9-9-9-9-9-9-9-9-9-9-9-9-9-9-9-7-7-7-7-7-7-7-7-7-7-7-7-7-7-7-7|
|9-9-9-9-9-9-9-9-9-9-9-9-9-9-9-9-7-7-7-7-7-7-7-7-7-7-7-7-7-7-7-7|
|7-7-7-7-7-7-7-7-7-7-7-7-7-7-7-7-5-5-5-5-5-5-5-5-5-5-5-5-5-5-5-5|
|0-0-0-0-0-0-0-0-0-0-0-0-0-0-0-0--------------------------------|
*****************************************************************

ENDING
 I'll be just fine without you, I'll be just fine without you
|---------------------------------------------------------------|
|---------------------------------------------------------------|
|9-9-9-9-9-9-9-9-9-9-9-9-9-9-9-9-7-7-7-7-7-7-7-7-7-7-7-7-7-7-7-7|
|9-9-9-9-9-9-9-9-9-9-9-9-9-9-9-9-7-7-7-7-7-7-7-7-7-7-7-7-7-7-7-7|
|7-7-7-7-7-7-7-7-7-7-7-7-7-7-7-7-5-5-5-5-5-5-5-5-5-5-5-5-5-5-5-5|
|0-0-0-0-0-0-0-0-0-0-0-0-0-0-0-0--------------------------------|

 I'll be just fine without you,  I'll be here telling myself it's true
|---------------------------------------------------------------|
|---------------------------------------------------------------|
|9-9-9-9-9-9-9-9-9-9-9-9-9-9-9-9-7-7-7-7-7-7-7-7-7-7-7-7-7-7-7-7|
|9-9-9-9-9-9-9-9-9-9-9-9-9-9-9-9-7-7-7-7-7-7-7-7-7-7-7-7-7-7-7-7|
|7-7-7-7-7-7-7-7-7-7-7-7-7-7-7-7-5-5-5-5-5-5-5-5-5-5-5-5-5-5-5-5|
|0-0-0-0-0-0-0-0-0-0-0-0-0-0-0-0--------------------------------|

|---------------------------------------------------------------|
|---------------------------------------------------------------|
|6-6-6-7-7-7-6-6-6-7-7-7-6-6-7-7--------------------------------|  X2
|7-7-7-7-7-7-7-7-7-7-7-7-7-7-7-7-7------------------------------|
|0-0-0-0-0-0-0-0-0-0-0-0-0-0-0-0-7------------------------------|
|--------------------------------5------------------------------|

___________________________________________________________________________________________

Hating Every Minute Tab by Alkaline Trio, www.Ultimate-Guitar.Com


Alkaline Trio is awesome and I love this song of their split cd with
One Man Army. This is my first tab so don't go too hard on me.
But, I think I tabbed most of this song correctly.

Band: Alkaline Trio
Song: Hating Every Minute
Tabbed by: Tom Fleming
Tuning: Standard

*=palm mute
~=let ring

Intro
          First part of Intro       Second part of Intro
-------------------------------- -------------------------------------|
-------------------------------- -------------------------------------|
6666----6666--------4444----4444 6666----6666888899991313131399994444-|
66666666666666662222444422224444 666666666666888899991313131399994444-|
44446666444466662222222222222222 444466664444666677771111111177772222-|
----4444----44440000----0000---- ----4444-----------------------------|


Verse (2x)
----------------------------------------|
----------------------------------------|
66-6------66-6-----------44-4------44-4-|
66-6-66-6-66-6-66-6-22-2-44-4-22-2-44-4-|
44-4-66-6-44-4-66-6-22-2-22-2-22-2-22-2-|
-----44-6------44-4-00-0------00-0------|
**   **   **   **   **   **   **   **

Second Part of Intro (1x)
Verse (2x)

Prechorus (2x)
------------------|
------------------|
9~---4~---6~---24-|
9~---4~---6~---24-|
7~---2~---4~---02-|
------------------|

                 I'm not sure about these two parts.
Chorus
------------------------------  -------------------------------|
------------------------------  -------------------------------|
----------------6x64x422222222  ----------------9x98x866666666-|
2222222266666666xxxxxx22222222  2222222266666666xxxxxx66666666-|
22222222666666664x42x200000000  22222222666666667x76x644444444-|
0000000044444444--------------  0000000044444444---------------|
          (2x)                                (1x)

"Like a year laying down." part (3x)
-----------------|
-----------------|
9999-------------|
9999222277779999-|
7777222277779999-|
----000055557777-|

Then play:

Second part of Intro (2x)
Verse (2x)
Prechorus (2x)
Chorus Pt. 1 (2x) Pt. 2 (1x)
"Like a year laying down" part (3x)

Ending
-----------------------------------|
-----------------------------------|
6666----6666--------4444-----------|
666666666666666622224444777766662~-|
444466664444666622222222777766662~-|
----4444----44440000----555544440~-|

___________________________________________________________________________________________

Dead And Broken Tab by Alkaline Trio, www.Ultimate-Guitar.Com


This is a short and simple, but good song from the legendary Alkaline Trio.

Song:Dead & Broken
Tuning: Standard
Tabber: Tom Fleming
email: flemingooy2@aol.com

Key:
~=let ring
/=slide up
\=slide down
Intro Guitar 1 (4x)
|----------------------------|
|----------------------5-----|
|-66-44-7-44-666-66-44---44-6|
|----------------------------|
|----------------------------|
|----------------------------|

Guitar 2 (4x)
|------------------------------------|
|------------------------------------|
|-6666666666666666----------99999999-|
|-6666666666666666-77777777-99999999-|
|-4444444444444444-77777777-77777777-|
|------------------55555555----------|

Guitar 3 (comes in after 2nd time of Gtr. 1 and 2)
|---------------------------------------------------|
|---------------------------------------------------|
|-6/11~--------13~----14~----11~--------7~----6~----|
|-x/-x~---------x~-----x~-----x~--------x~----x~----|
|-4/-9~--------11~----12~-----9~--------5~----4~----|
|---------------------------------------------------|

Verse                     (2x)
 _ _ _ _ _ _ _ _ _ _ _ _ _ _ _ _ _ _ _ _ _ _ _ _ _ _ _
/                3x                           1x       \After second time
|-----------------------------------|------------------|----------|
|-----------------------------------|------------------|----------|
|6666666666666666----------99999999-|-7777777777777777-|-99999999-|
|6666666666666666-77777777-99999999-|-7777777777777777-|-99999999-|
|4444444444444444-77777777-77777777-|-5555555555555555-|-77777777-|
|-----------------55555555----------|------------------|----------|

Chorus        3x                                        1x
|---------------------------------------|----------------------------------|
|---------------------------------------|----------------------------------|
|-----------------------------9~--------|-7777777777777777-9999999999999999|
|-7~----------------4~--------9~--------|-7777777777777777-9999999999999999|
|-7~----------------4~--------7~--------|-5555555555555555-7777777777777777|
|-5~----------------2~------------------|----------------------------------|

Intro (2x) (started with 3rd guitar)

Verse (same chords only not strummed...just let the notes ring)

Chorus (1x)

Then do the chorus part again only this time strum the chords.

End with
|------------|
|------------|
|------------|
|7~-------7\-|
|7~-------7\-|
|5~-------5\-|


___________________________________________________________________________________________

Sadie Tab by Alkaline Trio, www.Ultimate-Guitar.Com


----------------------------------------------------------------------------
			     Alkaline Trio - Sadie
----------------------------------------------------------------------------

Standard Tuning

Intro/Verses
e|------------------------------------------------------------|
B|------------------------------------------------------------|
G|------------------------------------------------------------|
D|9--9--9--10-10-10-9--10-9-9-9-10-10-10-9-10-9-9-9-9-9-9-9-9-|
A|10-10-10-10-10-10-10-10-0-0-0-0--0--0--0--0-7-7-7-7-7-7-7-7-|
E|------------------------------------------------------------|

  ---------------------|
  ---------------------|
  ---------------------|
  -10-10-10-10-10-9-9-9|
  -7--7--7--7--7--7-7-7|
  ---------------------|

e|------------------------------------------------------------|
B|------------------------------------------------------------|
G|------------------------------------------------------------|
D|9--9--9--10-10-10-9--10-9-9-9-10-10-10-9-10-9-9-9-9-9-9-9-9-|
A|10-10-10-10-10-10-10-10-0-0-0-0--0--0--0--0-7-7-7-7-7-7-7-7-|
E|------------------------------------------------------------|

  ---------------------|
  ---------------------|
  ---------------------|
  -9-9-9-9-9-7-7-7-----|
  -7-7-7-7-7-7-7-7-----|
  ---------------------|


Choruses (2nd Chorus is 1/3 longer, but played the same)
e|--------|      |---------------------------|
B|--------|      |---------------------------|
G|-5------| then |---------5-----------7-----|
D|-5(X16)-|      |---2-----5(X8)-5-----7(X8)-|
A|-3------|      |---2(X8)-3-----5(X8)-5-----|
E|--------|      |---0-----------3-----------|


Bridge:
solo breakdown thing played over bass
e|-------------------------------------------------|
B|---8---------------8---8-12--12~~~---7-8echo-----|
G|-7---7---------------7---------------------------|
D|-------9-----9~~~--------------------------------|
A|-------------------------------------------------|
E|-------------------------------------------------|
Breakout  (Whoa!!)
e|---------------------|
B|---------------------|
G|-------------5-------|
D|-5-----2-----5(X8)---|
A|-5(X8)-2(X8)-3-------|
E|-3-----0-------------|

after Matt's Whoas it goes back to the chorus chords with this solo on top
e|-----------------------------------------------------------------------|
B|-8~8----------------15-15-15-13-13-12~~-(X3)-15-15-15------------------|
G|-----7-------(X4)-------------------------------------12-12-14~~-------|
D|-------10--9-----------------------------------------------------------|
A|-----------------------------------------------------------------------|
E|-----------------------------------------------------------------------|

Thats about it, heres the song flow:
I
V
C
V
C
Breakdown
Breakout
Chorus w/ solo
I

___________________________________________________________________________________________

----------------------------------------------------------------------------
                      Alkaline Trio - "If You Had A Bad Time"
----------------------------------------------------------------------------
CHORDS:
E:   022100
A:   X02200
B:   X23300
C#m: X46600

INTRO
E B C#m B A

1ST VERSE
                 E       B
If you had a bad time at one of my parties
       C#m                   B                          A
Well I wouldn't expect to be seeing you soon and that's fine
                          E
You have to know what and why
      B
Those things make you happy
C#m                       B                          A
  You have to know that a second guess ain't worth a try

CHORUS
                   E
Just some words of advice
             A                          B
Maybe you've heard them before but here goes
                    E                       A                     B     A
Just be true to yourself if it lands you in hell at least now you know
         B             E                            A
Loud and clear is your heart big and bright are the places you might
      B
someday go
                        E                            A
With one million things holding you down, why you're one of those things
        B    A       B          E
I don't know, no big deal gotta go

2ND VERSE
If you're up to your ears
In blood, sweat and wasted years
I'm hoping you're going to open your throat
And just scream
You have to know when, why
Which ones miss you when you die
You have to know a second guess ain't worth the salt in your eye

BRIDGE
        C#m                          A
It just sits on my shoulders, you're breaking my neck
       E                          B
We get crazy with age, now you're under my bed
         C#m   A         E             B
And it's dark    all the time, all the time

SONGFLOW
IVCIVCBC

___________________________________________________________________________________________

Wait For The Blackout Tab by Goo Goo Dolls, www.Ultimate-Guitar.Com


#----------------------------------PLEASE NOTE--------------------------------#
#This file is the author's own work and represents their interpretation of the#
#song. You may only use this file for private study, scholarship, or research.#
#-----------------------------------------------------------------------------#

Wait for the Blackout - as performed by Goo Goo Dolls
for the "Tommy Boy" soundtrack
(tabbed by Johnny O)
(questions or comments to goo@soong.heinous.net)
Goo Goo Dolls Web Site: The World of Goo
http://soong.heinous.net/~goo/index.html

Song order identified by section

INTRO:	Play Riff 1 - 4x

1st VERSE:  (Play Rhythm Fig. 1 - 2x)
	Don't you ask me to come out
	out when the sun does shine
	Gonna stay here with curtains drawn
	in darkness you'll be mine

CHORUS:    (Play Rhythm Fig. 2 - 2x)
	Let's wait for the blackout
	The lights are too bright
	Let's wait for the blackout
	Wait for the night

2nd VERSE:  (Play Rhythm Fig. 1 - 2x)
	Well welcome to my basement flat
	No windows to see through
	With darkness closing in, my friend
	We both know what to do

CHORUS:    (Play Rhythm Fig. 2 - 2x)
	Let's wait for the blackout
	Wait for the night
	Let's wait for the blackout
	The lights are too bright

BREAK:     (Play Riff 2 - 2x with End 2 second time)
	Yea!

FILL:      (Play Fill 1 - 4x)

CHORUS:    (Play Rhythm Fig. 2 - 2x)
	Let's wait for the blackout
	The lights are too bright
	Let's wait for the blackout
	Wait for the night

3rd VERSE:  (Play Rhythm Fig. 1 - 2x)
	Come roam with me upon this earth
	Keep us both alive
	Know everything has lasted here
	And ne'er would survive

CHORUS:     (Play Rhythm Fig. 2 - 2x)
	Let's wait for the blackout
	The lights are too bright
	Let's wait for the blackout
	Wait for the night

BREAK:	(Play Riff 2 - 2x with End 2 second time)

BRIDGE: (Guitar 1 Plays Fill 1 - 8x)
        (Guitar 2 Enters on 5th repeat of Fill 1 w/ Rhythm Fig. 3 - 4x)
	In darkness there is no sin
	Light only brings in fear
	There's nothing to corrupt the eyes
	There is no vision here
	At first you may find it strange
	But do not go away
	The darkness holds a power that you
	wont find in the day

OUTRO:	(Guitar 1 Plays Rhythm Fig. 4 until fade out)
	(Guitar 2 Enters on 5th repeat of Rhythm Fig. 4
	 with Rhythm Fig. 5 and repeats until fade out)
	There is no vision here (repeat)

INTRO
Riff 1
e -------------------------------------------------------------|
B -------------------------------------- 8---7---8---7---8---7-|
G 6--7--9--7--6----6-------------------- 7---7---7---7---7---7-|
D -------------------6--7--9--7--6---6---0---0---0---0---0---0-|
A -------------------------------------------------------------|
E -------------------------------------------------------------|

VERSE
Rhythm Fig. 1  ( let all notes ring)
e -------------------------------------------------------------|
B --8---8---8p7----7---7---7h8----8---8h10-----10----10-10-10--|
G --7---7---7------7---7---7------7---7--------7-----7--7--7---|
D --0---0---0------0---0---0------0---0--------0---------------|
A -------------------------------------------------------------|
E -------------------------------------------------------------|

CHORUS
Rhythm Fig. 2
e -------------------------------------------------------------|
B ---------------------------------8---7---8---7---8---7-------|
G --2---2------------------------- 7---7---7---7---7---7-------|
D --0---0------------2---2---------0---0---0---0---0---0-------|
A --0---0---2---4----2---2-------------------------------------|
E -------------------0---0-------------------------------------|

RIFF 2
                                    | END 1          |End  2
e ----------------------------------|----------------|------------|
B ----------------------------------|----------------|------------|
G 5-7--5----------------5-7--5/////-|-11h12p11h12p11-|--11h12p11--|
D --------7-6-5-3-5-7---------------|----------------|------------|
A ----------------------------------|----------------|------------|
E ----------------------------------|----------------|------------|

FILL 1  ( 2 guitars semi-arranged for 1)
let all notes ring
e ----------------------------------------------------------------|
B ----------7---8p7----7---10p7-----8p7----8p7--------------------|
G --7---7-----------7-----------7-------7-------------------------|
D --7-------------------------------------------------------------|
A ----------------------------------------------------------------|
E ----------------------------------------------------------------|

BRIDGE
Rhythm Fig. 3
e ---------------------------------------|
B ---------------------------------------|
G ----7---7---7---7---7---7\\\\----------|
D ----7---7---7---7---7---7\\\\----------|
A ----5---5---5---5---5---5\\\\----------|
E ---------------------------------------|

OUTRO
Rhythm Fig. 4
e -------------------------------------------------------------|
B -------------------------------------------------------------|
G ---7----7---7---7---7----------------------------------------|
D ---7----7---7---7---7--------5---5---5---5---5---5---5-------|
A ---5----5---5---5---5--------5---5---5---5---5---5---5-------|
E -----------------------------3---3---3---3---3---3---3-------|

OUTRO
Rhythm Fig. 5 (let all notes ring)
e -----------------------------------------------------|
B ---7---8p7---8p7------////12----13p12---13p12--------|
G -- 7---7-----7--------////12----12------12-----------|
D -----------------------------------------------------|
A -----------------------------------------------------|
E -----------------------------------------------------|


LEGEND

\\\\\ - slide out of
///// - slide into
h    -  hammer on
p   -   pull off
___________________________________________________________________________________________

We Can Never Break Up Tab by Alkaline Trio, www.Ultimate-Guitar.Com


ALKALINE TRIO
WE CAN NEVER BREAK UP
TIME TO WASTE SINGLE

INTRO
    (i) x3       (ii) x 1
e|---------|-----------------------------|
B|---------|-----------------------------|
G|-7-0---0-|--7-0-----0------------------|
D|-----4---|------4-2--------------------|
A|---------|-----------------------------|
E|---------|-----------------------------|

VERSE
e|---------------------------------------|
B|---------------------------------------|
G|-5-----5--------5----------------------|
D|-5--2--5--2--5--5--5-------------------| x1
A|-3--2--3--2--5--3--5-------------------|
E|----0-----0--3-----3-------------------|


PRE CHORUS (i) + (ii)

    (i)                      (ii)
e|----------------------|----------------|
B|----------------------|----------------|
G|-22222222225555555555-|--------5555555-|
D|-22222222225555555555-|222222225555555-|
A|-00000000003333333333-|222222223333333-|
E|----------------------|00000000--------|

VERSE x 1

PRE CHORUS part (i) + (ii) + (i)

CHORUS

your like a song in my...
e|-------------------------------------------------|
B|-------------------------------------------------|
G|-----------444444444445555555555-----------------|
D|-55555555554444444444455555555555555555555555----|x 1
A|-55555555552222222222233333333335555555555555----|
E|-3333333333---------------------3333333333333----|

and if i never...
e|-------------------------------------------------|
B|-------------------------------------------------|
G|-2222222222222222555555555555577777777777755555--|
D|-2222222222222222555555555555577777777777755555--|x 1
A|-0000000000000000333333333333355555555555533333--|
E|-------------------------------------------------|

my love...
e|-------------------------------------------------|
B|-------------------------------------------------|
G|------------------5555555555555555---------------|
D|-555555555555555555555555555555555---------------|x 2
A|-555555555555555553333333333333333---------------|
E|-33333333333333333-------------------------------|


e|-------------------------------------------------|
B|-------------------------------------------------|
G|----------------------------------7777777777777--|
D|-5555555555555555522222222222222227777777777777--|x 1
A|-5555555555555555522222222222222225555555555555--|
E|-333333333333333330000000000000000---------------|

INTRO

VERSE

PRE CHORUS

CHORUS

INTRO + "my love" part of chorus


___________________________________________________________________________________________

Dont Say You Wont Tab by Alkaline Trio, www.Ultimate-Guitar.Com


ALKALINE TRIO
DON'T SAY YOU WON'T
TIME TO WASTE SINGLE

INTRO
E|-------------------------------------------------|
B|---2-0-2-0----2-0-2-0----------------------------|
G|-2--------------------2--------------------------|
D|-------------------------------------------------|x 2
A|-------------------------------------------------|
E|-------------------------------------------------|

VERSE
E|-------------------------------------------------|
B|-------------------------------------------------|
G|-------------7777777777--------------------------|
D|-77777777777-7777777777--------------------------|x 2
A|-77777777777-5555555555--------------------------|
E|-55555555555-------------------------------------|

PRE CHORUS
E|-------------------------------------------------|
B|-------------------------------------------------|
G|-------------------------777777777---------------|
D|-44444444777777777777777-777777777---------------|x 1
A|-44444444777777777777777-555555555---------------|
E|-22222222555555555555555-------------------------|

CHORUS
E|-------------------------------------------------|
B|-------------------------------------------------|
G|------------------------777777777777-------------|
D|-77777777777-5555555555-777777777777-------------|x 1
A|-77777777777-5555555555-555555555555-------------|
E|-55555555555-3333333333--------------------------|


INTRO X 2

VERSE X 2

PRE CHORUS X 1

CHORUS x 2

BRIDGE - bass only

INTRO X 2

CHORUS X 2

___________________________________________________________________________________________

Buried Tab by Alkaline Trio, www.Ultimate-Guitar.Com


Alkaline trio
Mercy Me single
"Buried"
Tabbed by: IanK
live_and_burn@hotmail.com
Drop D Tuning

Great song, Only trio song in Drop D. Enjoy.

Intro / 1st Verse
e|-----------------------------------------|--------------|
B|-----------------------------------------|--------------|
G|-----------------------------------------|--------------|
D|---0---2-0---0---4--------------Repeat---|-77777777/5---|
A|-----0-----0----------7--5---7-----------|-77777777/5---|
D|-0-------------5---5-------5-------------|-77777777/5---|


Before Distorted guitar & drums come in
e|---------------------------------|
B|---------------------------------|
G|---------------------------------|
D|---0---2-0---0---Repeat----------|
A|-----0-----0---------------------|
D|-0-------------------------------|


Chords used in verses and chorus
Just listen for the order and whatnot, its easy.
e|---------------------------------|
B|---------------------------------|
G|--7------------------------------|
D|--7--5--7------------------------|
A|--5--5--7------------------------|
D|--0--5--7------------------------|

___________________________________________________________________________________________

Death Bed Tab by Alkaline Trio, www.Ultimate-Guitar.Com


ALKALINE TRIO
DEATH BED
CRIMSON

This is off their new album due may 24th, this song is so good, i can't take
credit for this tab though, my friend James did all the work.

INTRO
e-----------------------------------------|
b-----------------------------------------|
g-10-10-------------10-11-11-11-11--------|
d---------11-11-88-----11-11-11-11--------|
a-----------------------------------------|
e-----------------------------------------|


verse #1 -

e-----------------------------------------------------------------|
b-----------------------------------------------------------------|
g----1111-66-88-----1111-66--------1111-66-88---------------------|
d-88-1111-66-88--88-1111-66-66--88-1111-66-88--10101011111110-----|
a-88-9-9--44-66--88-9-9--44-66--88-9-9--44-66--8-8-8-8-8-8-8------|
e-66-------------66---------44--66--------------------------------|

chorus -
  (i)                                 (ii)
e---------------------------------|----------------------------------------|
b---------------------------------|----------------------------------------|
g-11111111111111---------66666666-|-1111111111111111-6666666---------------|
d-11111110101111-8888888-66666666-|-1111111010111111-6666666-66666666------|
a-9-9-9-9-9-9-9--8888888-44444444-|-9-9-9-9-9-9-9-9--4444444-66666666------|
e----------------6666666----------|--------------------------44444444------|

repeat (i)
then end of chorus is -

e---------------------------------------------------|
b---------------------------------------------------|
g-1111111111111111----------------------------------|
d-1111111010111111-33333333-44444444-66666666-------|
a-9-9-9-9-9-9-9-9--33333333-44444444-66666666-------|
e------------------11111111-22222222-44444444-------|

breakdown -

e---------------------------------------------|----------------------------------|
b---------------------------------------------|----------------------------------|
g-666-8-6-5-6-666-8-6-5-6-6666666-8888888-----|-8888888--------------------------|
d---------------------------------------------|-8888888-4444444-6666666----------|
a---------------------------------------------|-6666666-4444444-6666666----------|
e---------------------------------------------|-6666666-2222222-4444444----------|

CHORUS

___________________________________________________________________________________________

My Standard Break From Life Tab by Alkaline Trio, www.Ultimate-Guitar.Com


-------------------------------------------------------------------------------
		   MY STANDARD BREAK FROM LIFE - Alkaline Trio
-------------------------------------------------------------------------------
Tabbed by:John Proach
Email:

Tuning:Standard

Off the Hell Yes 7".

e|---------------------------------------------------------------------------|
B|---------------------------------------------------------------------------|
G|--9-9-9-9-9-9-9-9-9-9-9--9-9-9-9-9-9-9-9-9-9-9-9-9-9-9--9-9-9-9-9-9--------|
D|--9-9-9-9-9-9-9-9-9-9-9--7-7-7-7-7-7-7-7-7-7-7-7-7-7-7--9-9-9-9-9-9--------|
A|--7-7-7-7-7-7-7-7-7-7-7--0-0-0-0-0-0-0-0-0-0-0-0-0-0-0--7-7-7-7-7-7--------|
E|---------------------------------------------------------------------------|
   Ive got a regular problem......
e|---------------------------------------------------------------------------|
B|---------------------------------------------------------------------------|
G|-----9-9-9-9-9-9-9-9-------------------------------------------------------|
D|--9--9-9-9-9-9-9-9-9-------------------------------------------------------|
A|--9--7-7-7-7-7-7-7-7-------------------------------------------------------|
E|--7------------------------------------------------------------------------|

e|---------------------------------------------------------------------------|
B|---------------------------------------------------------------------------|
G|-9-9-9-9-9-9-9-9-9-9-9---------------------------------9-9-9-9-9-9---------|
D|-9-9-9-9-9-9-9-9-9-9-9--7-7-7-7-7-7-7-7-7-7-7-7-7-7-7--9-9-9-9-9-9---------|
A|-7-7-7-7-7-7-7-7-7-7-7--7-7-7-7-7-7-7-7-7-7-7-7-7-7-7--7-7-7-7-7-7---------|
E|------------------------5-5-5-5-5-5-5-5-5-5-5-5-5-5-5----------------------|
   (MUTE............................................................)
e|---------------------------------------------------------------------------|
B|---------------------------------------------------------------------------|
G|-----9-9-9-9-9-9-9-9-------------------------------------------------------|
D|--9--9-9-9-9-9-9-9-9-------------------------------------------------------|
A|--9--7-7-7-7-7-7-7-7-------------------------------------------------------|
E|--7------------------------------------------------------------------------|

e|---------------------------------------------------------------------------|
B|---------------------------------------------------------------------------|
G|--2-2-2-2------------4-4-4-4-4---9-9-9-9-9-9-9--9-9-9-9-9-9-9--9-9-9-9-9---|
D|--2-2-2-2--4-4--6-6--4-4-4-4-4---9-9-9-9-9-9-9--7-7-7-7-7-7-7--9-9-9-9-9---|
A|--0-0-0-0--0-0--0-0--2-2-2-2-2---7-7-7-7-7-7-7--0-0-0-0-0-0-0--7-7-7-7-7---|
E|---------------------------------------------------------------------------|
   You see i dont know what i said to you.......
e|---------------------------------------------------------------------------|
B|---------------------------------------------------------------------------|
G|-9-9-9---------------------8/9-9-9-9-9-9-9-9-9-----------------------------|
D|-9-9-9--9-9-9-9-9-9-9-9-9--x/x-x-x-x-x-x-x-x-x--9-9-9-9-9-9-9--------------|
A|-7-7-7--9-9-9-9-9-9-9-9-9--6/7-7-7-7-7-7-7-7-7--9-9-9-9-9-9-9--------------|
E|--------7-7-7-7-7-7-7-7-7-----------------------7-7-7-7-7-7-7--------------|

e|---------------------------------------------------------------------------|
B|---------------------------------------------------------------------------|
G|-9-9-9-9-9-9-9-9-9-9-9---------------------------------9-9-9-9-9-9---------|
D|-9-9-9-9-9-9-9-9-9-9-9--7-7-7-7-7-7-7-7-7-7-7-7-7-7-7--9-9-9-9-9-9---------|
A|-7-7-7-7-7-7-7-7-7-7-7--7-7-7-7-7-7-7-7-7-7-7-7-7-7-7--7-7-7-7-7-7---------|
E|------------------------5-5-5-5-5-5-5-5-5-5-5-5-5-5-5----------------------|
   (MUTE............................................................)
   I try to leave a good impression...
e|---------------------------------------------------------------------------|
B|---------------------------------------------------------------------------|
G|-----9-9-9-9-9-9-9-9-------------------------------------------------------|
D|--9--9-9-9-9-9-9-9-9-------------------------------------------------------|
A|--9--7-7-7-7-7-7-7-7-------------------------------------------------------|
E|--7------------------------------------------------------------------------|

e|---------------------------------------------------------------------------|
B|---------------------------------------------------------------------------|
G|-8/9-9-9-9-9-9-9-9-9-9---------------------------------9-9-9-9-9-9---------|
D|-x/x-9-9-9-9-9-9-9-9-9--7-7-7-7-7-7-7-7-7-7-7-7-7-7-7--9-9-9-9-9-9---------|
A|-6/7-7-7-7-7-7-7-7-7-7--7-7-7-7-7-7-7-7-7-7-7-7-7-7-7--7-7-7-7-7-7---------|
E|------------------------5-5-5-5-5-5-5-5-5-5-5-5-5-5-5----------------------|
       (MUTE........................................................)
   And when your only 23....
e|---------------------------------------------------------------------------|
B|---------------------------------------------------------------------------|
G|-----9-9-9-9-9-9-9-9-------------------------------------------------------|
D|--9--9-9-9-9-9-9-9-9-------------------------------------------------------|
A|--9--7-7-7-7-7-7-7-7-------------------------------------------------------|
E|--7------------------------------------------------------------------------|

e|---------------------------------------------------------------------------|
B|---------------------------------------------------------------------------|
G|--2-2-2-2------------4-4-4-4-4---9-9-9-9-9-9-9--9-9-9-9-9-9-9--9-9-9-9-9---|
D|--2-2-2-2--4-4--6-6--4-4-4-4-4---9-9-9-9-9-9-9--7-7-7-7-7-7-7--9-9-9-9-9---|
A|--0-0-0-0--0-0--0-0--2-2-2-2-2---7-7-7-7-7-7-7--0-0-0-0-0-0-0--7-7-7-7-7---|
E|---------------------------------------------------------------------------|
   Yes I can bitch until my eyes are blue....
e|---------------------------------------------------------------------------|
B|---------------------------------------------------------------------------|
G|-9-9-9---------------------8/9-9-9-9-9-9-9-9-9-----------------------------|
D|-9-9-9--9-9-9-9-9-9-9-9-9--x/x-x-x-x-x-x-x-x-x--9-9-9-9-9-9-9--------------|
A|-7-7-7--9-9-9-9-9-9-9-9-9--6/7-7-7-7-7-7-7-7-7--9-9-9-9-9-9-9--------------|
E|--------7-7-7-7-7-7-7-7-7-----------------------7-7-7-7-7-7-7--------------|

e|---------------------------------------------------------------------------|
B|---------------------------------------------------------------------------|
G|--2-2-2-2------------4-4-4-4-4---9-9-9-9-9-9-9--6-6-6-6-6-6-6--------------|
D|--2-2-2-2--4-4--6-6--4-4-4-4-4---9-9-9-9-9-9-9--6-6-6-6-6-6-6--7-7---------|
A|--0-0-0-0--0-0--0-0--2-2-2-2-2---7-7-7-7-7-7-7--4-4-4-4-4-4-4--7-7---------|
E|---------------------------------------------------------------5-5---------|
    You say Im fixable......
e|---------------------------------------------------------------------------|
B|---------------------------------------------------------------------------|
G|---------------------------------------------------------------------------|
D|-7-7-7--7-7-7--7-7-7---9-9-9-9-9-9-9-9-9-9-9-9-9-9--x-x-x------------------|
A|-7-7-7--7-7-7--7-7-7---9-9-9-9-9-9-9-9-9-9-9-9-9-9--x-x-x------------------|
E|-5-5-5--5-5-5--5-5-5---7-7-7-7-7-7-7-7-7-7-7-7-7-7--x-x-x------------------|

e|---------------------------------------------------------------------------|
B|---------------------------------------------------------------------------|
G|--9-9-9-9---------6-----9-9-9-9---------6----9-9-9-9---------6-------------|
D|--9-9-9-9---6/7-9---9---9-9-9-9---6/7-9---9--9-9-9-9---6/7-9---9-----------|
A|--7-7-7-7-0-------------7-7-7-7-0------------7-7-7-7-0---------------------|
E|---------------------------------------------------------------------------|

e|---------------------------------------------------------------------------|
B|---------------------------------------------------------------------------|
G|--4-4-4-4--2-2-------------------------------------------------------------|
D|--4-4-4-4--2-2--4--6-------------------------------------------------------|
A|--2-2-2-2--0-0--0--0-------------------------------------------------------|
E|---------------------------------------------------------------------------|

e|---------------------------------------------------------------------------|
B|---------------------------------------------------------------------------|
G|--9-9-9-9---------6-----9-9-9-9---------6----9-9-9-9---------6-------------|
D|--9-9-9-9---6/7-9---9---9-9-9-9---6/7-9---9--9-9-9-9---6/7-9---9-----------|
A|--7-7-7-7-0-------------7-7-7-7-0------------7-7-7-7-0---------------------|
E|---------------------------------------------------------------------------|

e|---------------------------------------------------------------------------|
B|---------------------------------------------------------------------------|
G|--4-4-4-4------------------------------------------------------------------|
D|--4-4-4-4------------------------------------------------------------------|
A|--2-2-2-2------------------------------------------------------------------|
E|---------------------------------------------------------------------------|

e|---------------------------------------------------------------------------|
B|---------------------------------------------------------------------------|
G|-9-9-9-9-9-9-9-9-9-9-9---------------------------------9-9-9-9-9-9---------|
D|-9-9-9-9-9-9-9-9-9-9-9--7-7-7-7-7-7-7-7-7-7-7-7-7-7-7--9-9-9-9-9-9---------|
A|-7-7-7-7-7-7-7-7-7-7-7--7-7-7-7-7-7-7-7-7-7-7-7-7-7-7--7-7-7-7-7-7---------|
E|------------------------5-5-5-5-5-5-5-5-5-5-5-5-5-5-5----------------------|
   (MUTE............................................................)
   Ive got a motivation problem....
e|---------------------------------------------------------------------------|
B|---------------------------------------------------------------------------|
G|-----9-9-9-9-9-9-9-9-------------------------------------------------------|
D|--9--9-9-9-9-9-9-9-9-------------------------------------------------------|
A|--9--7-7-7-7-7-7-7-7-------------------------------------------------------|
E|--7------------------------------------------------------------------------|

e|---------------------------------------------------------------------------|
B|---------------------------------------------------------------------------|
G|-8/9-9-9-9-9-9-9-9-9-9---------------------------------9-9-9-9-9-9---------|
D|-x/x-9-9-9-9-9-9-9-9-9--7-7-7-7-7-7-7-7-7-7-7-7-7-7-7--9-9-9-9-9-9---------|
A|-6/7-7-7-7-7-7-7-7-7-7--7-7-7-7-7-7-7-7-7-7-7-7-7-7-7--7-7-7-7-7-7---------|
E|------------------------5-5-5-5-5-5-5-5-5-5-5-5-5-5-5----------------------|
       (MUTE........................................................)
       Spent over 30 hours in this bed.....
e|---------------------------------------------------------------------------|
B|---------------------------------------------------------------------------|
G|-----9-9-9-9-9-9-9-9-------------------------------------------------------|
D|--9--9-9-9-9-9-9-9-9-------------------------------------------------------|
A|--9--7-7-7-7-7-7-7-7-------------------------------------------------------|
E|--7------------------------------------------------------------------------|

e|---------------------------------------------------------------------------|
B|---------------------------------------------------------------------------|
G|--2-2-2-2------------4-4-4-4-4---9-9-9-9-9-9-9--9-9-9-9-9-9-9--9-9-9-9-9---|
D|--2-2-2-2--4-4--6-6--4-4-4-4-4---9-9-9-9-9-9-9--7-7-7-7-7-7-7--9-9-9-9-9---|
A|--0-0-0-0--0-0--0-0--2-2-2-2-2---7-7-7-7-7-7-7--0-0-0-0-0-0-0--7-7-7-7-7---|
E|---------------------------------------------------------------------------|
   But now that im awake.....
e|---------------------------------------------------------------------------|
B|---------------------------------------------------------------------------|
G|-9-9-9---------------------8/9-9-9-9-9-9-9-9-9-----------------------------|
D|-9-9-9--9-9-9-9-9-9-9-9-9--x/x-x-x-x-x-x-x-x-x--9-9-9-9-9-9-9--------------|
A|-7-7-7--9-9-9-9-9-9-9-9-9--6/7-7-7-7-7-7-7-7-7--9-9-9-9-9-9-9--------------|
E|--------7-7-7-7-7-7-7-7-7-----------------------7-7-7-7-7-7-7--------------|

e|---------------------------------------------------------------------------|
B|---------------------------------------------------------------------------|
G|--2-2-2-2------------4-4-4-4-4---9-9-9-9-9-9-9--6-6-6-6-6-6-6--------------|
D|--2-2-2-2--4-4--6-6--4-4-4-4-4---9-9-9-9-9-9-9--6-6-6-6-6-6-6--7-7---------|
A|--0-0-0-0--0-0--0-0--2-2-2-2-2---7-7-7-7-7-7-7--4-4-4-4-4-4-4--7-7---------|
E|---------------------------------------------------------------5-5---------|
   You say its fixable.....
e|---------------------------------------------------------------------------|
B|---------------------------------------------------------------------------|
G|---------------------------------------------------------------------------|
D|-7-7-7--7-7-7--7-7-7---9-9-9-9-9-9-9-9-9-9-9-9-9-9--x-x-x------------------|
A|-7-7-7--7-7-7--7-7-7---9-9-9-9-9-9-9-9-9-9-9-9-9-9--x-x-x------------------|
E|-5-5-5--5-5-5--5-5-5---7-7-7-7-7-7-7-7-7-7-7-7-7-7--x-x-x------------------|

e|---------------------------------------------------------------------------|
B|---------------------------------------------------------------------------|
G|--9-9-9-9---------6-----9-9-9-9---------6----9-9-9-9---------6-------------|
D|--9-9-9-9---6/7-9---9---9-9-9-9---6/7-9---9--9-9-9-9---6/7-9---9-----------|
A|--7-7-7-7-0-------------7-7-7-7-0------------7-7-7-7-0---------------------|
E|---------------------------------------------------------------------------|

e|---------------------------------------------------------------------------|
B|---------------------------------------------------------------------------|
G|--4-4-4-4--2-2-------------------------------------------------------------|
D|--4-4-4-4--2-2--4--6-------------------------------------------------------|
A|--2-2-2-2--0-0--0--0-------------------------------------------------------|
E|---------------------------------------------------------------------------|

e|---------------------------------------------------------------------------|
B|---------------------------------------------------------------------------|
G|--9-9-9-9---------6-----9-9-9-9---------6----9-9-9-9---------6-------------|
D|--9-9-9-9---6/7-9---9---9-9-9-9---6/7-9---9--9-9-9-9---6/7-9---9-----------|
A|--7-7-7-7-0-------------7-7-7-7-0------------7-7-7-7-0---------------------|
E|---------------------------------------------------------------------------|

e|---------------------------------------------------------------------------|
B|---------------------------------------------------------------------------|
G|--4-4-4-4------------------------------------------------------------------|
D|--4-4-4-4------------------------------------------------------------------|
A|--2-2-2-2------------------------------------------------------------------|
E|---------------------------------------------------------------------------|


| /  slide up
| \  slide down
| h  hammer-on
| p  pull-off
| ~  vibrato
| +  harmonic
| x  Mute note

___________________________________________________________________________________________

Im Dying Tomorrow Tab by Alkaline Trio, www.Ultimate-Guitar.Com


ALKALINE TRIO-I'M DYING TOMORROW
Tabbed by Ben H. (PunkAsPhuck)
Standard Tuning
* - palm mute

CHORUS
e|---------------------------------------------------------------|
B|---------------------------------------------------------------|
G|----------------999999999999999--------------------------------|
D|--99999--88888--999999999999999--99999--88888--22222222222222--|
A|--99999--88888--777777777777777--99999--88888--22222222222222--|
E|--77777--66666-------------------77777--66666--00000000000000--|

e|---------------------------------------------------------------|
B|---------------------------------------------------------------|
G|----------------999999999999999--------------------------------|
D|--99999--88888--999999999999999--99999--88888---7---2----------|
A|--99999--88888--777777777777777--99999--88888---7---2----------|
E|--77777--66666-------------------77777--66666---5---0----------|

VERSE 1
e|---------------------------------------------------------------|
B|---------------------------------------------------------------|
G|--------------------------------------------9-----8----9---8---|
D|--9------------------------------------------------------------|
A|--9------------7777777777--------------7777---777---77---7-----|
E|--7-777777777--------------7777777777--------------------------|
********* ********** ********** **** *** ** *

e|---------------------------------------------------------------|
B|---------------------------------------------------------------|
G|---------------------------------------------------------------|
D|--9--9----------------------------------------------444444444--|
A|--9--9----------------------------------------------444444444--|
E|--7--7-7777777--6666666--5555555--00000000--22222222222222222--|
******* ******* ******* ******** ********

PRE-CHORUS
e|---------------------------------------------------------------|
B|---------------------------------------------------------------|
G|----------------999999999999999-----------------9999999999-----|
D|--999999999999--999999999999999--99999--888888--9999999999-----|
A|--999999999999--777777777777777--99999--888888--7777777777-----|
E|--777777777777-------------------77777--666666-----------------|

e|---------------------------------------------------------------|
B|---------------------------------------------------------------|
G|---------------------------------------------------------------|
D|--999999999--8888888888--77777777777--22222222222--44444444444-|
A|--999999999--8888888888--77777777777--22222222222--44444444444-|
E|--777777777--6666666666--55555555555--00000000000--22222222222-|

e|---------------------------------|
B|---------------------------------|
G|--999999999999999999999----------|
D|--XXXXXXXXXXXXXXXXXXXXX----------|
A|--777777777777777777777----------|
E|---------------------------------|

CHORUS
e|---------------------------------------------------------------|
B|---------------------------------------------------------------|
G|----------------999999999999999--------------------------------|
D|--99999--88888--999999999999999--99999--88888--22222222222222--|
A|--99999--88888--777777777777777--99999--88888--22222222222222--|
E|--77777--66666-------------------77777--66666--00000000000000--|

e|---------------------------------------------------------------|
B|---------------------------------------------------------------|
G|------------------999999999999999------------------------------|
D|--99999--88888--999999999999999--99999--88888---7---2----------|
A|--99999--88888--777777777777777--99999--88888---7---2----------|
E|--77777--66666-------------------77777--66666---5---0----------|

VERSE 2
e|---------------------------------------------------------------|
B|---------------------------------------------------------------|
G|--------------------------------------------9-----8----9---8---|
D|--9------------------------------------------------------------|
A|--9------------7777777777--------------7777---777---77---7-----|
E|--7-777777777--------------7777777777--------------------------|
********* ********** ********** **** *** ** *

e|---------------------------------------------------------------|
B|---------------------------------------------------------------|
G|---------------------------------------------------------------|
D|--9--9----------------------------------------------444444444--|
A|--9--9----------------------------------------------444444444--|
E|--7--7-7777777--6666666--5555555--00000000--22222222222222222--|
******* ******* ******* ******** ********

PRE-CHORUS
e|---------------------------------------------------------------|
B|---------------------------------------------------------------|
G|----------------999999999999999-----------------9999999999-----|
D|--999999999999--999999999999999--99999--888888--9999999999-----|
A|--999999999999--777777777777777--99999--888888--7777777777-----|
E|--777777777777-------------------77777--666666-----------------|

e|---------------------------------------------------------------|
B|---------------------------------------------------------------|
G|---------------------------------------------------------------|
D|--999999999--8888888888--77777777777--22222222222--44444444444-|
A|--999999999--8888888888--77777777777--22222222222--44444444444-|
E|--777777777--6666666666--55555555555--00000000000--22222222222-|

e|---------------------------------|
B|---------------------------------|
G|--999999999999999999999----------|
D|--XXXXXXXXXXXXXXXXXXXXX----------|
A|--777777777777777777777----------|
E|---------------------------------|

CHORUS
e|---------------------------------------------------------------|
B|---------------------------------------------------------------|
G|----------------999999999999999--------------------------------|
D|--99999--88888--999999999999999--99999--88888--22222222222222--|
A|--99999--88888--777777777777777--99999--88888--22222222222222--|
E|--77777--66666-------------------77777--66666--00000000000000--|

e|---------------------------------------------------------------|
B|---------------------------------------------------------------|
G|------------------999999999999999------------------------------|
D|--99999--88888--999999999999999--99999--88888---7---2--99------|
A|--99999--88888--777777777777777--99999--88888---7---2--99------|
E|--77777--66666-------------------77777--66666---5---0--77------|

________________________________________________________________________________________:)

Well, that's it
This is an awesome album
I loved it
so......
email corrections at glade555@aim.com
though u could just correct it yourself instead of complaining
comments
We did not receive enough feedback on this tab! Please rate:
print report bad tab
1 2 3 4 5
2 comments total.
0 reply
USCENDONE BENE wrote on March 12 2007, 01:59 pm

Some tabs were really good, some were ok and had bits missing, but a useful reference nonetheless. ****

ps. I hope you asked the tabbers permission to use their tabs ;p

0 reply
FadeInForever wrote on July 18 2008, 03:47 pm

very much mistakes
only found three or four perfect tabs.
and find a good one for Hell Yes lol, cuz this one sucks -.-

I want to post or [tab]
guest
You may want to rate the tab now too:
select rating
Please do not post tabs as comments. Select "correction" instead!