Oops, an error
Loading. Please wait.

This Addiction Tab

ver1
ver1

Album

Whole song

Interactive

More versions @911Tabs.com
10,884 views 1 this week
1 commentread comment
1 2 3 4 5
excellent!
x 2
Autoscroll
+/-
esc
set tempo
stop
Contributor
Hey! There's an official Ultimate Guitar app which is ideal
for learning songs when you're away from computer. Get the app
WARNING: You are trying to view
                                    content from Ultimate-Guitar.com
                                    in an unauthorized application,
                                    which is prohibited.

                                    Please use an official Ultimate
                                    Guitar Tabs application for iPhone,
                                    iPad or Android to access legitimate
                                    chords, guitar, bass, and drum tabs
                                    from Ultimate-Guitar.com database.

                                    Type "ultimate guitar tabs" in Apple
                                    App Store's or Android Market's
                                    search to find the application.
Tabbed by: DualTerror
Email: Chris3366@hotmail.co.uk
Tuning: Standard EADGBe


Alkaline Trio - This Addiction Album Tab


01) This Addiction
02) Dine, Dine My Darling
03) Lead Poisoning
04) Dead On The Floor
05) The American Scream
06) Off The Map
07) Draculina
08) Eating Me Alive
09) Piss And Vinegar
10) Dorothy
11) Fine

01) This Addiction

*Intro*
e)-----------------------------------------------------------------------------|
B)-----------------------------------------------------------------------------|
G)-9999999999999999999999999999-8888-999999999999-8888-999999999999-11111111---|
D)-xxxxxxxxxxxxxxxxxxxxxxxxxxxx-xxxx-xxxxxxxxxxxx-xxxx-xxxxxxxxxxxx--x-x-x-x---|
A)-7777777777777777777777777777-6666-777777777777-6666-777777777777--9-9-9-9---|
E)-----------------------------------------------------------------------------|

e)-------------------------------------------------------------------------------------|
B)-------------------------------------------------------------------------------------|
G)-999999999999-8888-999999999999-8888-99999999-1111111111111111-13131313-14141414-//X-|
D)-xxxxxxxxxxxx-xxxx-xxxxxxxxxxxx-xxxx-xxxxxxxx- x-x-x-x-x-x-x-x- x-x-x-x -x-x-x-x-//X-|
A)-777777777777-6666-777777777777-6666-77777777- 9-9-9-9-9-9-9-9-11111111-12121212-//X-|
E)-------------------------------------------------------------------------------------|

*Main Riff*
e)-----------------------------|
B)-----------------------------|
G)-----------------------------|
D)-9999-----66666666-77777777--|
A)-77776677-77777777-77777777--|
E)-00000000-44444444-55555555--| X2

*Verse*
e)------------------------------------------------------------------------|
B)------------------------------------------------------------------------|
G)------------------------------------------------------------------------|
D)-----------9---------------------------6------------------7-------------|
A)-----------7---------------------------7------------------7-------------|
E)-----------0---------------------------4------------------5-------------|
  Well you hit me just like heroin,
  I feel you coursing through my veins,                                  *High Notes in verse*
  I once tried to kick this addcition,                                     e)-------12--|
                                                                           B)-10-11-----|

e)------------------------------------------------------------------------|
B)------------------------------------------------------------------------|
G)------------------------------------------------------------------------|
D)----------9-------------------999999999999999999999999------------------|
A)----------7-------------------777777777777777777777777------------------|
E)----------0-------------------000000000000000000000000------------------|
  Swear I'll never kick again, Won't ever kick again no.

*Chorus*
e)------------------------------------------------------------------------|
B)------------------------------------------------------------------------|
G)-66666666-------------------44444444------------------------------------|
D)-66666666-77777777-22222222-44444444------------------------------------|
A)-44444444-77777777-22222222-22222222------------------------------------|
E)----------55555555-00000000---------------------------------------------| X2
  This addiction,    Can't seem to live without you
  This addiction,    No going clean

e)------------------------------------------------------------------------|
B)------------------------------------------------------------------------|
G)-66666666-------------------44444444-22222222-44444444-22222222---------|
D)-66666666-77777777-22222222-44444444-22222222-44444444-22222222---------|
A)-44444444-77777777-22222222-22222222-00000000-22222222-00000000---------|
E)----------55555555-00000000---------------------------------------------|
  This addiction,  I go through withdrawl without you, Sick with this addiction in me.

*Main Riff*
e)-----------------------------|
B)-----------------------------|
G)-----------------------------|
D)-9999-----66666666-77777777--|
A)-77776677-77777777-77777777--|
E)-00000000-44444444-55555555--| X2

*Verse*
e)------------------------------------------------------------------------|
B)------------------------------------------------------------------------|
G)------------------------------------------------------------------------|
D)-----------9---------------------------6------------------7-------------|
A)-----------7---------------------------7------------------7-------------|
E)-----------0---------------------------4------------------5-------------|
  Well those others were like methodone,
  I took to get me through the day                                  *High Notes in verse*
  Now I'm trying to find my way back home,                                 e-------12--|
                                                                           B-10-11-----|

e)------------------------------------------------------------------------|
B)------------------------------------------------------------------------|
G)------------------------------------------------------------------------|
D)----------9-------------------999999999999999999999999------------------|
A)----------7-------------------777777777777777777777777------------------|
E)----------0-------------------000000000000000000000000------------------|
  Staying clean along the way, Hold out for the real thing yeah.


*Chorus*
e)------------------------------------------------------------------------|
B)------------------------------------------------------------------------|
G)-66666666-------------------44444444------------------------------------|
D)-66666666-77777777-22222222-44444444------------------------------------|
A)-44444444-77777777-22222222-22222222------------------------------------|
E)----------55555555-00000000---------------------------------------------| X"
  This addiction,    Can't seem to live without you
  This addiction,    No going clean

e)------------------------------------------------------------------------|
B)------------------------------------------------------------------------|
G)-66666666-------------------44444444-22222222-44444444-22222222---------|
D)-66666666-77777777-22222222-44444444-22222222-44444444-22222222---------|
A)-44444444-77777777-22222222-22222222-00000000-22222222-00000000---------|
E)----------55555555-00000000---------------------------------------------|
  This addiction,  I go through withdrawl without you, Sick with this addiction in me.

*Bridge*
e)-----------------------------------------------------------------------------|
B)-----------------------------------------------------------------------------|
G)-9999999999999999999999999999-8888-999999999999-8888-999999999999-11111111---|
D)-xxxxxxxxxxxxxxxxxxxxxxxxxxxx-xxxx-xxxxxxxxxxxx-xxxx-xxxxxxxxxxxx--x-x-x-x---|
A)-7777777777777777777777777777-6666-777777777777-6666-777777777777--9-9-9-9---|
E)-----------------------------------------------------------------------------|

e)----------------------------------------------------------------------------------------------|
B)----------------------------------------------------------------------------------------------|
G)-999999999999-8888-999999999999-8888-99999999-1111111111111111-13131313-14141414-16161616-//X-|
D)-xxxxxxxxxxxx-xxxx-xxxxxxxxxxxx-xxxx-xxxxxxxx- x-x-x-x-x-x-x-x- x-x-x-x- x-x-x-x- x-x-x-x-//X-|
A)-777777777777-6666-777777777777-6666-77777777- 9-9-9-9-9-9-9-9-11111111-12121212-14141414-//X-|
E)----------------------------------------------------------------------------------------------|


*Chorus*
e)------------------------------------------------------------------------|
B)------------------------------------------------------------------------|
G)-66666666-------------------44444444------------------------------------|
D)-66666666-77777777-22222222-44444444------------------------------------|
A)-44444444-77777777-22222222-22222222------------------------------------|
E)----------55555555-00000000---------------------------------------------| X2
  This addiction,
  This addiction,

e)------------------------------------------------------------------------|
B)------------------------------------------------------------------------|
G)-66666666-------------------44444444-22222222-44444444-22222222---------|
D)-66666666-77777777-22222222-44444444-22222222-44444444-22222222---------|
A)-44444444-77777777-22222222-22222222-00000000-22222222-00000000---------|
E)----------55555555-00000000---------------------------------------------|
  This addiction,  I go off the rails without you, Sick with this addiction in me.

*Main Riff*
e)---------------------------|
B)---------------------------|
G)---------------------------|
D)-9999----6666666677777777--|
A)-777766777777777777777777--|
E)-000000004444444455555555--|

e)------------------------------|
B)------------------------------|
G)------------------------------|
D)-9999----6666666677777777///--|
A)-777766777777777777777777///--|
E)-000000004444444455555555///--|

02) Dine, Dine My Darling

*Intro/Verse*
P.M (Listen to song for when to release)
e)-------------------------------------------------------------------------|
B)-------------------------------------------------------------------------|
G)----------55555555----------77777777----------55555555-77777777----------|
D)-55555555-55555555-55555555-77777777-55555555-55555555-77777777----------|
A)-55555555-33333333-55555555-55555555-55555555-33333333-55555555----------|
E)-33333333----------33333333----------33333333----------------------------| X2
  Don't leave me alone, I'm waiting for this to be, The last thing that i say.
  Well if I tried real good, Then i probably could, Get a couple more days, But the 
are lame.
  So I'm looking for you to be, The very last thing I see, Before I up and fly away.
  I'm counting on you to help push me through, It's something good to remember on my red 
day.


*Pre-Chorus*
e)-------------------------------------------------------------------------|
B)-------------------------------------------------------------------------|
G)--5---5555555----------77777777------------------------------------------|
D)--5---5555555-55555555-77777777------------------------------------------|
A)--3---3333333-55555555-55555555------------------------------------------|
E)--------------33333333---------------------------------------------------|
  Don't worry, I only feel the good things.

*Chorus*
e)-------------------------------------------------------------------------|
B)-------------------------------------------------------------------------|
G)----------55555555-77777777-55555555-------------------------------------|
D)-55555555-55555555-77777777-55555555-------------------------------------|
A)-55555555-33333333-55555555-33333333-------------------------------------|
E)-33333333----------------------------------------------------------------| X3
  So lets Dine, Dine, Dine, My darling.
  Let's have our last supper, As us two lovers.
  Then we'll dance real sweet and slow.

e)-------------------------------------------------------------------------|
B)-------------------------------------------------------------------------|
G)----------55555555-77777777-55555555-77777777----------------------------|
D)-55555555-55555555-77777777-55555555-77777777----------------------------|
A)-55555555-33333333-55555555-33333333-55555555----------------------------|
E)-33333333----------------------------------------------------------------|
  And kiss, Kiss, Kiss, Till the last clock ticks,
  A final exhale when I'm done, And you can feel my last breath, Floating in your lungs

*Chorus Outro*
Gtr.1
e)-----------------------------------------------------------------|
B)-----------------------------------------------------------------|
G)-1212121212121212-111111111111111111-1212121212121212------------|
D)- x-x-x-x-x-x-x-x- x-x-x-x-x-x-x-x-x- x-x-x-x-x-x-x-x------------|
A)-1010101010101010- 9-9-9-9-9-9-9-9-9-1010101010101010------------|
E)-----------------------------------------------------------------|

Gtr.2
e)-----------------------------------------------------------------|
B)-8---8/10-10-12----12-13-15-15b-15-------------------------------|
G)---7------------12-----------------------------------------------|
D)-----------------------------------------------------------------|
A)-----------------------------------------------------------------|
E)-----------------------------------------------------------------|

Gtr.1
e)---------------------------------------------------------------------------------|
B)---------------------------------------------------------------------------------|
G)-1212121212121212-111111111111111111-99999999-77777777-55555555-44444444---------|
D)- x-x-x-x-x-x-x-x- x-x-x-x-x-x-x-x-x-xxxxxxxx-xxxxxxxx-xxxxxxxx-xxxxxxxx---------|
A)-1010101010101010- 9-9-9-9-9-9-9-9-9-77777777-55555555-33333333-22222222---------|
E)---------------------------------------------------------------------------------|


Gtr.2
e)-----------------------------------------------------------------|
B)-8---8/10-10-12----12-13-15-13-12-10-8---------------------------|
G)---7------------12-----------------------------------------------|
D)-----------------------------------------------------------------|
A)-----------------------------------------------------------------|
E)-----------------------------------------------------------------|

*Verse*
P.M (Listen to song for when to release)
e)-------------------------------------------------------------------------|
B)-------------------------------------------------------------------------|
G)----------55555555----------77777777----------55555555-77777777----------|
D)-55555555-55555555-55555555-77777777-55555555-55555555-77777777----------|
A)-55555555-33333333-55555555-55555555-55555555-33333333-55555555----------|
E)-33333333----------33333333----------33333333----------------------------| X2
  Yeah I've tried alot things because of you,
  You make me tell the truth, You taught me to drink like a man,
  You rescued my tail from between my legs, Now if I can think it I am,
  And I'm taking these words with me, When I go over to the other side,
  I'll be waiting on you but dont show up too soon,
  I'll be bored as heaven but I'll be alright.

*Chorus*
e)-------------------------------------------------------------------------|
B)-------------------------------------------------------------------------|
G)----------55555555-77777777-55555555-------------------------------------|
D)-55555555-55555555-77777777-55555555-------------------------------------|
A)-55555555-33333333-55555555-33333333-------------------------------------|
E)-33333333----------------------------------------------------------------| X3
  So lets Dine, Dine, Dine, My darling.
  Let's have our last supper, As us two lovers.
  Then we'll dance real sweet and slow.

e)-------------------------------------------------------------------------|
B)-------------------------------------------------------------------------|
G)----------55555555-77777777-55555555-77777777----------------------------|
D)-55555555-55555555-77777777-55555555-77777777----------------------------|
A)-55555555-33333333-55555555-33333333-55555555----------------------------|
E)-33333333----------------------------------------------------------------|
  And kiss, Kiss, Kiss, Till the last clock tick,
  A final exhale when I'm done, And you can feel my last breath, Floating in your lungs

*Chorus Outro*
Gtr.1
e)-----------------------------------------------------------------|
B)-----------------------------------------------------------------|
G)-1212121212121212-111111111111111111-1212121212121212------------|
D)- x-x-x-x-x-x-x-x- x-x-x-x-x-x-x-x-x- x-x-x-x-x-x-x-x------------|
A)-1010101010101010- 9-9-9-9-9-9-9-9-9-1010101010101010------------|
E)-----------------------------------------------------------------|

Gtr.2
e)-----------------------------------------------------------------|
B)-8---8/10-10-12----12-13-15-15b-15b------------------------------|
G)---7------------12-----------------------------------------------|
D)-----------------------------------------------------------------|
A)-----------------------------------------------------------------|
E)-----------------------------------------------------------------|

Gtr.1                                                   PM......
e)---------------------------------------------------------------------------------|
B)---------------------------------------------------------------------------------|
G)-1212121212121212-111111111111111111-99999999-77777777-77777777------------------|
D)- x-x-x-x-x-x-x-x- x-x-x-x-x-x-x-x-x-xxxxxxxx-xxxxxxxx-77777777------------------|
A)-1010101010101010- 9-9-9-9-9-9-9-9-9-77777777-55555555-55555555------------------|
E)---------------------------------------------------------------------------------|


Gtr.2
e)-----------------------------------------------------------------|
B)-8---8/10-10-12----12-13-15--------------------------------------|
G)---7------------12-----------------------------------------------|
D)-----------------------------------------------------------------|
A)-----------------------------------------------------------------|
E)-----------------------------------------------------------------|

*Chorus*
e)--------------------------------------------------------------------------|
B)--------------------------------------------------------------------------|
G)----------77777777-99999999-77777777--------------------------------------|
D)-7//X-----77777777-99999999-77777777--------------------------------------|
A)-7//X-----55555555-77777777-55555555--------------------------------------|
E)-5//X---------------------------------------------------------------------| X3
  So lets Dine, Dine, Dine, My darling.
  Let's have our last supper, As us two lovers.
  Then we'll dance real sweet and slow.

e)--------------------------------------------------------------------------|
B)--------------------------------------------------------------------------|
G)----------77777777-99999999-77777777-99999999-----------------------------|
D)-77777777-77777777-99999999-77777777-99999999-----------------------------|
A)-77777777-55555555-77777777-55555555-77777777-----------------------------|
E)-55555555-----------------------------------------------------------------|
  And kiss, Kiss, Kiss, Till the last clock tick,
  A final exhale when I'm done, And you can feel my last breath, Floating in your lungs

*Chorus Outro*
Gtr.1
e)-----------------------------------------------------------------|
B)-----------------------------------------------------------------|
G)-1414141414141414-1313131313131313-1414141414141414--------------|
D)- x-x-x-x-x-x-x-x- x-x-x-x-x-x-x-x- x-x-x-x-x-x-x-x--------------|
A)-1212121212121212-1111111111111111-1212121212121212--------------|
E)-----------------------------------------------------------------|

Gtr.2
e)-----------------------------------------------------------------|
B)-10---10/12-12-14----14-15-17-17b-17-----------------------------|
G)----9-------------14---------------------------------------------|
D)-----------------------------------------------------------------|
A)-----------------------------------------------------------------|
E)-----------------------------------------------------------------|
  Floating in your lungs.

Gtr.1
e)-----------------------------------------------------------------|
B)-----------------------------------------------------------------|
G)-1414141414141414-1313131313131313-1414141414141414--------------|
D)- x-x-x-x-x-x-x-x- x-x-x-x-x-x-x-x- x-x-x-x-x-x-x-x--------------|
A)-1212121212121212-1111111111111111-1212121212121212--------------|
E)-----------------------------------------------------------------|


Gtr.2
e)-----------------------------------------------------------------|
B)-10---10/12-12-14----14-15-17-15-14-12-14------------------------|
G)----9-------------14---------------------------------------------|
D)-----------------------------------------------------------------|
A)-----------------------------------------------------------------|
E)-----------------------------------------------------------------|
  Floating in your lungs.


Gtr.1
e)-----------------------------------------------------------------|
B)-----------------------------------------------------------------|
G)-1414141414141414-1313131313131313-1414141414141414--------------|
D)- x-x-x-x-x-x-x-x- x-x-x-x-x-x-x-x- x-x-x-x-x-x-x-x--------------|
A)-1212121212121212-1111111111111111-1212121212121212--------------|
E)-----------------------------------------------------------------|

Gtr.2
e)-----------------------------------------------------------------|
B)-10---10/12-12-14----14-15-17-17b-17-----------------------------|
G)----9-------------14---------------------------------------------|
D)-----------------------------------------------------------------|
A)-----------------------------------------------------------------|
E)-----------------------------------------------------------------|
  Floating in your lungs.

Gtr.1
e)-----------------------------------------------------------------------------------------|
B)-----------------------------------------------------------------------------------------|
G)-1414141414141414-1313131313131313-1111111111111111-99999999-77777777-55555555-----------|
D)- x-x-x-x-x-x-x-x- x-x-x-x-x-x-x-x- x-x-x-x-x-x-x-x-xxxxxxxx-xxxxxxxx-xxxxxxxx-----------|
A)-1212121212121212-1111111111111111- 9-9-9-9-9-9-9-9-77777777-55555555-33333333-----------|
E)-----------------------------------------------------------------------------------------|

Gtr.2
e)-----------------------------------------------------------------|
B)-10---10/12-12-14----14-15-17-15-14-12-10------------------------|
G)----9-------------14---------------------------------------------|
D)-----------------------------------------------------------------|
A)-----------------------------------------------------------------|
E)-----------------------------------------------------------------|
 My last breath floating in your lungs.

*End*
e)----|
B)----|
G)----|
D)-7--|
A)-7--|
E)-5--|

03) Lead Poisoning

*Intro*
e)--------------------------------|
B)--------------------------------|
G)--------------------------------|
D)-5-555-5-555-5-555-5-555--------|
A)-5-555-5-555-5-555-5-555--------|
E)-3-333-3-333-3-333-3-333--------| X2

*Verse*
e)------------------------------------------------------------------------------------------------|
B)------------------------------------------------------------------------------------------------|
G)-------------4-444-9-777-------------4-444-9-777-5-555-------7-777-9-777-5-555-5-555-7-777-8-888|
D)-5-555-5-555-4-444-9-777-5-555-5-555-4-444-9-777-5-555-5-555-7-777-9-777-5-555-5-555-7-777-8-888|
A)-5-555-5-555-2-222-7-555-5-555-5-555-2-222-7-555-3-333-5-555-5-555-7-555-3-333-3-333-5-555-6-666|
E)-3-333-3-333-------------3-333-3-333-------------------3-333------------------------------------|
  Choking slowly, Broken hearted,
  Don't look now, Here's what you started,
  I swore I'd be there till the end,
  We're bitter now but better friends,
  I climbed out limbless to the edge,
  To bask in mt last true regret.

*Chorus*
e)------------------------------------------------------|
B)------------------------------------------------------|
G)-7/9-99/11-1111/12-1212/13-14-55555555-12121212-7777--|
D)-x-x-xx -x--x-x- x--x-x  x--x-55555555-12121212-7777--|
A)-5/7-77/ 9--9-9/10-1010/11-12-33333333-10101010-5555--|
E)------------------------------------------------------|
  Lay my heavy head here down to sleep

e)--------------------------------------------------|
B)--------------------------------------------------|
G)-7/9-99/11-1111/12-1212/13-14-55555555------7777--|
D)-x-x-xx -x--x-x- x--x-x  x--x-55555555-5555-7777--|
A)-5/7-77/ 9--9-9/10-1010/11-12-33333333-5555-5555--|
E)---------------------------------------3333-------|
  I pray to Abraxas my soul to keep

e)------------------------------------------------------|
B)------------------------------------------------------|
G)-7/9-99/11-1111/12-1212/13-14-55555555-12121212-7777--|
D)-x-x-xx -x--x-x- x--x-x  x--x-55555555-12121212-7777--|
A)-5/7-77/ 9--9 9/10-1010/11-12-33333333-10101010-5555--|
E)------------------------------------------------------|
  Lay my heavy head here down to dream

e)--------------------------------------------|
B)--------------------------------------------|
G)-7/9-99/11-1111/12-1212/13-14-55555555-7//--|
D)-x-x-xx -x--x x- x--x-x  x--x-55555555-7//--|
A)-5/7-77/ 9--9-9/10-1010/11-12-33333333-5//--|
E)--------------------------------------------|
  Wake up with this Lead Poisoning

*Intro*
e)--------------------------------|
B)--------------------------------|
G)--------------------------------|
D)-5-555-5-555-5-555-5-555--------|
A)-5-555-5-555-5-555-5-555--------|
E)-3-333-3-333-3-333-3-333--------| X2

*Verse*
e)------------------------------------------------------------------------------------------------|
B)------------------------------------------------------------------------------------------------|
G)-------------4-444-9-777-------------4-444-9-777-5-555-------7-777-9-777-5-555-5-555-7-777-8-888|
D)-5-555-5-555-4-444-9-777-5-555-5-555-4-444-9-777-5-555-5-555-7-777-9-777-5-555-5-555-7-777-8-888|
A)-5-555-5-555-2-222-7-555-5-555-5-555-2-222-7-555-3-333-5-555-5-555-7-555-3-333-3-333-5-555-6-666|
E)-3-333-3-333-------------3-333-3-333-------------------3-333------------------------------------|
  Sobbing softly, Lost and hollow,
  This fever dream, Tough pill to swallow,
  I swore I'd be there till the end,
  You're better off, Your bitterness,
  I climbed out lifeless to the edge,
  I waved goodbye and leapt, I...

*Chorus*
e)------------------------------------------------------|
B)------------------------------------------------------|
G)-7/9-99/11-1111/12-1212/13-14-55555555-12121212-7777--|
D)-x-x-xx -x--x x- x--x-x  x--x-55555555-12121212-7777--|
A)-5/7-77/ 9--9-9/10-1010/11-12-33333333-10101010-5555--|
E)------------------------------------------------------|
  Lay my heavy head here down to sleep

e)--------------------------------------------------|
B)--------------------------------------------------|
G)-7/9-99/11-1111/12-1212/13-14-55555555------7777--|
D)-x-x-xx -x- x-x- x- x-x  x--x-55555555-5555-7777--|
A)-5/7-77/ 9--9-9/10-1010/11-12-33333333-5555-5555--|
E)---------------------------------------3333-------|
  I pray to Abraxas my soul to keep

e)------------------------------------------------------|
B)------------------------------------------------------|
G)-7/9-99/11-1111/12-1212/13-14-55555555-12121212-7777--|
D)-x-x-xx -x- x-x- x- x-x  x--x-55555555-12121212-7777--|
A)-5/7-77/ 9--9-9/10-1010/11-12-33333333-10101010-5555--|
E)------------------------------------------------------|
  Lay my heavy head here down to dream

e)--------------------------------------------|
B)--------------------------------------------|
G)-7/9-99/11-1111/12-1212/13-14-55555555-7//--|
D)-x-x-xx -x- x-x- x--x-x  x--x-55555555-7//--|
A)-5/7-77/ 9--9-9/10-1010/11-12-33333333-5//--|
E)--------------------------------------------|
  Awaken to the blood and sweat and screams

*Intro*
e)--------------------------------|
B)--------------------------------|
G)--------------------------------|
D)-5-555-5-555-5-555-5-555--------|
A)-5-555-5-555-5-555-5-555--------|
E)-3-333-3-333-3-333-3-333--------| X2

*Verse*
e)---------------------------------------------------|
B)-------------------------8-888-8-888---------------|
G)-------------7-777-7-777-9-999-9-999-5-555-5-555---|
D)-5-555-5-555-7-777-7-777-9-999-9-999-5-555-5-555---|
A)-5-555-5-555-5-555-5-555-7-777-7-777-3-333-3-333---|
E)-3-333-3-333---------------------------------------| X2
  Woke up here on Monday morning,                  *Little trumpet fill*
  This old street on this dark corner,                G)5-7-5-4----|
  Waiting here for what tommorrow brings,             D)--------5--|
  Silverlake, Mercury mining,
  This mistake no silver lining,
  Waiting for a bullet trained to bring,
  My lead poisoning.

*Bridge*
Gtr.
e)------------------------------------------------------------------------------------------------|
B)-------------------------8-888-8-888-------------------------------------8-888-8-888------------|
G)-------------7-777-7-777-9-999-9-999-5-555-5-555-------------7-777-7-777-9-999-9-999-5-555-7-777|
D)-5-555-5-555-7-777-7-777-9-999-9-999-5-555-5-555-5-555-5-555-7-777-7-777-9-999-9-999-5-555-7-777|
A)-5-555-5-555-5-555-5-555-7-777-7-777-3-333-3-333-5-555-5-555-5-555-5-555-7-777-7-777-3-333-5-555|
E)-3-333-3-333-------------------------------------3-333-3-333------------------------------------|

Trumpet
e)-------------------------------------------------------------------|
B)-7777--------7777-------7777-----------------7777-------7777-------|
G)-----9-8-9-8-----9-8-9------9-8-9-11-13-11-8-----9-8-9-8----9-8-9--|
D)----------------------9------------------------------------------9-|
A)-------------------------------------------------------------------|
E)-------------------------------------------------------------------|

e)------------------------------------|
B)-7777-------------------------------|
G)-----9-8-9-11-9-8-9-8-6-8-6-4-6-4-3-|
D)------------------------------------|
A)------------------------------------|
E)------------------------------------|

*Chorus*
e)------------------------------------------------------|
B)------------------------------------------------------|
G)-7/9-99/11-1111/12-1212/13-14-55555555-12121212-7777--|
D)-x-x-xx -x- x x- x--x-x  x--x-55555555-12121212-7777--|
A)-5/7-77/ 9--9-9/10-1010/11-12-33333333-10101010-5555--|
E)------------------------------------------------------|
  Lay my heavy head here down to sleep

e)--------------------------------------------------|
B)--------------------------------------------------|
G)-7/9-99/11-1111/12-1212/13-14-55555555------7777--|
D)-x-x-xx -x- x x- x- x-x  x--x-55555555-5555-7777--|
A)-5/7-77/ 9--9-9/10-1010/11-12-33333333-5555-5555--|
E)---------------------------------------3333-------|
  I pray to Abraxas my soul to keep

e)------------------------------------------------------|
B)------------------------------------------------------|
G)-7/9-99/11-1111/12-1212/13-14-55555555-12121212-7777--|
D)-x-x-xx -x- x-x- x--x-x  x--x-55555555-12121212-7777--|
A)-5/7-77/ 9--9-9/10-1010/11-12-33333333-10101010-5555--|
E)------------------------------------------------------|
  Lay my heavy head here down to dream

e)--------------------------------------------|
B)--------------------------------------------|
G)-7/9-99/11-1111/12-1212/13-14-55555555-7//--|
D)-x-x-xx -x- x-x- x- x-x  x--x-55555555-7//--|
A)-5/7-77/ 9--9-9/10-1010/11-12-33333333-5//--|
E)--------------------------------------------|
  Wake up with this lead poisoning

*Outro*
e)-----------------------------------|
B)-----------------------------------|
G)-----------------------------------|
D)-5-555-5-555-5-555-5-555-5//-------|
A)-5-555-5-555-5-555-5-555-5//-------|
E)-3-333-3-333-3-333-3-333-3//-------| X2

or
e)-15//--|


04) Dead On The Floor

*Intro*
e)----------------------------------------------------------------------|
B)----------------------------------------------------------------------|
G)----------------------------------------------------------------------|
D)-------------------------------------6---4---6---2---4---7---6---6----|
A)---11---9---11---11--9---6---7---7-0---0---0---0---0---0---0---0------|
E)-0----0---0----0---0---0---0---0--------------------------------------|

e)---------------------------------------------------------------|
B)---------------------------------------------------------------|
G)---------------------------------------------------------------|
D)-------------------------------------6---4---6---2---4---7-----|
A)---11---9---11---11--9---6---7---7-0---0---0---0---0---0-------|
E)-0----0---0----0---0---0---0---0-------------------------------|

e)----------------------------------------------------------------------|
B)----------------------------------------------------------------------|
G)----------------------------------------------------------------------|
D)-------------------------------------6---4---6---2---4---7---6---6----|
A)---11---9---11---11--9---6---7---7-0---0---0---0---0---0---0---0------|
E)-0----0---0----0---0---0---0---0--------------------------------------|

e)--------------------------------------------------------------|
B)--------------------------------------------------------------|
G)---------------------------------------------------44444444---|
D)-------------------------------------6---4---6---2-44444444---|
A)---11---9---11---11--9---6---7---7-0---0---0---0---22222222---|
E)-0----0---0----0---0---0---0---0------------------------------|

*Verse*
e)----------------------------------------------------------------------|
B)----------------------------------------------------------------------|
G)-9---------------------9-----------------------4----------------------|
D)-9---------------------7-----------------------4----------------------|
A)-7---------------------0-----------------------2----------------------|
E)-0--------------------------------------------------------------------| X2
   Like two ships in the night, We're colliding and sinking,
   Into the black sea of our love,
   We navigated past the point of logical thinking,
   Lostsight of the stars up above.

*Pre-chorus*
e)-------------------------------------------------------------------------|
B)-------------------------------------------------------------------------|
G)-66666666-------------------44444444-22222222-44444444-22222222-44444444-|
D)-66666666-77777777-22222222-44444444-22222222-44444444-22222222-44444444-|
A)-44444444-77777777-22222222-22222222-00000000-22222222-00000000-22222222-|
E)----------55555555-00000000----------------------------------------------|
   Now my heart is a mess, Murder scene in my chest,
   Not a clue how you got through the door,
   But I'm glad that you came, No regret and no shame,
   As I'm lying here dead on the floor.

*Intro*
e)----------------------------------------------------------------------|
B)----------------------------------------------------------------------|
G)----------------------------------------------------------------------|
D)-------------------------------------6---4---6---2---4---7---6---6----|
A)---11---9---11---11--9---6---7---7-0---0---0---0---0---0---0---0------|
E)-0----0---0----0---0---0---0---0--------------------------------------|

e)--------------------------------------------------------------|
B)--------------------------------------------------------------|
G)---------------------------------------------------44444444---|
D)-------------------------------------6---4---6---2-44444444---|
A)---11---9---11---11--9---6---7---7-0---0---0---0---22222222---|
E)-0----0---0----0---0---0---0---0------------------------------|

*Verse*
e)----------------------------------------------------------------------|
B)----------------------------------------------------------------------|
G)-9---------------------9-----------------------4----------------------|
D)-9---------------------7-----------------------4----------------------|
A)-7---------------------0-----------------------2----------------------|
E)-0--------------------------------------------------------------------| X2
   I took a blind leap of faith thats now crashing and burning,
   With my heart fast asleep in your bed,
   I got on the ground safe but with my insides turning,
   And a picture of you in my head

*Pre-chorus*
e)-------------------------------------------------------|
B)-------------------------------------------------------|
G)-66666666-------------------44444444----------44444444-|
D)-66666666-77777777-22222222-44444444-22446677-44444444-|
A)-44444444-77777777-22222222-22222222-00000000-22222222-|
E)----------55555555-00000000----------------------------|
   As I wandered away deep in shock and dismay,
   In a daze just repeating your name,
   Well the fact of the matter is both our hearts shatter way too goddamn easily...

*Chorus*
e)--------------------------------------|
B)--------------------------------------|
G)-99999999988889999--------------------|
D)-99999999999999999-99999999-77777777--|
A)-77777777777777777-99999999-77777777--|
E)-000000000---------77777777-55555555--| X2
   When you asked me if I'd stay forever, Guess you meant just for the week
   Felt so good together, It was way too good to be.

e)-------------------------------------------------------|
B)-------------------------------------------------------|
G)-66666666-------------------44444444----------44444444-|
D)-66666666-77777777-22222222-44444444-22446677-44444444-|
A)-44444444-77777777-22222222-22222222-00000000-22222222-|
E)----------55555555-00000000----------------------------|
   When I left you there early that morning my darling,
   I told you that I'd miss you so,
   I got on that plane with my heart soaring,
   But now its falling like snow.

*Intro*
e)----------------------------------------------------------------------|
B)----------------------------------------------------------------------|
G)----------------------------------------------------------------------|
D)-------------------------------------6---4---6---2---4---7---6---6----|
A)---11---9---11---11--9---6---7---7-0---0---0---0---0---0---0---0------|
E)-0----0---0----0---0---0---0---0--------------------------------------|

e)--------------------------------------------------------------|
B)--------------------------------------------------------------|
G)---------------------------------------------------44444444---|
D)-------------------------------------6---4---6---2-44444444---|
A)---11---9---11---11--9---6---7---7-0---0---0---0---22222222---|
E)-0----0---0----0---0---0---0---0------------------------------|

*Verse*
e)----------------------------------------------------------------------|
B)----------------------------------------------------------------------|
G)-9---------------------9-----------------------4----------------------|
D)-9---------------------7-----------------------4----------------------|
A)-7---------------------0-----------------------2----------------------|
E)-0--------------------------------------------------------------------| X2
   Like two ships in the night, We're colliding and sinking,
   Into the black sea of our love,
   We navigated past the point of logical thinking,
   Lostsight of the stars up above.

*Pre-chorus*
e)-------------------------------------------------------|
B)-------------------------------------------------------|
G)-66666666-------------------44444444----------44444444-|
D)-66666666-77777777-22222222-44444444-22446677-44444444-|
A)-44444444-77777777-22222222-22222222-00000000-22222222-|
E)----------55555555-00000000----------------------------|
   Now my heart is a mess, Murder scene in my chest,
   Not a clue how you got through the door,
   But I'm glad that you came, No regret and no shame,
   As I'm lying here dead on the floor.

*Chorus*
e)--------------------------------------|
B)--------------------------------------|
G)-99999999988889999--------------------|
D)-99999999999999999-99999999-77777777--|
A)-77777777777777777-99999999-77777777--|
E)-000000000---------77777777-55555555--| X2
   When you asked me if I'd stay forever, Guess you meant just for the week
   Felt so good together, It was way too good to be.

e)-------------------------------------------------------|
B)-------------------------------------------------------|
G)-66666666-------------------44444444----------44444444-|
D)-66666666-77777777-22222222-44444444-22446677-44444444-|
A)-44444444-77777777-22222222-22222222-00000000-22222222-|
E)----------55555555-00000000----------------------------|
   When I left you there early that morning my darling,
   I told you that I'd miss you so,
   I got on that plane with my heart soaring,
   But now its falling like snow.

*Outro*
e)----------------------------------------------------------------------|
B)----------------------------------------------------------------------|
G)----------------------------------------------------------------------|
D)-------------------------------------6---4---6---6---4---4---4---4----|
A)---11---9---11---11--9---6---7---7-0---0---0---0---2---2---2---2------|
E)-0----0---0----0---0---0---0---0--------------------------------------| X2
   Now its falling like snow

e)-------------------------------------------------------|
B)-------------------------------------------------------|
G)---13--11---13---13-11---8---9---9-99988899-44444444---|
D)----x---x----x----x--x---x---x---x-99999999-44444444---|
A)---11---9---11---11--9---6---7---7-77777777-22222222---|
E)-0----0---0----0---0---0---0---0-----------------------| X2
   Now its falling like snow

*End*
e)-0--|
B)-0--|
G)-1--|
D)-2--|
A)-2--|
E)-0--|


05) The American Scream

*Intro*
Gtr. 1
e)-7---7---7---7---7---7---5---4---|
B)---5---5---5---5---5---5---5---5-|
G)---------------------------------|
D)---------------------------------|
A)---------------------------------|
E)---------------------------------| X2

Gtr. 2
e)------------------------------------|
B)------------------------------------|
G)-------------------6666666666666666-|
D)-22222222-44444444-6666666666666666-|
A)-22222222-44444444-4444444444444444-|
E)-00000000-22222222------------------| X2

*Verse*
Gtr. 2
e)------------------------------------|
B)------------------------------------|
G)-------------------6666666666666666-|
D)-22222222-44444444-6666666666666666-|
A)-22222222-44444444-4444444444444444-|
E)-00000000-22222222------------------| X2
   They tied that yellow ribbon round the oak tree,
   They've worn out all the pain in their hearts.

e)-----------------------------------------------|
B)-----------------------------------------------|
G)-------------------44444444-22222222-4444-5555-|
D)-77777777-22222222-44444444-22222222-4444-5555-|
A)-77777777-22222222-22222222-00000000-2222-3333-|
E)-55555555-00000000-----------------------------|
   All along thought they were rooting for the home team,
   As they're sent into the game and torn apart.

Gtr. 1
e)-7---7---7---7---7---7---5---4---|
B)---5---5---5---5---5---5---5---5-|
G)---------------------------------|
D)---------------------------------|
A)---------------------------------|
E)---------------------------------| X2

Gtr. 2
e)------------------------------------|
B)------------------------------------|
G)-------------------6666666666666666-|
D)-22222222-44444444-6666666666666666-|
A)-22222222-44444444-4444444444444444-|
E)-00000000-22222222------------------| X2
   We twist this tourniquet upon the pipeline,
   That carries all the pain in the world.

Gtr. 1
e)-7---7---7---7---7---7---5---4---5---4---|
B)---5---5---5---5---5---5---5---5---5---5-|
G)-----------------------------------------|
D)-----------------------------------------|
A)-----------------------------------------|
E)-----------------------------------------| X2

Gtr. 2
e)-----------------------------------------------|
B)-----------------------------------------------|
G)-------------------44444444-22222222-4444-5555-|
D)-77777777-22222222-44444444-22222222-4444-5555-|
A)-77777777-22222222-22222222-00000000-2222-3333-|
E)-55555555-00000000-----------------------------|
   As we blindly clap and cheer from the sidelines it's clear,
   On the losing team from the very start.

*Chorus*
Gtr. 1
e)-7---7---7---7---7---7---7---7---|
B)---5---5---5---5---5---5---5---5-|
G)---------------------------------|
D)---------------------------------|
A)---------------------------------|
E)---------------------------------|

Gtr. 2
e)-------------------------------------------------|
B)-------------------------------------------------|
G)-66666-------------44444-66666-------------------|
D)-66666-77777-22222-44444-66666-77777-22222-44444-|
A)-44444-77777-22222-22222-44444-77777-22222-44444-|
E)-------55555-00000-------------55555-00000-22222-|
  That's where they found me,
  In the cemetery

Gtr. 1
e)-7---7---7---7---7---7---7---7---7---7---7---7---7---7---5---4---5---4---|
B)---5---5---5---5---5---5---5---5---5---5---5---5---5---5---5---5---5---5-|
G)-------------------------------------------------------------------------|
D)-------------------------------------------------------------------------|
A)-------------------------------------------------------------------------|
E)-------------------------------------------------------------------------|

Gtr. 2
e)--------------------------------------------------------|
B)--------------------------------------------------------|
G)-66666666-------------------44444444-22222222-4444-5555-|
D)-66666666-77777777-22222222-44444444-22222222-4444-5555-|
A)-44444444-77777777-22222222-22222222-00000000-2222-3333-|
E)----------55555555-00000000-----------------------------|
   A smoking gun in my hand, Now I'm damned for the land of the free,
   Sing with me, The American scream!


*Intro*
Gtr. 1
e)-7---7---7---7---7---7---5---4---|
B)---5---5---5---5---5---5---5---5-|
G)---------------------------------|
D)---------------------------------|
A)---------------------------------|
E)---------------------------------| X2

Gtr. 2
e)------------------------------------|
B)------------------------------------|
G)-------------------6666666666666666-|
D)-22222222-44444444-6666666666666666-|
A)-22222222-44444444-4444444444444444-|
E)-00000000-22222222------------------| X2

*Verse*
Gtr. 2
e)------------------------------------------|
B)------------------------------------------|
G)-------------------6----------------------|
D)-2--------4--------6----------------------|
A)-2--------4--------4----------------------|
E)-0--------2-------------------------------| X2
   They took that faded ribbon off the old tree,
   They've worn out all the hope in their hearts.

e)-----------------------------------------------|
B)-----------------------------------------------|
G)-------------------4--------2--------4----5555-|
D)-7--------2--------4--------2--------4----5555-|
A)-7--------2--------2--------0--------2----3333-|
E)-5--------0------------------------------------|
   All along thought I was doing the right thing,
   Now I'm lying in a pool of my blood.

*Chorus* X2
Gtr. 1
e)-7---7---7---7---7---7---7---7---|
B)---5---5---5---5---5---5---5---5-|
G)---------------------------------|
D)---------------------------------|
A)---------------------------------|
E)---------------------------------|

Gtr. 2
e)-------------------------------------------------|
B)-------------------------------------------------|
G)-66666-------------44444-66666-------------------|
D)-66666-77777-22222-44444-66666-77777-22222-44444-|
A)-44444-77777-22222-22222-44444-77777-22222-44444-|
E)-------55555-00000-------------55555-00000-22222-|
  That's where she found me,
  In the cemetery.

Gtr. 1
e)-7---7---7---7---7---7---7---7---7---7---7---7---7---7---5---4---5---4---|
B)---5---5---5---5---5---5---5---5---5---5---5---5---5---5---5---5---5---5-|
G)-------------------------------------------------------------------------|
D)-------------------------------------------------------------------------|
A)-------------------------------------------------------------------------|
E)-------------------------------------------------------------------------|

Gtr. 2
e)--------------------------------------------------------|
B)--------------------------------------------------------|
G)-66666666-------------------44444444-22222222-4444-5555-|
D)-66666666-77777777-22222222-44444444-22222222-4444-5555-|
A)-44444444-77777777-22222222-22222222-00000000-2222-3333-|
E)----------55555555-00000000-----------------------------|
   A smoking gun in my hand, Now I'm damned for the land of the free,
   Sing with me, The American scream!

*Bridge*
Gtr. 1
e)-12121212-11111212-12121212-11111212-12121212-11111111-12121212-|
B)----------------------------------------------------------------|
G)----------------------------------------------------------------|
D)----------------------------------------------------------------|
A)----------------------------------------------------------------|
E)----------------------------------------------------------------| X2

Gtr. 2
e)------------------------------------------------------------------------------------|
B)------------------------------------------------------------------------------------|
G)-99999999-44444444-66666666-44444444-22222222-99999999-44444444-66666666-4-----2//X-|
D)-99999999-44444444-66666666-44444444-22222222-99999999-44444444-66666666-4-----2//X-|
A)-77777777-22222222-44444444-22222222-00000000-77777777-22222222-44444444-2-----0//X-|
E)------------------------------------------------------------------------------------|
   The American scream!

*Chorus*
Gtr. 1
e)-7---7---7---7---7---7---7---7---|
B)---5---5---5---5---5---5---5---5-|
G)---------------------------------|
D)---------------------------------|
A)---------------------------------|
E)---------------------------------|

Gtr. 2
e)-------------------------------------------------------------------------|
B)-------------------------------------------------------------------------|
G)-66666666-------------------44444444-66666666----------------------------|
D)-66666666-77777777-22222222-44444444-66666666-77777777-22222222-44444444-|
A)-44444444-77777777-22222222-22222222-44444444-77777777-22222222-44444444-|
E)----------55555555-00000000-------------------55555555-00000000-22222222-|
  That's where she found me,
  In the cemetery.


Gtr. 1
e)-7---7---7---7---7---7---7---7---7---7---7---7---7---7---5---4---5---4---7-|
B)---5---5---5---5---5---5---5---5---5---5---5---5---5---5---5---5---5---5---|
G)---------------------------------------------------------------------------|
D)---------------------------------------------------------------------------|
A)---------------------------------------------------------------------------|
E)---------------------------------------------------------------------------|

Gtr. 2
e)-------------------------------------------------|
B)-------------------------------------------------|
G)-66666-------------44444-22222222-4444444-5555-6-|
D)-66666-77777-22222-44444-22222222-4444444-5555-6-|
A)-44444-77777-22222-22222-00000000-2222222-3333-4-|
E)-------55555-00000-------------------------------|
   That's where she found me, In the cemetery,
   A smoking gun in my hand, Now I'm damned for the land of the free,
   Sing with me, The American scream!


06) Off The Map

*Intro*
e)----|
B)-7*-|
G)-7*-|
D)-7*-|
A)-7*-|
E)----|

*Verse* P.M.
e)---------------------------------------------------------|
B)---------------------------------------------------------|
G)-99999999----------66666666------------------------------|
D)-99999999-66664444-66666666-66666666-77777777-99999999---|
A)-77777777-00000000-44444444-66666666-77777777-99999999---|
E)----------------------------44444444-55555555-77777777---| X2
   I needed more wine you needed more sleep,
   We just fought two hours and seven minutes,
   Honestly I'm surprised we made it.
   I retired to my chair and grabbed my new guitar,
   But I can't make a sound, You could hear poisonous pins dropping all around.

*Pre-Chorus*
e)----------------------------------------------------------------|
B)----------------------------------------------------------------|
G)----------------------------------------------------------------|
D)-777-777-777-777-999-999-999-666-777-777-777-777-999-999-777999-|
A)-777-777-777-777-999-999-999-666-777-777-777-777-999-999-777999-|
E)-555-555-555-555-777-777-777-444-555-555-555-555-777-777-555777-|
   Like rain, but I can ride the storm out,
   Cos I'm like a junkie for your smart mouth.

*Chorus* P.M
e)--------------------------------------------------------|
B)--------------------------------------------------------|
G)-99999999-------------------99999999--------------------|
D)-99999999-77777777-99999999-99999999-77777777-99999999--|
A)-77777777-77777777-99999999-77777777-77777777-99999999--|
E)----------55555555-77777777----------55555555-77777777--|
   Cos I'm so far off the map the sun is shining,
   While its raining I'm draped in silver lining.

e)-------------------------------------------------------|
B)-------------------------------------------------------|
G)-66666666-------------------9999-----------------------|
D)-66666666-77777777-99999999-99999999-77777777-99999999-|
A)-44444444-77777777-99999999-77779999-77777777-99999999-|
E)----------55555555-77777777-----7777-55555555-77777777-|
   And I can row, Row, Row my boat back to shore someday,
   So are you coming with me? Anchors away...

*Post-Chorus*
Gtr. 1
e)------------------------------------------------------|
B)------------------------------------------------------|
G)-99999999-161616-141414-13-1111111111111111-1313-1414-|
D)-xxxxxxxx--x-x-x--x-x-x--x--x-x-x-x-x-x-x-x--x-x--x-x-|
A)-77777777-141414-121212-11- 9-9-9-9-9-9-9-9-1111-1212-|
E)------------------------------------------------------|

e)--------------------------------------------------------|
B)--------------------------------------------------------|
G)-1313131313131313-161616-999-1111111111111111-8888-9999-|
D)--x-x-x-x-x-x-x-x--x-x-x-xxx--x-x-x-x-x-x-x-x-xxxx-xxxx-|
A)-1111111111111111-141414-777- 9-9-9-9-9-9-9-9-6666-7777-|
E)--------------------------------------------------------|

Gtr. 2
e)----------------------------------------|
B)----------------------------------------|
G)-99999999----------66666666-------------|
D)-99999999-77777777-66666666--77779999-6-|
A)-77777777-77777777-44444444--77779999-6-|
E)----------55555555-----------55557777-4-|

*Verse*
e)---------------------------------------------------------|
B)---------------------------------------------------------|
G)-99999999----------66666666------------------------------|
D)-99999999-66664444-66666666-66666666-77777777-99999999---|
A)-77777777-00000000-44444444-66666666-77777777-99999999---|
E)----------------------------44444444-55555555-77777777---| X2
   I loosen my mips and the truth slips out,
   A free ride on a forked-tongue, This twine of trust is unspun.
   I could start to believe thats what you need from me,
   So far from what I want for you, But I'll lock it down and we'll make do.

*Pre-Chorus*
e)----------------------------------------------------------------|
B)----------------------------------------------------------------|
G)----------------------------------------------------------------|
D)-777-777-777-777-999-999-999-666-777-777-777-777-999-999-777999-|
A)-777-777-777-777-999-999-999-666-777-777-777-777-999-999-777999-|
E)-555-555-555-555-777-777-777-444-555-555-555-555-777-777-555777-|
   You're right there's only one real option,
   I'm here now so help me keep my voice down.

*Chorus*
e)--------------------------------------------------------|
B)--------------------------------------------------------|
G)-99999999-------------------99999999--------------------|
D)-99999999-77777777-99999999-99999999-77777777-99999999--|
A)-77777777-77777777-99999999-77777777-77777777-99999999--|
E)----------55555555-77777777----------55555555-77777777--|
   See I'm so far off the map the sun is shining,
   While its raining I'm draped in silver lining.

e)-------------------------------------------------------|
B)-------------------------------------------------------|
G)-66666666-------------------9999-----------------------|
D)-66666666-77777777-99999999-99999999-77777777-99999999-|
A)-44444444-77777777-99999999-77779999-77777777-99999999-|
E)----------55555555-77777777-----7777-55555555-77777777-|
   And I can row, Row, Row my boat back to shore someday,
   So are you coming with me? Anchors away...

*Post-Chorus* X2
Gtr. 1
e)------------------------------------------------------|
B)------------------------------------------------------|
G)-99999999-161616-141414-13-1111111111111111-1313-1414-|
D)-xxxxxxxx--x-x-x--x-x-x--x--x-x-x-x-x-x-x-x--x-x--x-x-|
A)-77777777-141414-121212-11- 9-9-9-9-9-9-9-9-1111-1212-|
E)------------------------------------------------------|

e)--------------------------------------------------------|
B)--------------------------------------------------------|
G)-1313131313131313-161616-999-1111111111111111-8888-9999-|
D)--x-x-x-x-x-x-x-x--x-x-x-xxx--x-x-x-x-x-x-x-x-xxxx-xxxx-|
A)-1111111111111111-141414-777- 9-9-9-9-9-9-9-9-6666-7777-|
E)--------------------------------------------------------|

Gtr. 2
e)----------------------------------------|
B)----------------------------------------|
G)-99999999----------66666666-------------|
D)-99999999-77777777-66666666--77779999-6-|
A)-77777777-77777777-44444444--77779999-6-|
E)----------55555555-----------55557777-4-|

*Chorus*
Gtr. 1
e)-----------------------------------------------------------------------------------|
B)-----------------------------------------------------------------------------------|
G)--16-16-1616-16-16-1616-16/1414/1313/11--16-16-1616-16-16-1616-16/1414/1313/11-----|
D)---x- x--x-x- x- x- x-x- x -x-x-x- x- x-- x- x- x-x- x- x- x-x- x- x-x -x-x- x-----|
A)--14-14-1414-14-14-1414-14/1212/1111/ 9--14-14-1414-14-14-1414-14/1212/1111/ 9-----|
E)-----------------------------------------------------------------------------------|

Gtr. 2
e)--------------------------------------------------------|
B)--------------------------------------------------------|
G)-99999999-------------------99999999--------------------|
D)-99999999-77777777-99999999-99999999-77777777-99999999--|
A)-77777777-77777777-99999999-77777777-77777777-99999999--|
E)----------55555555-77777777----------55555555-77777777--|
   See I'm so far off the map the sun is shining,
   While its raining I'm draped in silver lining.

Gtr. 1
e)--------------------------------------------|
B)--------------------------------------------|
G)--20-20-2020-20-20-1919-16-14-13/11-13/11-9-|
D)---x- x--x-x-x-  x- x-x- x- x- x- x- x- x-x-|
A)--18-18-1818-18-18-1717-14-12-11/ 9-11/ 9-7-|
E)--------------------------------------------|

Gtr. 2
e)---------------------------------------------------------|
B)---------------------------------------------------------|
G)-66666666-------------------9999-----------------------9-|
D)-66666666-77777777-99999999-99999999-77777777-99999999-9-|
A)-44444444-77777777-99999999-77779999-77777777-99999999-7-|
E)----------55555555-77777777-----7777-55555555-77777777---|
   And I can row, Row, Row my boat back to shore someday,
   So are you coming with me? Anchors away...


07) Draculina

*Intro/Verse* P.M.release where necessary in verse
e)----------------------------------------|
B)----------------------------------------|
G)----------------------------------------|
D)---9999999999999999-6666666666668888----|
A)-2/7777777777777777-4444444444446666----|
E)----------------------------------------|
    Whatever happened to wonderland?
    Where'd Alice go-o?

e)--------------------------------------|
B)--------------------------------------|
G)-------------------------------X\\----|
D)-9999999999999999-666666666666-X\\----|
A)-7777777777777777-444444444444-X\\----|
E)--------------------------------------|
  I took a night train with knife in hand,
  And cut out to the next show.

*Pre-Chorus* X2
Gtr.1
e)-------------------------------------------|
B)-------------------------5-----------5-----|
G)---------------------4-------4---4-------4-|
D)-77777777-22222222-4---4---4---4---4---4---|
A)-77777777-22222222-------------------------|
E)-55555555-00000000-------------------------|

Gtr.2
e)--------------------------------------|
B)--------------------------------------|
G)-------------------44444444-66664444--|
D)-77777777-22222222-44444444-xxxxxxxx--|
A)-77777777-22222222-22222222-44442222--|
E)-55555555-00000000--------------------|
   Back in her living hell, I wish to dwell, I long to be.
   In the blood and the guts, With the birds of prey and the stinging of bees,
   And bull whips baby.

*Chorus*
Gtr.1
e)-----------------------------------------------------------------------|
B)--------9---------10---9-------9-------------10---9-------5-------7----|
G)---9------9---9------9-----9-----9---9---9------9-----4-------4-----4--|
D)-9---9------9---9--------9---9-----9---9---9--------4---4---4---4---4--|
A)-----------------------------------------------------------------------|
E)-----------------------------------------------------------------------|

Gtr.2
e)----------------------------------------------------------------|
B)----------------------------------------------------------------|
G)-----------------------------------66666666-44444444-2-44442222-|
D)-9999999999999999-7777777777777777-66666666-44444444-2-44442222-|
A)-7777777777777777-7777777777777777-44444444-22222222-0-22220000-|
E)------------------5555555555555555------------------------------|
   I'm leaving heaven behind for good, This time the angels can keep it,
   I've got a demon in mind, And she's standing behind my dark secret.
   Draculina.

*Verse* P.M. release where necessary
e)--------------------------------------|
B)--------------------------------------|
G)--------------------------------------|
D)-9998999899989998-6666666666668888----|
A)-7776777677767776-4444444444446666----|
E)--------------------------------------|
   Whatever happened to Wonderland?
   No one really knows, No.

e)--------------------------------------|
B)--------------------------------------|
G)-------------------------------X\\----|
D)-9999999999999999-666666666666-X\\----|
A)-7777777777777777-444444444444-X\\----|
E)--------------------------------------|
   Draculina had her teeth sinking deep in me,
   From the get to the go.

*Pre-Chorus* X2
Gtr.1
e)-------------------------------------------|
B)-------------------------5-----------5-----|
G)---------------------4-------4---4-------4-|
D)-77777777-22222222-4---4---4---4---4---4---|
A)-77777777-22222222-------------------------|
E)-55555555-00000000-------------------------|

Gtr.2
e)--------------------------------------|
B)--------------------------------------|
G)-------------------44444444-66664444--|
D)-77777777-22222222-44444444-xxxxxxxx--|
A)-77777777-22222222-22222222-44442222--|
E)-55555555-00000000--------------------|
   Back in her living hell, I wish to dwell, I long to be.
   In the blood and the guts, With the birds of prey and the stinging of bees,
   And bull whips baby.

*Chorus* X2
Gtr.1
e)-----------------------------------------------------------------------|
B)--------9---------10---9-------9-------------10---9-------5-------7----|
G)---9------9---9------9-----9-----9---9---9------9-----4-------4-----4--|
D)-9---9------9---9--------9---9-----9---9---9--------4---4---4---4---4--|
A)-----------------------------------------------------------------------|
E)-----------------------------------------------------------------------|

Gtr.2
e)----------------------------------------------------------------|
B)----------------------------------------------------------------|
G)-----------------------------------66666666-44444444-2-44442222-|
D)-9999999999999999-7777777777777777-66666666-44444444-2-44442222-|
A)-7777777777777777-7777777777777777-44444444-22222222-0-22220000-|
E)------------------5555555555555555------------------------------|
   I'm leaving heaven behind for good, This time the angels can keep it,
   I've got a demon in mind, And she's standing behind my dark secret.
   Oh Draculina leaving heaven behind for good, This time the angels can keep it,
   I've got a devil inside, That has been excorcised now I'm bleeding,
   For Draculina.

*Bridge* X2
e)-------------------------------------------------------------|
B)-------------------------------------------------------------|
G)-9999999999999999--6666666666666666-44444444-668899-44442222-|
D)-9999999999999999--6666666666666666-44444444-xxxxxx-44442222-|
A)-7777777777777777--4444444444444444-22222222-446677-22220000-|
E)-------------------------------------------------------------|
   Whooooaaaahhhh (Whoooooaaahhh)

*Chorus* X2
Gtr.1
e)-----------------------------------------------------------------------|
B)--------9---------10---9-------9-------------10---9-------5-------7----|
G)---9------9---9------9-----9-----9---9---9------9-----4-------4-----4--|
D)-9---9------9---9--------9---9-----9---9---9--------4---4---4---4---4--|
A)-----------------------------------------------------------------------|
E)-----------------------------------------------------------------------|

Gtr.2
e)----------------------------------------------------------------|
B)----------------------------------------------------------------|
G)-----------------------------------66666666-44444444-2-44442222-|
D)-9999999999999999-7777777777777777-66666666-44444444-2-44442222-|
A)-7777777777777777-7777777777777777-44444444-22222222-0-22220000-|
E)------------------5555555555555555------------------------------|
   I'm leaving heaven behind for good, This time the angels can keep it,
   I've got a demon in mind, And she's standing behind my dark secret.
   Draculina leaving heaven behind for good, This time the angels can keep it,
   I've got a devil inside, That has been excorcised now I'm bleeding,
   For Draculina.

*Bridge pt.2* P.M.
e)----------------------------------------------------------|
B)----------------------------------------------------------|
G)-9999999999999999--6666666666666666-44444444-222222222222-|
D)-9999999999999999--6666666666666666-44444444-222222222222-|
A)-7777777777777777--4444444444444444-22222222-000000000000-|
E)----------------------------------------------------------|
   Whooooaaaahhhh (Whoooooaaahhh)

e)------------------------------------------------------------------------0--|
B)------------------------------------------------------------------------0--|
G)-----------------------------------66666666----------222222222-44442222-1--|
D)-9999999999999999-7777777777777777-66666666-66666666-222222222-44442222-2--|
A)-7777777777777777-7777777777777777-44444444-66666666-000000000-22220000-2--|
E)------------------5555555555555555----------44444444--------------------0--|
   Whooooaaaahhhh (Whoooooaaahhh),
   Draculina!

08) Eating Me Alive

*Cool Synth - used in numerous places*
e)--------------------------|
B)--------------------------|
G)----10----9-10-12-10-9-10-|
D)-10----10-----------------|
A)--------------------------|
E)--------------------------|

*Intro*
e)---------------------------------------------------------------|
B)---------------------------------------------------------------|
G)-5--------------------------5----------------------------------|
D)-5--------5--------7--------5--------5--------7--------3----5--|
A)-3--------5--------7--------3--------5--------7--------3----5--|
E)----------3--------5-----------------3--------5--------1----3--|

*Verse* P.M. release where necessary
e)----------------------------------------------|
B)----------------------------------------------|
G)-55555555-------------------------------------|
D)-55555555-55555555----------33333333-55555555-|
A)-33333333-55555555-22233355-33333333-55555555-|
E)----------33333333-00000000-11111111-33333333-| X2
   Well I found you out there like a sun rise,
   That melted my eyes from my skull,
   As I turned into ash before my sweet demise,
   The end of me was so beautiful.
   Now you're stuck in my head like a love song,
   That climbed to the top of the charts,
   How the fuck could something be so right and so wrong?
   All the wrong words but all the right parts.

*Chorus*
e)-------------------------------------------------------|
B)-------------------------------------------------------|
G)-------55----------55----------55----------------------|
D)-77-33-55-55-77-33-55-55-77-33-55-55-33333333-55555555-|
A)-77-33-33-55-77-33-33-55-77-33-33-55-33333333-55555555-|
E)-55-11----33-55-11----33-55-11----33-11111111-33333333-|
   And you can't sit there and tell me that I didn't try,
   And I can honestly tell you that I never lied,
   I can't stand this dark feeling, This shark eating me up inside.
   Eating me alive.

*Intro*
e)---------------------------------------------------------------|
B)---------------------------------------------------------------|
G)-5--------------------------5----------------------------------|
D)-5--------5--------7--------5--------5--------7--------3----5--|
A)-3--------5--------7--------3--------5--------7--------3----5--|
E)----------3--------5-----------------3--------5--------1----3--|
   Eating me alive!

*Verse* P.M. release where necessary
e)----------------------------------------------|
B)----------------------------------------------|
G)-55555555-------------------------------------|
D)-55555555-55555555----------33333333-55555555-|
A)-33333333-55555555-22233355-33333333-55555555-|
E)----------33333333-00000000-11111111-33333333-| X2
  Well I found you out there in the moonlight,
  In your eyes there were diamonds like stars,
  I was bound by your father, the jewel thief,
  That night as you said he was still behind bars.
  Now you're stuck in my head like a love song,
  With words I can never forget,
  As I sucked on your neck for way too long,
  And drained you of every last drop you had left.

*Chorus*
e)-------------------------------------------------------|
B)-------------------------------------------------------|
G)-------55----------55----------55----------------------|
D)-77-33-55-55-77-33-55-55-77-33-55-55-33333333-55555555-|
A)-77-33-33-55-77-33-33-55-77-33-33-55-33333333-55555555-|
E)-55-11----33-55-11----33-55-11----33-11111111-33333333-|
   And you can't sit there and tell me that I didn't try,
   And I can honestly tell you that I never lied,
   I can't stand this dark feeling, This shark eating me up inside.
   Eating me alive.

*Intro*
e)------------------------------------------------|
B)------------------------------------------------|
G)-5--------------------------5-------------------|
D)-5--------5--------7--------5--------5--------7-|
A)-3--------5--------7--------3--------5--------7-|
E)----------3--------5-----------------3--------5-|
   Eating me alive!

*Bridge*
e)----------------------------------------------------------|
B)----------------------------------------------------------|
G)-------------55555555-------------------55555555----------|
D)-33-55555555-55555555-33333333-55555555-55555555-33335555-|
A)-33-55555555-33333333-33333333-55555555-33333333-33335555-|
E)-11-33333333----------11111111-33333333----------11113333-|
  Here lies our homicidal story, Sad but true,
  The time has come and gone where, I'd do anything for you.

*Chorus*
e)-------------------------------------------------------------------------------|
B)-------------------------------------------------------------------------------|
G)-----------5555----------------5555----------------5555------------------------|
D)-7777-3333-5555-5555-7777-3333-5555-5555-7777-3333-5555-5555-33333333-55555555-|
A)-7777-3333-3333-5555-7777-3333-3333-5555-7777-3333-3333-5555-33333333-55555555-|
E)-5555-1111------3333-5555-1111------3333-5555-1111------3333-11111111-33333333-|
   And you can't sit there and tell me that I didn't try,
   And I can honestly tell you that I never lied,
   I can't stand this dark feeling, This shark eating me up inside.
   Eating me alive.

*Outro*
e)-----------------------------------------------------------------------------|
B)-----------------------------------------------------------------------------|
G)-555555555555-------------------------555555555555-------------------------5-|
D)-555555555555-5555-77777777-3333-5555-555555555555-5555-77777777-3333-5555-5-|
A)-333333333333-5555-77777777-3333-5555-333333333333-5555-77777777-3333-5555-3-|
E)--------------3333-55555555-1111-3333--------------3333-55555555-1111-3333---|
   Eating me alive!
   Eating me alive.


09) Piss And Vinegar

*Verse*
e)-------------------------------------------------------|
B)-------------------------------------------------------|
G)-55----------55----------------55----------------------|
D)-55-55-33-33-55-55-33-33-22-33-55-55-33333333-55555555-|
A)-33-55-33-33-33-55-33-33-22-33-33-55-33333333-55555555-|
E)----33-11-11----33-11-11-00-11----33-11111111-33333333-|
   Well I'm piss and vinegar again,
   And I hiss and I rattle and shed,
   And I encircle you like pihrana school,
   As you slowly find your way to shore.

e)-------------------------------------------------------|
B)-------------------------------------------------------|
G)-55----------55----------------55----------------------|
D)-55-55-33-33-55-55-33-33-22-33-55-55-33333333-55555555-|
A)-33-55-33-33-33-55-33-33-22-33-33-55-33333333-55555555-|
E)----33-11-11----33-11-11-00-11----33-11111111-33333333-|
   Well I'm piss and vinegar again,
   And I needed this like a new hole in the head.
   Hiding out in the drink, Floating waiting to sink,
   My great white teeth into your sweet bones.

*Chorus*
e)--------------------------------------------------------------------------|
B)--------------------------------------------------------------------------|
G)-----------5555----------------5555----------------5555-------------------|
D)-7777-3333-5555-5555-7777-3333-5555-6666-7777-3333-5555-5555-33333333-5-3-|
A)-7777-3333-3333-5555-7777-3333-3333-6666-7777-3333-3333-5555-33333333-5-3-|
E)-5555-1111------3333-5555-1111------4444-5555-1111------3333-11111111-3-1-|
   With an ache in my heart and a thorn in my side,
   I got nowhere to run, No place left to hide.
   I got a burning sensation like clockwork orange herbicide.
   Feels like it's raining all the time.

*Post-Chorus*
Gtr. 1 on second time
e)---------------------|
B)---------------------|
G)---------------------|
D)-7/5-7/5-3-2-3-2-0---|
A)-------------------3-|
E)---------------------|

Gtr.2
e)-------------------------|
B)-------------------------|
G)-55----------55----------|
D)-55-55-33-33-55-55-33-33-|
A)-33-55-33-33-33-55-33-33-|
E)----33-11-11----33-11-11-|

*Verse*
e)-------------------------------------------------------|
B)-------------------------------------------------------|
G)-55----------55----------------55----------------------|
D)-55-55-33-33-55-55-33-33-22-33-55-55-33333333-55555555-|
A)-33-55-33-33-33-55-33-33-22-33-33-55-33333333-55555555-|
E)----33-11-11----33-11-11-00-11----33-11111111-33333333-|
   Well I'm piss and vinegar again,
   Cos I feel like I lost my best friend,
   At the end of the day, Once its all down the drain,
   I'll be fine, I'll be fine.

*Chorus*
e)--------------------------------------------------------------------------|
B)--------------------------------------------------------------------------|
G)-----------5555----------------5555----------------5555-------------------|
D)-7777-3333-5555-5555-7777-3333-5555-6666-7777-3333-5555-5555-33333333-5-3-|
A)-7777-3333-3333-5555-7777-3333-3333-6666-7777-3333-3333-5555-33333333-5-3-|
E)-5555-1111------3333-5555-1111------4444-5555-1111------3333-11111111-3-1-|
   With an ache in my heart and a thorn in my side,
   I got nowhere to run, No place left to hide.
   I got a burning sensation like clockwork orange herbicide.
   Feels like it's raining all the time.

*Bridge*
e)--------------------------------------------------------------------------------|
B)--------------------------------------------------------------------------------|
G)----------------------55555555----------------------------55--------------------|
D)-77777777-33333333-55-55555555-66666666-77777777-33333333-55-55555555-3333-5555-|
A)-77777777-33333333-55-33333333-66666666-77777777-33333333-33-55555555-3333-5555-|
E)-55555555-11111111-33----------44444444-55555555-11111111----33333333-1111-3333-|
   Now this supernatural disaster,
   Found me quickly but left even faster.
   Now I'm sick of the sight of the plaster,
   This old familiar ceiling's bleeding me dry.

Gtr.1
e)-------------------------------------|
B)-------------------------------------|
G)-------------------------------------|
D)-7/5-7/5-3-2-3-2-7/5-7/5-3-2-3-2-7/5-|
A)-------------------------------------|
E)-------------------------------------|
Gtr.2
e)-------------------------------------------------------|
B)-------------------------------------------------------|
G)-55----------55----------------55----------------------|
D)-55-55-33-33-55-55-33-33-22-33-55-55-33333333-55555555-|
A)-33-55-33-33-33-55-33-33-22-33-33-55-33333333-55555555-|
E)----33-11-11----33-11-11-00-11----33-11111111-33333333-|

*Chorus*
e)----------------------------------------------------------------------------|
B)----------------------------------------------------------------------------|
G)-----------5555----------------5555----------------5555-------------------5-|
D)-7777-3333-5555-5555-7777-3333-5555-5555-7777-3333-5555-5555-33333333-5-3-5-|
A)-7777-3333-3333-5555-7777-3333-3333-5555-7777-3333-3333-5555-33333333-5-3-3-|
E)-5555-1111------3333-5555-1111------3333-5555-1111------3333-11111111-3-1---|
   With an ache in my heart and a thorn in my side,
   I got nowhere to run, No place left to hide.
   I got a burning sensation like clockwork orange herbicide.
   Feels like it's raining all the time.

10) Dorothy
*Intro* - there are a few layers of guitar, these are the closest I could find
Gtr.1
e)--------------------------------------------------------------------|
B)-13131313131313131313131313131313-1212121212121212-1515151515151515-|
G)-12121212121212121212121212121212-1111111111111111-1414141414141414-|
D)-10101010101010101010101010101010- 9-9-9-9-9-9-9-9-1212121212121212-|
A)--------------------------------------------------------------------|
E)--------------------------------------------------------------------| X3

Gtr.1
e)---------------------------------------------------|
B)-13131313131313131313131313131313-1212121212121212-|
G)-12121212121212121212121212121212-1111111111111111-|
D)-10101010101010101010101010101010- 9-9-9-9-9-9-9-9-|
A)---------------------------------------------------|
E)---------------------------------------------------|

Gtr.2
e)------------------------------------|
B)------------------------------------|
G)-5555555555555555-44444444-77777777-|
D)-xxxxxxxxxxxxxxxx-xxxxxxxx-xxxxxxxx-|
A)-3333333333333333-22222222-55555555-|
E)------------------------------------| X3

Gtr.2
e)---------------------------|
B)---------------------------|
G)-5555555555555555-44444444-|
D)-xxxxxxxxxxxxxxxx-xxxxxxxx-|
A)-3333333333333333-22222222-|
E)---------------------------|

*Verse*
e)------------------------------------------------------------------------------|
B)-------13-------12------13-------12-------13-------12-------13-------12-13-12-|
G)----12-------12------12-------12-------12-------12-------12-------12----------|
D)-10-------10------10-------10-------10-------10-------10-------10-------------|
A)------------------------------------------------------------------------------|
E)------------------------------------------------------------------------------|
  Like the flutter of your fingertips, Like the flickering of lights.
  They've got their bright ideas, But we've got bigger fish to fry.
  Found you out there on your doorstep, Undressed to the nines.
  From your sunday best, Black and blue velvet dress,
  Your heads a mess and so is mine.

*Chorus* X2
Gtr.1
e)----------------------------|
B)----12----13-12-15-12-13-12-|
G)-12----12-------------------|
D)----------------------------|
A)----------------------------|
E)----------------------------| X3

e)----------------------------|
B)----12----13-12-13-12-13-12-|
G)-12----12-------------------|
D)----------------------------|
A)----------------------------|
E)----------------------------|

Gtr.2
e)------------------------------------------------------------------------|
B)------------------------------------------------------------------------|
G)----------55555555----------------------------55555555------------------|
D)-22222222-55555555-55555555-77777777-22222222-55555555-7777777777777777-|
A)-22222222-33333333-55555555-77777777-22222222-33333333-7777777777777777-|
E)-00000000----------33333333-55555555-00000000----------5555555555555555-| X2
   Oh Dorothy, I'm coming home, I hope you're waiting there.
   I know times have been tough on you, It's all down hill from here.
   Oh Dorothy inside that dreadful place, Deep in your heart.
   It's beckoning, I'm racing to your doorway Dorothy.

*Intro*
Gtr.1
e)--------------------------------------------------------------------|
B)-13131313131313131313131313131313-1212121212121212-1515151515151515-|
G)-12121212121212121212121212121212-1111111111111111-1414141414141414-|
D)-10101010101010101010101010101010- 9-9-9-9-9-9-9-9-1212121212121212-|
A)--------------------------------------------------------------------|
E)--------------------------------------------------------------------|

Gtr.1
e)---------------------------------------------------|
B)-13131313131313131313131313131313-1212121212121212-|
G)-12121212121212121212121212121212-1111111111111111-|
D)-10101010101010101010101010101010- 9-9-9-9-9-9-9-9-|
A)---------------------------------------------------|
E)---------------------------------------------------|

Gtr.2
e)------------------------------------|
B)------------------------------------|
G)-5555555555555555-44444444-77777777-|
D)-xxxxxxxxxxxxxxxx-xxxxxxxx-xxxxxxxx-|
A)-3333333333333333-22222222-55555555-|
E)------------------------------------|
                             Dorothy.
Gtr.2
e)---------------------------|
B)---------------------------|
G)-5555555555555555-44444444-|
D)-xxxxxxxxxxxxxxxx-xxxxxxxx-|
A)-3333333333333333-22222222-|
E)---------------------------|

*Verse*
e)------------------------------------------------------------------------------|
B)-------13-------12------13-------12-------13-------12-------13-------12-13-12-|
G)----12-------12------12-------12-------12-------12-------12-------12----------|
D)-10-------10------10-------10-------10-------10-------10-------10-------------|
A)------------------------------------------------------------------------------|
E)------------------------------------------------------------------------------|
   Like the scratching sounds of insects, Beneath the blades and soil.
   Will begin the clock ticking away, To ends as black as oil.
   Now its pounding in the ear, Left in left field for you to find.
   Outside of your peripheral vision of this, Never-ending night.

*Chorus* X2
Gtr.1
e)----------------------------|
B)----12----13-12-15-12-13-12-|
G)-12----12-------------------|
D)----------------------------|
A)----------------------------|
E)----------------------------| X3

e)----------------------------|
B)----12----13-12-13-12-13-12-|
G)-12----12-------------------|
D)----------------------------|
A)----------------------------|
E)----------------------------|

Gtr.2
e)------------------------------------------------------------------------|
B)------------------------------------------------------------------------|
G)----------55555555----------------------------55555555------------------|
D)-22222222-55555555-55555555-77777777-22222222-55555555-7777777777777777-|
A)-22222222-33333333-55555555-77777777-22222222-33333333-7777777777777777-|
E)-00000000----------33333333-55555555-00000000----------5555555555555555-| X2
   Oh Dorothy, I'm coming home, I hope you're waiting there.
   I know times have been tough on you, It's all down hill from here.
   Oh Dorothy inside that dreadful place, Deep in your heart.
   It's beckoning, I'm racing to your doorway Dorothy.

*Bridge*
e)-------------|
B)-------------|
G)-7-5-4-------|
D)-x-x-x-9-5-4-|
A)-5-3-2-7-x-x-|
E)-------7-3-2-|

Gtr.1 throughout next 3 repetitions P.M.
e)---------|
B)---------|
G)---7---5-|
D)-5---5---|
A)---------|
E)---------|

Gtr.2 P.M
e)---------------------------------------------------------------------|
B)---------------------------------------------------------------------|
G)-55555555555555555555555555555555-4444444444444444-99999999-77777777-|
D)-55555555555555555555555555555555-4444444444444444-99999999-77777777-|
A)-33333333333333333333333333333333-2222222222222222-77777777-55555555-|
E)---------------------------------------------------------------------| X3
   It's a strange world isn't it, Such strange times to be living in.
   I had a change of heart tonight, When I watched her walk into the light.

Both Gtr's P.M.
e)----------------------------------|
B)----------------------------------|
G)-55555555555555555555555555555555-|
D)-55555555555555555555555555555555-|
A)-33333333333333333333333333333333-|
E)----------------------------------|
   I watched her walk into the light.

Gtr.1
e)----------------------------|
B)----12----13-12-15-12-13-12-|
G)-12----12-------------------|
D)----------------------------|
A)----------------------------|
E)----------------------------| X3

e)----------------------------|
B)----12----13-12-13-12-13-12-|
G)-12----12-------------------|
D)----------------------------|
A)----------------------------|
E)----------------------------|

Gtr.2
e)------------------------------------------------------------------------|
B)------------------------------------------------------------------------|
G)----------55555555----------------------------55555555------------------|
D)-22222222-55555555-55555555-77777777-22222222-55555555-7777777777777777-|
A)-22222222-33333333-55555555-77777777-22222222-33333333-7777777777777777-|
E)-00000000----------33333333-55555555-00000000----------5555555555555555-| x2

*Chorus* X2
Gtr.1
e)----------------------------|
B)----12----13-12-15-12-13-12-|
G)-12----12-------------------|
D)----------------------------|
A)----------------------------|
E)----------------------------| X3

e)----------------------------|
B)----12----13-12-13-12-13-12-|
G)-12----12-------------------|
D)----------------------------|
A)----------------------------|
E)----------------------------|

Gtr.2
e)------------------------------------------------------------------------|
B)------------------------------------------------------------------------|
G)----------55555555----------------------------55555555------------------|
D)-22222222-55555555-55555555-77777777-22222222-55555555-7777777777777777-|
A)-22222222-33333333-55555555-77777777-22222222-33333333-7777777777777777-|
E)-00000000----------33333333-55555555-00000000----------5555555555555555-| X2
   Oh Dorothy, I'm coming home, I hope you're waiting there.
   I know times have been tough on you, It's all down hill from here.
   Oh Dorothy inside that dreadful place, Deep in your heart.
   It's beckoning, I'm racing to your doorway Dorothy.

*End on*
e)---|
B)---|
G)-5-|
D)-5-|
A)-3-|
E)---|

11) Fine

*Intro*
e)-0----------------------------0--|
B)-5------------5---------7-----5--|
G)-6------------6---------6-----7--|
D)-7------------7---------7-----0--|
A)-0------------0---------0-----0--|
E)---------------------------------|

*Riff*
e)---------------0------------------------------------------|
B)--------------------------------------------------5-------|
G)---6---4---6------6---4---6---------6----------7----7---7-|
D)-7---7---7---7--7---7---7---7---7------7---7-0--------0---|
A)------------------------------9---9--9---9----------------|
E)----------------------------------------------------------| X2

*Verse*
e)-0---------------0-----------------------------------0-|
B)-5---------7-----5-----5-----------------------7-----5-|
G)-6---------6-----7-----6---6---4---6---4---6---6-----7-|
D)-7---------7-----0-----7-7---7---7---7---7---7-7-----0-|
A)-0---------0-----0-----0-----------------------0-----0-|
E)-------------------------------------------------------|
  It's gonna rain like this for days,
  I'm gonna drown in my old ways,
  But I'm fine, I'm fine.

e)---------------0------------------------------------------|
B)--------------------------------------------------5-------|
G)---6---4---6------6---4---6---------6----------7----7---7-|
D)-7---7---7---7--7---7---7---7---7------7---7-0--------0---|
A)------------------------------9---9--9---9----------------|
E)----------------------------------------------------------| X2
   Its gonna hurt like hell when you pull back,
   The hammer and fire,
   But I'm fine, I'm fine.

e)---------------------------------------------------|
B)---------------------------------------------------|
G)-----------------7777777777777777------------------|
D)-222222222222222-7777777777777777-7777777777777777-|
A)-222222222222222-5555555555555555-7777777777777777-|
E)-000000000000000------------------5555555555555555-|
   You see a stom knocked out my super powers, Now I sleep through thunder showers.

e)---------------------------------------------------------------------|
B)---------------------------------------------------------------------|
G)-----------------------------------7777777777777777------------------|
D)-2222222222222222-2222222222222222-7777777777777777-7777777777777777-|
A)-2222222222222222-2222222222222222-5555555555555555-7777777777777777-|
E)-0000000000000000-0000000000000000------------------5555555555555555-|
 Wake me when you learn to be cool. If I'm the captain of the this boat then all
my ship mates are fools.

e)----------------------------------|
B)----------------------------------|
G)-----------------7777777777777777-|
D)-222222222222222-7777777777777777-|
A)-222222222222222-5555555555555555-|
E)-000000000000000------------------|
   And all the stars in the world,
   Couldn't help me steer my way out of this kiddy pool.

*Riff*
e)---------------0------------------------------------------|
B)--------------------------------------------------5-------|
G)---6---4---6------6---4---6---------6----------7----7---7-|
D)-7---7---7---7--7---7---7---7---7------7---7-0--------0---|
A)------------------------------9---9--9---9----------------|
E)----------------------------------------------------------| X2


*Verse*
e)-0---------------0-----0---5-7-5-9--------------------0-|
B)-5---------7-----5-----5-5---------------------7------5-|
G)-6---------6-----7-----6-----------------------6------7-|
D)-7---------7-----0-----7-----------------------7------0-|
A)-0---------0-----0-----0-----------------------0------0-|
E)--------------------------------------------------------|
  I'm gonna wake up from this dream,
  With nightmares lined up on my street.
  But I'm fine, I'm fine

e)---------------0------------------------------------------|
B)--------------------------------------------------5-------|
G)---6---4---6------6---4---6---------6----------7----7---7-|
D)-7---7---7---7--7---7---7---7---7------7---7-0--------0---|
A)------------------------------9---9--9---9----------------|
E)----------------------------------------------------------| X2
   Needed a hand to keep my head up,
   So you put hooks in both my ears.
   But I'm fine, I'm fine.
e)---------------------------------------------------|
B)---------------------------------------------------|
G)-----------------7777777777777777------------------|
D)-222222222222222-7777777777777777-7777777777777777-|
A)-222222222222222-5555555555555555-7777777777777777-|
E)-000000000000000------------------5555555555555555-|
  Yeah it's a chronic pain in my ass, But no its not a burden.
e)---------------------------------------------------------------------|
B)---------------------------------------------------------------------|
G)-----------------------------------7777777777777777------------------|
D)-2222222222222222-2222222222222222-7777777777777777-7777777777777777-|
A)-2222222222222222-2222222222222222-5555555555555555-7777777777777777-|
E)-0000000000000000-0000000000000000------------------5555555555555555-|
  It's ironic that I drink to make my insides stop hurting.

e)----------------------------------|
B)----------------------------------|
G)-----------------7777777777777777-|
D)-222222222222222-7777777777777777-|
A)-222222222222222-5555555555555555-|
E)-000000000000000------------------|
  And its a love that gives me heartburn, Its a song that makes my stomch turn.

e)----------------------------------|
B)----------------------------------|
G)-----------------7777777777777777-|
D)-222222222222222-7777777777777777-|
A)-222222222222222-5555555555555555-|
E)-000000000000000------------------|
   But I wouldn't trade my hand, For all the aces in the deck.

*Outro*
e)------------------------------------|
B)------------------------------------|
G)---------------------------77777777-|
D)-7777777777777777-44444444-77777777-|
A)-7777777777777777-44444444-55555555-|
E)-5555555555555555-22222222----------| X4
   I'm fine.

e)---------------0------------------------------------------|
B)--------------------------------------------------5-------|
G)---6---4---6------6---4---6---------6----------7----7---7-|
D)-7---7---7---7--7---7---7---7---7------7---7-0--------0---|
A)------------------------------9---9--9---9----------------|
E)----------------------------------------------------------| X4


************************************

| /   slide up
| \   slide down
| h   hammer-on
| p   pull-off
| ~   vibrato
| +   harmonic
| x   Mute note
| b   Bend
| pb  Pre-bend
| br  Bend release
| pbr Pre-bend release
| brb Bend release bend

************************************
comments
We did not receive enough feedback on this tab! Please rate:
print report bad tab
1 2 3 4 5
1 comment total.
0 reply
clovenkiller wrote on August 31 2010, 08:29 pm

whats the chords for Draculina?

I want to post or [tab]
guest
You may want to rate the tab now too:
select rating
Please do not post tabs as comments. Select "correction" instead!