Oops, an error
Loading. Please wait.

This Addiction Tab

ver3
ver3

Album

Whole song

Interactive

More versions @911Tabs.com
9,621 views 15 this week
2 commentsread comments
1 2 3 4 5
excellent!
x 3
Autoscroll
+/-
esc
set tempo
stop
Contributor
Difficulty
Hey! There's an official Ultimate Guitar app which is ideal
for learning songs when you're away from computer. Get the app
WARNING: You are trying to view
                                    content from Ultimate-Guitar.com
                                    in an unauthorized application,
                                    which is prohibited.

                                    Please use an official Ultimate
                                    Guitar Tabs application for iPhone,
                                    iPad or Android to access legitimate
                                    chords, guitar, bass, and drum tabs
                                    from Ultimate-Guitar.com database.

                                    Type "ultimate guitar tabs" in Apple
                                    App Store's or Android Market's
                                    search to find the application.
SONG: THIS ADDICTION
ARTIST: ALKALINE TRIO
ALBUM: THIS ADDICTION
GUITARIST: MATT SKIBA

INTRO

GUITAR ONE:
e|-----------------|-----------------|-----------------|-----------------|
B|-----------------|-----------------|-----------------|-----------------|
G|-9-9-9-9-9-9-9-9-|-9-9-9-9-9-9-9-9-|-9-9-9-9-9-9-9-9-|-9-9-9-9-9-9-9-9-|
D|-X-X-X-X-X-X-X-X-|-X-X-X-X-X-X-X-X-|-X-X-X-X-X-X-X-X-|-X-X-X-X-X-X-X-X-|
A|-7-7-7-7-7-7-7-7-|-7-7-7-7-7-7-7-7-|-7-7-7-7-7-7-7-7-|-7-7-7-7-7-7-7-7-|
E|-----------------|-----------------|-----------------|-----------------|
 | 1 + 2 + 3 + 4 +   1 + 2 + 3 + 4 +   1 + 2 + 3 + 4 +   1 + 2 + 3 + 4 + 
 |
GUITAR TWO:
e|-----------------|-----------------|-----------------|-----------------|
B|-----------------|-----------------|-----------------|-----------------|
G|-9~--------------|-----------------|-6~--------------|-----------------|
D|-9~--------------|-----------------|-6~--------------|-----------------|
A|-7~--------------|-----------------|-4~--------------|-----------------|
E|-----------------|-----------------|-----------------|-----------------|
   1 + 2 + 3 + 4 +   1 + 2 + 3 + 4 +   1 + 2 + 3 + 4 +   1 + 2 + 3 + 4 + 


e|-----------------|-----------------|-----------------|-----------------|
B|-----------------|-----------------|-----------------|-----------------|
G|-9-9-9-9-9-9-9-9-|-8-8-8-8-8-8-8-8-|-9-9-9-9-9-9-9-9-|-9-9-9-9-11111111|
D|-X-X-X-X-X-X-X-X-|-X-X-X-X-X-X-X-X-|-X-X-X-X-X-X-X-X-|-X-X-X-X-X-X-X-X-|
A|-7-7-7-7-7-7-7-7-|-6-6-6-6-6-6-6-6-|-7-7-7-7-7-7-7-7-|-7-7-7-7-9-9-9-9-|
E|-----------------|-----------------|-----------------|-----------------|
 | 1 + 2 + 3 + 4 +   1 + 2 + 3 + 4 +   1 + 2 + 3 + 4 +   1 + 2 + 3 + 4 + 
 |
e|-----------------|-----------------|-----------------|-----------------|
B|-----------------|-----------------|-----------------|-----------------|
G|-4~--------------|-----------------|-2~--------------|-----------------|
D|-4~--------------|-----------------|-2~--------------|-----------------|
A|-2~--------------|-----------------|-0~--------------|-----------------|
E|-----------------|-----------------|-----------------|-----------------|
   1 + 2 + 3 + 4 +   1 + 2 + 3 + 4 +   1 + 2 + 3 + 4 +   1 + 2 + 3 + 4 + 


e|-----------------|-----------------|-----------------|-----------------|
B|-----------------|-----------------|-----------------|-----------------|
G|-9-9-9-9-9-9-9-9-|-9-9-9-9-8-8-8-8-|-9-9-9-9-9-9-9-9-|-9-9-9-9-8-8-8-8-|
D|-X-X-X-X-X-X-X-X-|-X-X-X-X-X-X-X-X-|-X-X-X-X-X-X-X-X-|-X-X-X-X-X-X-X-X-|
A|-7-7-7-7-7-7-7-7-|-7-7-7-7-6-6-6-6-|-7-7-7-7-7-7-7-7-|-7-7-7-7-6-6-6-6-|
E|-----------------|-----------------|-----------------|-----------------|
 | 1 + 2 + 3 + 4 +   1 + 2 + 3 + 4 +   1 + 2 + 3 + 4 +   1 + 2 + 3 + 4 + 
 |
e|-----------------|-----------------|-----------------|-----------------|
B|-----------------|-----------------|-----------------|-----------------|
G|-9~--------------|-----------------|-6~--------------|-----------------|
D|-9~--------------|-----------------|-6~--------------|-----------------|
A|-7~--------------|-----------------|-4~--------------|-----------------|
E|-----------------|-----------------|-----------------|-----------------|
   1 + 2 + 3 + 4 +   1 + 2 + 3 + 4 +   1 + 2 + 3 + 4 +   1 + 2 + 3 + 4 + 


e|-----------------|-----------------|-----------------|-----------------||
B|-----------------|-----------------|-----------------|-----------------||
G|-9-9-9-9-9-9-9-9-|-1111111111111111|-13--141414~-----|-----------------||
D|-X-X-X-X-X-X-X-X-|-X-X-X-X-X-X-X-X-|-X---X-X-X-------|-----------------||
A|-7-7-7-7-7-7-7-7-|-9-9-9-9-9-9-9-9-|-11--121212~-----|-----------------||
E|-----------------|-----------------|-----------------|-----------------||
 | 1 + 2 + 3 + 4 +   1 + 2 + 3 + 4 +   1 + 2 + 3 + 4 +   1 + 2 + 3 + 4 + 
 |
e|-----------------|-----------------|-----------------|-----------------||
B|-----------------|-----------------|-----------------|-PICKSCRAPE------||
G|-4~--------------|-----------------|-2~--------------|-\\\\\\\\\\\\\\\\||
D|-4~--------------|-----------------|-2~--------------|-XXXXXXXXXXXXXXXX||
A|-2~--------------|-----------------|-0~--------------|-XXXXXXXXXXXXXXXX||
E|-----------------|-----------------|-----------------|-XXXXXXXXXXXXXXXX||
   1 + 2 + 3 + 4 +   1 + 2 + 3 + 4 +   1 + 2 + 3 + 4 +   1 + 2 + 3 + 4 + 

INTERLUDE

GUITAR ONE: 
e|-----------------|-----------------|-----------------|-----------------| 
B|-----------------|-----------------|-----------------|-----------------| 
G|-13--13--13131314|---141413--131313|-8---8---8-8-8-9-|---9-9-9-9-9-9-9-| 
D|-X---X---X-X-X-X-|---X-X-X---X-X-X-|-X---X---X-X-X-X-|---X-X-X-X-X-X-X-| 
A|-11--11--11111112|---121211--111111|-6---6---6-6-6-7-|---7-7-7-7-7-7-7-| 
E|-0---0---0-0-0-0-|---0-0-0---0-0-0-|-----------------|-----------------| 
 | 1 + 2 + 3 + 4 +   1 + 2 + 3 + 4 +   1 + 2 + 3 + 4 +   1 + 2 + 3 + 4 + 
 |
GUITAR TWO:
e|-----------------|-----------------|-----------------|-----------------| 
B|-----------------|-----------------|-----------------|-----------------| 
G|-----------------|-----------------|-----------------|-----------------| 
D|-2---2---2-2-2-2-|---2-2---2-2-2-2-|-6---6---6-6-6-7-|---7-7-7-7-7-7-7-| 
A|-2---2---2-2-2-2-|---2-2---2-2-2-2-|-7---7---7-7-7-7-|---7-7-7-7-7-7-7-| 
E|-0---0---0-0-0-0-|---0-0---0-0-0-0-|-4---4---4-4-4-5-|---5-5-5-5-5-5-5-| 
   1 + 2 + 3 + 4 +   1 + 2 + 3 + 4 +   1 + 2 + 3 + 4 +   1 + 2 + 3 + 4 + 


e|-----------------|-----------------|-----------------|-----------------||
B|-----------------|-----------------|-----------------|-----------------||
G|-13--13--13131314|---141413--131313|-8---8---8-8-8-9-|---9-9-9-9-9-9-9-||
D|-X---X---X-X-X-X-|---X-X-X---X-X-X-|-X---X---X-X-X-X-|---X-X-X-X-X-X-X-||
A|-11--11--11111112|---121211--111111|-6---6---6-6-6-7-|---7-7-7-7-7-7-7-||
E|-0---0---0-0-0-0-|---0-0-0---0-0-0-|-----------------|-----------------||
 | 1 + 2 + 3 + 4 +   1 + 2 + 3 + 4 +   1 + 2 + 3 + 4 +   1 + 2 + 3 + 4 + 
 |
e|-----------------|-----------------|-----------------|-----------------||
B|-----------------|-----------------|-----------------|-----------------||
G|-----------------|-----------------|-----------------|-----------------||
D|-2---2---2-2-2-2-|---2-2---2-2-2-2-|-6---6---6-6-6-7-|---7-7-7-7-7-7-7-||
A|-2---2---2-2-2-2-|---2-2---2-2-2-2-|-7---7---7-7-7-7-|---7-7-7-7-7-7-7-||
E|-0---0---0-0-0-0-|---0-0---0-0-0-0-|-4---4---4-4-4-5-|---5-5-5-5-5-5-5-||
   1 + 2 + 3 + 4 +   1 + 2 + 3 + 4 +   1 + 2 + 3 + 4 +   1 + 2 + 3 + 4 + 

VERSE

GUITAR ONE:
e|-----------------|-----------------|-----------------|-----------------| 
B|-FADE-OUT--------|-----------------|-----------------|-----------------| 
G|-9~--------------|-----------------|-----------------|-----------------| 
D|-X---------------|-----------------|-----------------|-----------------| 
A|-7~--------------|-----------------|-----------------|-----------------| 
E|-0~--------------|-----------------|-----------------|-----------------| 
 | 1 + 2 + 3 + 4 +   1 + 2 + 3 + 4 +   1 + 2 + 3 + 4 +   1 + 2 + 3 + 4 + 
 |
GUITAR TWO:
e|-----------------|-----------------|-----------------|-----------------| 
B|-----------------|-----------------|-----------------|-----------------| 
G|-----------------|-----------------|-----------------|-----------------| 
D|-2~--------------|-----------------|-6~------------7~|-----------------| 
A|-2~--------------|-----------------|-7~------------7~|-----------------| 
E|-0~--------------|-----------------|-4~------------5~|-----------------| 
   1 + 2 + 3 + 4 +   1 + 2 + 3 + 4 +   1 + 2 + 3 + 4 +   1 + 2 + 3 + 4 + 


e|-----------------|-----------------|-----------------|-----------------| 
B|-----------------|-----------------|-----------------|-------------12--| 
G|-----------------|-----------------|-----------------|---------13------| 
D|-----------------|-----------------|-----------------|-----------------| 
A|-----------------|-----------------|-----------------|-----------------| 
E|-----------------|-----------------|-----------------|-----------------| 
 | 1 + 2 + 3 + 4 +   1 + 2 + 3 + 4 +   1 + 2 + 3 + 4 +   1 + 2 + 3 + 4 + 
 |
e|-----------------|-----------------|-----------------|-----------------| 
B|-----------------|-----------------|-----------------|-----------------| 
G|-----------------|-----------------|-----------------|-----------------| 
D|-2~--------------|-----------------|-6~------------7~|-----------------| 
A|-2~--------------|-----------------|-7~------------7~|-----------------| 
E|-0~--------------|-----------------|-4~------------5~|-----------------| 
   1 + 2 + 3 + 4 +   1 + 2 + 3 + 4 +   1 + 2 + 3 + 4 +   1 + 2 + 3 + 4 + 


e|-12--------------|-----------------|-----------------|-----------------| 
B|-----------------|-----------------|-----------------|-------------12--| 
G|-----------------|-----------------|-----------------|---------13------| 
D|-----------------|-----------------|-----------------|-----------------| 
A|-----------------|-----------------|-----------------|-----------------| 
E|-----------------|-----------------|-----------------|-----------------| 
 | 1 + 2 + 3 + 4 +   1 + 2 + 3 + 4 +   1 + 2 + 3 + 4 +   1 + 2 + 3 + 4 + 
 |
e|-----------------|-----------------|-----------------|-----------------| 
B|-----------------|-----------------|-----------------|-----------------| 
G|-----------------|-----------------|-----------------|-----------------| 
D|-2~--------------|-----------------|-6~------------7~|-----------------| 
A|-2~--------------|-----------------|-7~------------7~|-----------------| 
E|-0~--------------|-----------------|-4~------------5~|-----------------| 
   1 + 2 + 3 + 4 +   1 + 2 + 3 + 4 +   1 + 2 + 3 + 4 +   1 + 2 + 3 + 4 + 


e|-12--------------|-----------------|-----------------|-----------------||
B|-----------------|-----------------|-----------------|-------PICK-SCRAPE|
G|-----------------|-----------------|-----------------|---------\\\\\\\\||
D|-----------------|-----------------|-----------------|---------XXXXXXXX||
A|-----------------|-----------------|-----------------|---------XXXXXXXX||
E|-----------------|-----------------|-----------------|---------XXXXXXXX||
 | 1 + 2 + 3 + 4 +   1 + 2 + 3 + 4 +   1 + 2 + 3 + 4 +   1 + 2 + 3 + 4 + 
 |
e|-----------------|-----------------|-----------------|-----------------||
B|-----------------|-----------------|-----------------|-----------------||
G|-----------------|-----------------|-9-9-9-9-9-9-9-9-|-9-9-9-9-9-9-9-9-||
D|-2~--------------|-----------------|-9-9-9-9-9-9-9-9-|-9-9-9-9-9-9-9-9-||
A|-2~--------------|-----------------|-7-7-7-7-7-7-7-7-|-7-7-7-7-7-7-7-7-||
E|-0~--------------|-----------------|-0-0-0-0-0-0-0-0-|-0-0-0-0-0-0-0-0-||
   1 + 2 + 3 + 4 +   1 + 2 + 3 + 4 +   1 + 2 + 3 + 4 +   1 + 2 + 3 + 4 + 

CHORUS

GUITARS ONE AND TWO:
e|-----------------|-----------------|-----------------|-----------------| 
B|-----------------|-----------------|-----------------|-----------------| 
G|-6---6-6---6-6-6-|-2---2-2---2-2-2-|-----------------|-4-4-4-4-4-4-0-0-| 
D|-6---6-6---6-6-6-|-2---2-2---2-2-2-|-2---2---2-2-2-2-|-4-4-4-4-4-4-0-0-| 
A|-4---4-4---4-4-4-|-0---0-0---0-0-0-|-2---2---2-2-2-2-|-2-2-2-2-2-2-0-0-| 
E|-----------------|-----------------|-0---0---0-0-0-0-|-----------------| 
   1 + 2 + 3 + 4 +   1 + 2 + 3 + 4 +   1 + 2 + 3 + 4 +   1 + 2 + 3 + 4 + 

e|-----------------|-----------------|-----------------|-----------------| 
B|-----------------|-----------------|-----------------|-----------------| 
G|-6---6-6---6-6-6-|-2---2-2---2-2-2-|-----------------|-4-4-4-4-4-4-0-0-| 
D|-6---6-6---6-6-6-|-2---2-2---2-2-2-|-2---2---2-2-2-2-|-4-4-4-4-4-4-0-0-| 
A|-4---4-4---4-4-4-|-0---0-0---0-0-0-|-2---2---2-2-2-2-|-2-2-2-2-2-2-0-0-| 
E|-----------------|-----------------|-0---0---0-0-0-0-|-----------------| 
   1 + 2 + 3 + 4 +   1 + 2 + 3 + 4 +   1 + 2 + 3 + 4 +   1 + 2 + 3 + 4 + 

e|-----------------|-----------------|-----------------|-----------------| 
B|-----------------|-----------------|-----------------|-----------------| 
G|-6---6-6---6-6-6-|-2---2-2---2-2-2-|-----------------|-4---4-4---4-4-4-| 
D|-6---6-6---6-6-6-|-2---2-2---2-2-2-|-2---2---2-2-2-2-|-4---4-4---4-4-4-| 
A|-4---4-4---4-4-4-|-0---0-0---0-0-0-|-2---2---2-2-2-2-|-2---2-2---2-2-2-| 
E|-----------------|-----------------|-0---0---0-0-0-0-|-----------------| 
   1 + 2 + 3 + 4 +   1 + 2 + 3 + 4 +   1 + 2 + 3 + 4 +   1 + 2 + 3 + 4 + 

e|-----------------|-----------------|-----------------|-----------------||
B|-----------------|-----------------|-----------------|-----------------||
G|-2-2-2-2-2-2-2-2-|-2-2-2-2-2-2-0-0-|-4-4-4-4-4-4-0-0-|-2-2-2-2-2-2-0-0-||
D|-2-2-2-2-2-2-2-2-|-2-2-2-2-2-2-0-0-|-4-4-4-4-4-4-0-0-|-2-2-2-2-2-2-0-0-||
A|-0-0-0-0-0-0-0-0-|-0-0-0-0-0-0-0-0-|-2-2-2-2-2-2-0-0-|-0-0-0-0-0-0-0-0-||
E|-----------------|-----------------|-----------------|-----------------|| 
   1 + 2 + 3 + 4 +   1 + 2 + 3 + 4 +   1 + 2 + 3 + 4 +   1 + 2 + 3 + 4 + 

REPEAT: INTERLUDE
	 VERSE
	 CHORUS

INTERLUDE

GUITAR ONE:
e|-----------------|-----------------|-----------------|-----------------|
B|-----------------|-----------------|-----------------|-----------------|
G|-9-9-9-9-9-9-9-9-|-9-9-9-9-9-9-9-9-|-9-9-9-9-9-9-9-9-|-9-9-9-9-9-9-9-9-|
D|-X-X-X-X-X-X-X-X-|-X-X-X-X-X-X-X-X-|-X-X-X-X-X-X-X-X-|-X-X-X-X-X-X-X-X-|
A|-7-7-7-7-7-7-7-7-|-7-7-7-7-7-7-7-7-|-7-7-7-7-7-7-7-7-|-7-7-7-7-7-7-7-7-|
E|-----------------|-----------------|-----------------|-----------------|
 | 1 + 2 + 3 + 4 +   1 + 2 + 3 + 4 +   1 + 2 + 3 + 4 +   1 + 2 + 3 + 4 + 
 |
GUITAR TWO:
e|-----------------|-----------------|-----------------|-----------------|
B|-----------------|-----------------|-----------------|-----------------|
G|-9~--------------|-----------------|-6~--------------|-----------------|
D|-9~--------------|-----------------|-6~--------------|-----------------|
A|-7~--------------|-----------------|-4~--------------|-----------------|
E|-----------------|-----------------|-----------------|-----------------|
   1 + 2 + 3 + 4 +   1 + 2 + 3 + 4 +   1 + 2 + 3 + 4 +   1 + 2 + 3 + 4 + 


e|-----------------|-----------------|-----------------|-----------------|
B|-----------------|-----------------|-----------------|-----------------|
G|-9-9-9-9-9-9-9-9-|-8-8-8-8-8-8-8-8-|-9-9-9-9-9-9-9-9-|-9-9-9-9-11111111|
D|-X-X-X-X-X-X-X-X-|-X-X-X-X-X-X-X-X-|-X-X-X-X-X-X-X-X-|-X-X-X-X-X-X-X-X-|
A|-7-7-7-7-7-7-7-7-|-6-6-6-6-6-6-6-6-|-7-7-7-7-7-7-7-7-|-7-7-7-7-9-9-9-9-|
E|-----------------|-----------------|-----------------|-----------------|
 | 1 + 2 + 3 + 4 +   1 + 2 + 3 + 4 +   1 + 2 + 3 + 4 +   1 + 2 + 3 + 4 + 
 |
e|-----------------|-----------------|-----------------|-----------------|
B|-----------------|-----------------|-----------------|-----------------|
G|-4~--------------|-----------------|-2~--------------|-----------------|
D|-4~--------------|-----------------|-2~--------------|-----------------|
A|-2~--------------|-----------------|-0~--------------|-----------------|
E|-----------------|-----------------|-----------------|-----------------|
   1 + 2 + 3 + 4 +   1 + 2 + 3 + 4 +   1 + 2 + 3 + 4 +   1 + 2 + 3 + 4 + 


e|-----------------|-----------------|-----------------|-----------------|
B|-----------------|-----------------|-----------------|-----------------|
G|-9-9-9-9-9-9-9-9-|-9-9-9-9-8-8-8-8-|-9-9-9-9-9-9-9-9-|-9-9-9-9-8-8-8-8-|
D|-X-X-X-X-X-X-X-X-|-X-X-X-X-X-X-X-X-|-X-X-X-X-X-X-X-X-|-X-X-X-X-X-X-X-X-|
A|-7-7-7-7-7-7-7-7-|-7-7-7-7-6-6-6-6-|-7-7-7-7-7-7-7-7-|-7-7-7-7-6-6-6-6-|
E|-----------------|-----------------|-----------------|-----------------|
 | 1 + 2 + 3 + 4 +   1 + 2 + 3 + 4 +   1 + 2 + 3 + 4 +   1 + 2 + 3 + 4 + 
 |
e|-----------------|-----------------|-----------------|-----------------|
B|-----------------|-----------------|-----------------|-----------------|
G|-9~--------------|-----------------|-6~--------------|-----------------|
D|-9~--------------|-----------------|-6~--------------|-----------------|
A|-7~--------------|-----------------|-4~--------------|-----------------|
E|-----------------|-----------------|-----------------|-----------------|
   1 + 2 + 3 + 4 +   1 + 2 + 3 + 4 +   1 + 2 + 3 + 4 +   1 + 2 + 3 + 4 + 


e|-----------------|-----------------|-----------------|-----------------||
B|-----------------|-----------------|-----------------|-----------------||
G|-9-9-9-9-9-9-9-9-|-1111111111111111|-13--141414--1414|-1616161616161616||
D|-X-X-X-X-X-X-X-X-|-X-X-X-X-X-X-X-X-|-X---X-X-X---X-X-|-X-X-X-X-X-X-X-X-||
A|-7-7-7-7-7-7-7-7-|-9-9-9-9-9-9-9-9-|-11--121212--1212|-1414141414141414||
E|-----------------|-----------------|-----------------|-----------------||
 | 1 + 2 + 3 + 4 +   1 + 2 + 3 + 4 +   1 + 2 + 3 + 4 +   1 + 2 + 3 + 4 + 
 |
e|-----------------|-----------------|-----------------|-----------------||
B|-----------------|-----------------|-----------------|-PICKSCRAPE------||
G|-4~--------------|-----------------|-2~--------------|-\\\\\\\\\\\\\\\\||
D|-4~--------------|-----------------|-2~--------------|-XXXXXXXXXXXXXXXX||
A|-2~--------------|-----------------|-0~--------------|-XXXXXXXXXXXXXXXX||
E|-----------------|-----------------|-----------------|-XXXXXXXXXXXXXXXX||
   1 + 2 + 3 + 4 +   1 + 2 + 3 + 4 +   1 + 2 + 3 + 4 +   1 + 2 + 3 + 4 + 

LAST CHORUS

GUITARS ONE AND TWO:
e|-----------------|-----------------|-----------------|-----------------| 
B|-----------------|-----------------|-----------------|-----------------| 
G|-6---6-6---6-6-6-|-2---2-2---2-2-2-|-----------------|-4-4-4-4-4-4-0-0-| 
D|-6---6-6---6-6-6-|-2---2-2---2-2-2-|-2---2---2-2-2-2-|-4-4-4-4-4-4-0-0-| 
A|-4---4-4---4-4-4-|-0---0-0---0-0-0-|-2---2---2-2-2-2-|-2-2-2-2-2-2-0-0-| 
E|-----------------|-----------------|-0---0---0-0-0-0-|-----------------| 
   1 + 2 + 3 + 4 +   1 + 2 + 3 + 4 +   1 + 2 + 3 + 4 +   1 + 2 + 3 + 4 + 

e|-----------------|-----------------|-----------------|-----------------| 
B|-----------------|-----------------|-----------------|-----------------| 
G|-6---6-6---6-6-6-|-2---2-2---2-2-2-|-----------------|-4---4-4---4-0-0-| 
D|-6---6-6---6-6-6-|-2---2-2---2-2-2-|-2---2---2-2-2-2-|-4---4-4---4-0-0-| 
A|-4---4-4---4-4-4-|-0---0-0---0-0-0-|-2---2---2-2-2-2-|-2---2-2---2-0-0-| 
E|-----------------|-----------------|-0---0---0-0-0-0-|-----------------| 
   1 + 2 + 3 + 4 +   1 + 2 + 3 + 4 +   1 + 2 + 3 + 4 +   1 + 2 + 3 + 4 + 

e|-----------------|-----------------|-----------------|-----------------| 
B|-----------------|-----------------|-----------------|-----------------| 
G|-6---6-6---6-6-6-|-2---2-2---2-2-2-|-----------------|-4---4-4---4-4-4-| 
D|-6---6-6---6-6-6-|-2---2-2---2-2-2-|-2---2---2-2-2-2-|-4---4-4---4-4-4-| 
A|-4---4-4---4-4-4-|-0---0-0---0-0-0-|-2---2---2-2-2-2-|-2---2-2---2-2-2-| 
E|-----------------|-----------------|-0---0---0-0-0-0-|-----------------| 
   1 + 2 + 3 + 4 +   1 + 2 + 3 + 4 +   1 + 2 + 3 + 4 +   1 + 2 + 3 + 4 + 

e|-----------------|-----------------|-----------------|-----------------||
B|-----------------|-----------------|-----------------|-----------------||
G|-2-2-2-2-2-2-2-2-|-2-2-2-2-2-2-0-0-|-4-4-4-4-4-4-0-0-|-2-2-2-2-2-2-0-0-||
D|-2-2-2-2-2-2-2-2-|-2-2-2-2-2-2-0-0-|-4-4-4-4-4-4-0-0-|-2-2-2-2-2-2-0-0-||
A|-0-0-0-0-0-0-0-0-|-0-0-0-0-0-0-0-0-|-2-2-2-2-2-2-0-0-|-0-0-0-0-0-0-0-0-||
E|-----------------|-----------------|-----------------|-----------------|| 
   1 + 2 + 3 + 4 +   1 + 2 + 3 + 4 +   1 + 2 + 3 + 4 +   1 + 2 + 3 + 4 + 

OUTRO

GUITAR ONE: 
e|-----------------|-----------------|-----------------|-----------------| 
B|-----------------|-----------------|-----------------|-----------------| 
G|-13--13--13131314|---141413--131313|-8---8---8-8-8-9-|---9-9-9-9-9-9-9-| 
D|-X---X---X-X-X-X-|---X-X-X---X-X-X-|-X---X---X-X-X-X-|---X-X-X-X-X-X-X-| 
A|-11--11--11111112|---121211--111111|-6---6---6-6-6-7-|---7-7-7-7-7-7-7-| 
E|-0---0---0-0-0-0-|---0-0-0---0-0-0-|-----------------|-----------------| 
 | 1 + 2 + 3 + 4 +   1 + 2 + 3 + 4 +   1 + 2 + 3 + 4 +   1 + 2 + 3 + 4 + 
 |
GUITAR TWO:
e|-----------------|-----------------|-----------------|-----------------| 
B|-----------------|-----------------|-----------------|-----------------| 
G|-----------------|-----------------|-----------------|-----------------| 
D|-2---2---2-2-2-2-|---2-2---2-2-2-2-|-6---6---6-6-6-7-|---7-7-7-7-7-7-7-| 
A|-2---2---2-2-2-2-|---2-2---2-2-2-2-|-7---7---7-7-7-7-|---7-7-7-7-7-7-7-| 
E|-0---0---0-0-0-0-|---0-0---0-0-0-0-|-4---4---4-4-4-5-|---5-5-5-5-5-5-5-| 
   1 + 2 + 3 + 4 +   1 + 2 + 3 + 4 +   1 + 2 + 3 + 4 +   1 + 2 + 3 + 4 + 


e|-----------------|-----------------|-----------------|-----------------||
B|-----------------|-----------------|-----------------|-----------------||
G|-13--13--13131314|---141413--131313|-8---8---8-8-8-9~|----(9)///-------||
D|-X---X---X-X-X-X-|---X-X-X---X-X-X-|-X---X---X-X-X-X-|-----------------||
A|-11--11--11111112|---121211--111111|-6---6---6-6-6-7~|----(7)///-------||
E|-0---0---0-0-0-0-|---0-0-0---0-0-0-|-----------------|-----------------||
 | 1 + 2 + 3 + 4 +   1 + 2 + 3 + 4 +   1 + 2 + 3 + 4 +   1 + 2 + 3 + 4 + 
 |
e|-----------------|-----------------|-----------------|-----------------||
B|-----------------|-----------------|-----------------|-----------------||
G|-----------------|-----------------|-----------------|-----------------||
D|-2---2---2-2-2-2-|---2-2---2-2-2-2-|-6---6---6-6-6-7~|----(7)\\\-------||
A|-2---2---2-2-2-2-|---2-2---2-2-2-2-|-7---7---7-7-7-7~|----(7)\\\-------||
E|-0---0---0-0-0-0-|---0-0---0-0-0-0-|-4---4---4-4-4-5~|----(5)\\\-------||
   1 + 2 + 3 + 4 +   1 + 2 + 3 + 4 +   1 + 2 + 3 + 4 +   1 + 2 + 3 + 4 + 
comments
We did not receive enough feedback on this tab! Please rate:
print report bad tab
1 2 3 4 5
2 comments total.
0 reply
guitar-noob=P wrote on April 18 2010, 11:16 am

awesome, strumming n all, seems a lil over complicated tho or maybe its just me

0 reply
guitar-noob=P wrote on April 18 2010, 11:48 am

ah ye this is what is on the record, live they play it different tho, i only hear n see one guitar on there live videos this is awesome

I want to post or [tab]
guest
You may want to rate the tab now too:
select rating
Please do not post tabs as comments. Select "correction" instead!