Oops, an error
Loading. Please wait.

Time To Waste Tab

ver4
ver4

Whole song

More versions @911Tabs.com
5,517 views 1 this week
3 commentsread comments
1 2 3 4 5
accurate
x 4
Autoscroll
+/-
esc
set tempo
stop
Contributor
WARNING: You are trying to view
                                    content from Ultimate-Guitar.com
                                    in an unauthorized application,
                                    which is prohibited.

                                    Please use an official Ultimate
                                    Guitar Tabs application for iPhone,
                                    iPad or Android to access legitimate
                                    chords, guitar, bass, and drum tabs
                                    from Ultimate-Guitar.com database.

                                    Type "ultimate guitar tabs" in Apple
                                    App Store's or Android Market's
                                    search to find the application.
TIME TO WASTE
As recorded by Alkaline Trio
(From the 2005 Album CRIMSON)

Gtr I (E A D G B E) - 'Guitar 1'
Gtr II (E A D G B E) - 'Guitar 2'
Gtr III (D A D G B E) - 'Piano One'
Gtr IV (E A D G B E) - 'Piano Two'
Gtr V (D A D G B E) - 'Piano Three (octave higher)'
Gtr VI (D A D G B E) - 'Piano Four '

   Piano Intro
    Q=127
    N.C.
   4/4
    Gtr III
||-----------------|-------------|---------------|--------------||
||o----------------|-------------|---------------|-------------o||
||-----------------|-------------|---------------|--------------||
||---4---4----4----|-(4)---------|-0---0----0----|-(0)----------||
||o----4---4-------|-------------|---0---0-------|-------------o||
||---4-------------|-------------|-0-------------|--------------||
|
|   Gtr IV
||-----------------|-------------|---------------|--------------||
||o----------10----|--9-----7----|---------10----|--9-----7----o||
||--11-------------|-------------|-7-------------|--------------||
||-----------------|-------------|---------------|--------------||
||o----------------|-------------|---------------|-------------o||
||-----------------|-------------|---------------|--------------||


|-----------------2-|--5-2--------------|
|---------------2---|------2----2-------|
|--------2----2-----|--------2----2-----|
|------4----4-------|---------------4---|
|----4--------------|-----------------4-|
|--4----------------|-------------------|
|
|-14----------------|-------------------|
|----------22-------|-21-------19-------|
|-------------------|-------------------|
|-------------------|-------------------|
|-------------------|-------------------|
|-------------------|-------------------|
|
| Gtr VI
|-------------------|-------------------|
|-------------------|-------------------|
|-----------2-------|-----------2-------|
|------4------4---4-|------4------4---4-|
|----4---4------4---|----4---4------4---|
|--4----------------|--4----------------|


                                          Gtr V
|-----------------5-|----5-10-14-22-26-29-21--|
|---------------7---|--7----------------------|
|--------7----7-----|-------------------------|
|------0----0-------|-------------------------|
|----0--------------|-------------------------|
|--0----------------|-------------------------|
|
|-10----------------|-------------------------|
|----------22-------|-21---------19-----------|
|-------------------|-------------------------|
|-------------------|-------------------------|
|-------------------|-------------------------|
|-------------------|-------------------------|
|
|-------------------|-------------------------|
|-------------------|-------------------------|
|-----------7-------|-------------7-----------|
|------0------0---0-|-------0--------0-----0--|
|----0---0------0---|----0-----0--------0-----|
|--0----------------|--0----------------------|


  Gtr III                                Gtr
|-29----------------|---9-10-14-22-26-29-21-|
|-------------------|-----------------------|
|-------------------|-----------------------|
|-------------------|-----------------------|
|-------------------|-----------------------|
|-------------------|-----------------------|
|
|-------------------|-----------------------|
|----------10-------|-9----------7----------|
|-11----------------|-----------------------|
|-------------------|-----------------------|
|-------------------|-----------------------|
|-------------------|-----------------------|
|
|-------------------|-----------------------|
|-------------------|-----------------------|
|-----------2-------|------------2----------|
|------4------4---4-|------4--------4-----4-|
|----4---4------4---|---4-----4--------4----|
|--4----------------|-4---------------------|


 VGtr III
|---------29-26------26-22------|-22-17------17-14------10-5-----5-(5)--||
|-----------------27---------22-|---------21---------15--------7--------||
|-------------------------------|---------------------------------------||
|-------------------------------|---------------------------------------||
|-------------------------------|---------------------------------------||
|-------------------------------|---------------------------------------||
|
|-------------------------------|---------------------------------------||
|---------10--------------------|--9---------------------7--------------||
|-7-----------------------------|---------------------------------------||
|-------------------------------|---------------------------------------||
|-------------------------------|---------------------------------------||
|-------------------------------|---------------------------------------||
|
|-------------------------------|---------------------------------------||
|-------------------------------|---------------------------------------||
|----------7--------------------|------------------------7--------------||
|-----0---------0----------0----|-------------0--------------0------0---||
|---0---0-------------0---------|-------0----------0-------------0------||
|-0-----------------------------|--0------------------------------------||


 Intro
  F#5
  Gtr I
|-------------------|--------------------|
|-------------------|--------------------|
|-------------------|--------------------|
|--4----------------|-(4)----------------|
|-------------------|--------------------|
|--2----------------|-(2)----------------|
|
|-14----------------|--------------------|
|----------22-------|-21--------19-------|
|-------------------|--------------------|
|-------------------|--------------------|
|-------------------|--------------------|
|-------------------|--------------------|
|
|-------------------|--------------------|
|-------------------|--------------------|
|-----------2-------|------------2-------|
|------4------4---4-|-------4------4---4-|
|----4---4------4---|-----4---4------4---|
|--4----------------|--4-----------------|


|--------------------|---------------------|
|--------------------|---------------------|
|--------------------|---------------------|
|-(4)----------------|-(4)-----------------|
|--------------------|---------------------|
|-(2)----------------|-(2)-----------------|
|
|-10-----------------|---------------------|
|-----------22-------|-21--------19--------|
|--------------------|---------------------|
|--------------------|---------------------|
|--------------------|---------------------|
|--------------------|---------------------|
|
|--------------------|---------------------|
|--------------------|---------------------|
|------------7-------|------------7--------|
|-------0------0---0-|-------0------0---0--|
|-----0---0------0---|-----0---0------0----|
|--0-----------------|--0------------------|


     F#5
    Gtr I
||-----------------------------------------|
||o----------------------------------------|
||-----------------14-14-14-14-14-14-14-14-|
||---4-4-4-4-4-4-4-------------------------|
||o--4-4-4-4-4-4-4-12-12-12-12-12-12-12-12-|
||---2-2-2-2-2-2-2-------------------------|
|
|   Gtr II
||-----------------------------------------|
||o----------------------------------------|
||-----------------------------------------|
||---4-4-4-4-4-4-4--4--4--4--4--4--4--4--4-|
||o--4-4-4-4-4-4-4--4--4--4--4--4--4--4--4-|
||---2-2-2-2-2-2-2--2--2--2--2--2--2--2--2-|


|-----------------------------------------------|
|-----------------------------------------------|
|--13-13-13-13-13-13-13-11-11-11-11-11-11-11-11-|
|-----------------------------------------------|
|--11-11-11-11-11-11-11--9--9--9--9--9--9--9--9-|
|-----------------------------------------------|
|
|-----------------------------------------------|
|-----------------------------------------------|
|-----------------------------------------------|
|---4--4--4--4--4--4--4--4--4--4--4--4--4--4--4-|
|---4--4--4--4--4--4--4--4--4--4--4--4--4--4--4-|
|---2--2--2--2--2--2--2--2--2--2--2--2--2--2--2-|


   D5
|----------------------------------------|
|----------------------------------------|
|--7-7-7-7-7-7-7-14-14-14-14-14-14-14-14-|
|--7-7-7-7-7-7-7-------------------------|
|--5-5-5-5-5-5-5-12-12-12-12-12-12-12-12-|
|----------------------------------------|
|
|----------------------------------------|
|----------------------------------------|
|--7-7-7-7-7-7-7--7--7--7--7--7--7--7--7-|
|--7-7-7-7-7-7-7--7--7--7--7--7--7--7--7-|
|--5-5-5-5-5-5-5--5--5--5--5--5--5--5--5-|
|----------------------------------------|


|-----------------------------------------||
|----------------------------------------o||
|--13-13-13-13-13-13-13-7-7-7-7-7-7-7-7---||
|-----------------------------------------||
|--11-11-11-11-11-11-11-5-5-5-5-5-5-5-5--o||
|-----------------------------------------||
|
|-----------------------------------------||
|----------------------------------------o||
|---7--7--7--7--7--7--7-7-7-7-7-7-7-7-7---||
|---7--7--7--7--7--7--7-7-7-7-7-7-7-7-7---||
|---5--5--5--5--5--5--5-5-5-5-5-5-5-5-5--o||
|-----------------------------------------||


   Verse
    F#5                                  E5
    Gtr I
||-----------|------------|------------|-------||
||o----------|------------|------------|------o||
||-----------|------------|------------|-------||
||--4--------|-(4)--------|-(4)--------|-2-----||
||o-4--------|-(4)--------|-(4)--------|-2----o||
||--2--------|-(2)--------|-(2)--------|-0-----||


  F#5        G#5  A5     F#5        E5
|----------|-----------|----------|------|
|----------|-----------|----------|------|
|----------|-----------|----------|------|
|-4--------|-6----7----|-4--------|-2----|
|----------|-----------|----------|-2----|
|-2--------|-4----5----|-2--------|-0----|


  F#5        G#5  A5     D5         E5VIID5
|----------|-----------|----------|-----------||
|----------|-----------|----------|-----------||
|----------|-----------|-7--------|-9----7----||
|-4--------|-6----7----|-7--------|-9----7----||
|----------|-----------|-5--------|-7----5----||
|-2--------|-4----5----|----------|-----------||


   Chorus
    A5
||----------------------------------|---------------------------------|
||o---------------------------------|---------------------------------|
||----------------------------------|---------------------------------|
||--7-7-7-7-7-7-7-7-7-7-7-7-7-7-7-7-|-7-7-7-7-7-7-7-7-7-7-7-7-7-7-7-7-|
||o-7-7-7-7-7-7-7-7-7-7-7-7-7-7-7-7-|-7-7-7-7-7-7-7-7-7-7-7-7-7-7-7-7-|
||--5-5-5-5-5-5-5-5-5-5-5-5-5-5-5-5-|-5-5-5-5-5-5-5-5-5-5-5-5-5-5-5-5-|


  F#5                               D5
                                                                      3x
|---------------------------------|-----------------------------------||
|---------------------------------|----------------------------------o||
|---------------------------------|-7-7-7-7-7-7-7-7-7-7-7-7-7-7-7-7---||
|-4-4-4-4-4-4-4-4-4-4-4-4-4-4-4-4-|-7-7-7-7-7-7-7-7-7-7-7-7-7-7-7-7---||
|-4-4-4-4-4-4-4-4-4-4-4-4-4-4-4-4-|-5-5-5-5-5-5-5-5-5-5-5-5-5-5-5-5--o||
|-2-2-2-2-2-2-2-2-2-2-2-2-2-2-2-2-|-----------------------------------||


  A5
|---------------------------------|----------------------------------|
|---------------------------------|----------------------------------|
|---------------------------------|----------------------------------|
|-7-7-7-7-7-7-7-7-7-7-7-7-7-7-7-7-|-7-7-7-7-7-7-7-7-7-7-7-7-7-7-7-7--|
|-7-7-7-7-7-7-7-7-7-7-7-7-7-7-7-7-|-7-7-7-7-7-7-7-7-7-7-7-7-7-7-7-7--|
|-5-5-5-5-5-5-5-5-5-5-5-5-5-5-5-5-|-5-5-5-5-5-5-5-5-5-5-5-5-5-5-5-5--|


  F#5                               A/C# D5
|---------------------------------|-----------||
|---------------------------------|-----------||
|---------------------------------|-----------||
|-4-4-4-4-4-4-4-4-4-4-4-4-4-4-4-4-|-7----7----||
|-4-4-4-4-4-4-4-4-4-4-4-4-4-4-4-4-|-4----5----||
|-2-2-2-2-2-2-2-2-2-2-2-2-2-2-2-2-|-----------||


 Bridge
   F#5
|--------------------------------|---------------------------------|
|--------------------------------|---------------------------------|
|--------------------------------|--9-9-9-9-9-9-9-9-9-9-9-9-9-9-9--|
|--4-4-4-4-4-4-4-4-4-4-4-4-4-4-4-|---------------------------------|
|--4-4-4-4-4-4-4-4-4-4-4-4-4-4-4-|--7-7-7-7-7-7-7-7-7-7-7-7-7-7-7--|
|--2-2-2-2-2-2-2-2-2-2-2-2-2-2-2-|---------------------------------|
|
| Gtr II
|--------------------------------|---------------------------------|
|--------------------------------|---------------------------------|
|--------------------------------|---------------------------------|
|--4-4-4-4-4-4-4-4-4-4-4-4-4-4-4-|--4-4-4-4-4-4-4-4-4-4-4-4-4-4-4--|
|--4-4-4-4-4-4-4-4-4-4-4-4-4-4-4-|--4-4-4-4-4-4-4-4-4-4-4-4-4-4-4--|
|--2-2-2-2-2-2-2-2-2-2-2-2-2-2-2-|--2-2-2-2-2-2-2-2-2-2-2-2-2-2-2--|


                                                  F#5       G#5       E5
|-----------------------------------------------|---------------------------||
|-----------------------------------------------|---------------------------||
|--11-11-11-11-11-11-11-11-11-11-11-11-11-11-11-|---------------------------||
|-----------------------------------------------|-4-(4)-(4)-6-(6)-(6)-2-(2)-||
|---9--9--9--9--9--9--9--9--9--9--9--9--9--9--9-|-4-(4)-(4)-6-(6)-(6)-2-(2)-||
|-----------------------------------------------|-2-(2)-(2)-4-(4)-(4)-0-(0)-||
|
|-----------------------------------------------|---------------------------||
|-----------------------------------------------|---------------------------||
|-----------------------------------------------|---------------------------||
|---4--4--4--4--4--4--4--4--4--4--4--4--4--4--4-|-4-(4)-(4)-6-(6)-(6)-2-(2)-||
|---4--4--4--4--4--4--4--4--4--4--4--4--4--4--4-|-4-(4)-(4)-6-(6)-(6)-2-(2)-||
|---2--2--2--2--2--2--2--2--2--2--2--2--2--2--2-|-2-(2)-(2)-4-(4)-(4)-0-(0)-||


   Verse
    F#5                                  E5
||-----------|------------|------------|-------||
||o----------|------------|------------|------o||
||-----------|------------|------------|-------||
||--4--------|-(4)--------|-(4)--------|-2-----||
||o-4--------|-(4)--------|-(4)--------|-2----o||
||--2--------|-(2)--------|-(2)--------|-0-----||


  F#5        G#5  A5     F#5        E5
|----------|-----------|----------|------|
|----------|-----------|----------|------|
|----------|-----------|----------|------|
|-4--------|-6----7----|-4--------|-2----|
|----------|-----------|----------|-2----|
|-2--------|-4----5----|-2--------|-0----|


  F#5        G#5  A5     D5         E5VIID5
|----------|-----------|----------|-----------||
|----------|-----------|----------|-----------||
|----------|-----------|-7--------|-9----7----||
|-4--------|-6----7----|-7--------|-9----7----||
|----------|-----------|-5--------|-7----5----||
|-2--------|-4----5----|----------|-----------||


   Chorus
    A5
||----------------------------------|---------------------------------|
||o---------------------------------|---------------------------------|
||----------------------------------|---------------------------------|
||--7-7-7-7-7-7-7-7-7-7-7-7-7-7-7-7-|-7-7-7-7-7-7-7-7-7-7-7-7-7-7-7-7-|
||o-7-7-7-7-7-7-7-7-7-7-7-7-7-7-7-7-|-7-7-7-7-7-7-7-7-7-7-7-7-7-7-7-7-|
||--5-5-5-5-5-5-5-5-5-5-5-5-5-5-5-5-|-5-5-5-5-5-5-5-5-5-5-5-5-5-5-5-5-|


  F#5                               D5
                                                                      3x
|---------------------------------|-----------------------------------||
|---------------------------------|----------------------------------o||
|---------------------------------|-7-7-7-7-7-7-7-7-7-7-7-7-7-7-7-7---||
|-4-4-4-4-4-4-4-4-4-4-4-4-4-4-4-4-|-7-7-7-7-7-7-7-7-7-7-7-7-7-7-7-7---||
|-4-4-4-4-4-4-4-4-4-4-4-4-4-4-4-4-|-5-5-5-5-5-5-5-5-5-5-5-5-5-5-5-5--o||
|-2-2-2-2-2-2-2-2-2-2-2-2-2-2-2-2-|-----------------------------------||


  A5
|---------------------------------|----------------------------------|
|---------------------------------|----------------------------------|
|---------------------------------|----------------------------------|
|-7-7-7-7-7-7-7-7-7-7-7-7-7-7-7-7-|-7-7-7-7-7-7-7-7-7-7-7-7-7-7-7-7--|
|-7-7-7-7-7-7-7-7-7-7-7-7-7-7-7-7-|-7-7-7-7-7-7-7-7-7-7-7-7-7-7-7-7--|
|-5-5-5-5-5-5-5-5-5-5-5-5-5-5-5-5-|-5-5-5-5-5-5-5-5-5-5-5-5-5-5-5-5--|


  F#5                               A/C# D5
                                               2/4
|---------------------------------|-----------|--------||
|---------------------------------|-----------|--------||
|---------------------------------|-----------|--------||
|-4-4-4-4-4-4-4-4-4-4-4-4-4-4-4-4-|-7----7----|-(7)----||
|-4-4-4-4-4-4-4-4-4-4-4-4-4-4-4-4-|-4----5----|-(5)----||
|-2-2-2-2-2-2-2-2-2-2-2-2-2-2-2-2-|-----------|--------||


 Interlude
  F#5
 4/4
   >
|-------------------------------------|-------------------------------|
|-------------------------------------|-------------------------------|
|-------------------------------------|-------------------------------|
|--4----------------------------------|-(4)---------------------------|
|--4----------------------------------|-(4)---------------------------|
|--2----------------------------------|-(2)---------------------------|
|
| Gtr III
|-------------------------------------|-------------------------------|
|-------------------10-(10)-(10)-(10)-|--9--(9)-(9)-(9)-7-(7)-(7)-(7)-|
|-11-(11)-(11)-(11)--2----------------|-----------------2-------------|
|-----------4------------4---------4--|----------4---------4-------4--|
|------4---------4------------4-------|------4-------4---------4------|
|--4----------------------------------|--4----------------------------|


|-----------------------------------|-------------------------------|
|-----------------------------------|-------------------------------|
|-----------------------------------|-------------------------------|
|-(4)-------------------------------|-(4)---------------------------|
|-(4)-------------------------------|-(4)---------------------------|
|-(2)-------------------------------|-(2)---------------------------|
|
|-----------------------------------|-------------------------------|
|-----------------10-(10)-(10)-(10)-|--9--(9)-(9)-(9)-7-(7)-(7)-(7)-|
|--7--(7)-(7)-(7)--7----------------|-----------------7-------------|
|----------0-----------0---------0--|----------0---------0-------0--|
|------0-------0------------0-------|------0-------0---------0------|
|--0--------------------------------|--0----------------------------|


     F#5                                        N.C.
|---------------------------------------------|-----------------------------|
|---------------------------------------------|-----------------------------|
|---------------------------------------------|-----------------------------|
|----4---4--4---4--4---4--4-------------------|-----------------------------|
|----4---4--4---4--4---4--4-------------------|-----------------------------|
|----2---2--2---2--2---2--2-------------------|-----------------------------|
|
|---------------------------------------------|-----------------------------|
|---------------------------10-(10)-(10)-(10)-|-9-(9)-(9)-(9)-7-(7)-(7)-(7)-|
|-11---(11)---(11)---(11)----2----------------|---------------2-------------|
|---------------4----------------4---------4--|--------4---------4-------4--|
|--------4-------------4--------------4-------|----4-------4---------4------|
|--4------------------------------------------|-4---------------------------|


|---------------------------------|------------------------------|
|---------------------------------|------------------------------|
|---------------------------------|------------------------------|
|---------------------------------|------------------------------|
|---------------------------------|------------------------------|
|---------------------------------|------------------------------|
|
|---------------------------------|------------------------------|
|---------------10-(10)-(10)-(10)-|-9-(9)-(9)-(9)-7-(7)-(7)-(7)--|
|-7-(7)-(7)-(7)--7----------------|---------------7--------------|
|--------0-----------0---------0--|--------0---------0-------0---|
|----0-------0------------0-------|----0-------0---------0-------|
|-0-------------------------------|-0----------------------------|


     F#5                    N.C.
|---------------------------------------------------------|
|---------------------------------------------------------|
|---------------------------14-14--14--14--14--14--14--14-|
|----4---4--4---4--4---4--4-------------------------------|
|----4---4--4---4--4---4--4-12-12--12--12--12--12--12--12-|
|----2---2--2---2--2---2--2-------------------------------|
|
| Gtr II
|---------------------------------------------------------|
|---------------------------------------------------------|
|---------------------------------------------------------|
|----4---4--4---4--4---4--4-------------------------------|
|----4---4--4---4--4---4--4-------------------------------|
|----2---2--2---2--2---2--2-------------------------------|
|
| Gtr III
|---------------------------------------------------------|
|---------------------------10----(10)----(10)----(10)----|
|-11---(11)---(11)---(11)----2----------------------------|
|---------------4-------------------4---------------4-----|
|--------4-------------4--------------------4-------------|
|--4------------------------------------------------------|


|-------------------------------------------------------|
|-------------------------------------------------------|
|---13-13--13-13--13-13--13-11-11-11--11-11--11-11--11--|
|-------------------------------------------------------|
|---11-11--11-11--11-11--11--9--9--9---9--9---9--9---9--|
|-------------------------------------------------------|
|
|-------------------------------------------------------|
|-------------------------------------------------------|
|-------------------------------------------------------|
|-------------------------------------------------------|
|-------------------------------------------------------|
|-------------------------------------------------------|
|
|-------------------------------------------------------|
|-9----(9)----(9)----(9)-----7----(7)----(7)----(7)-----|
|----------------------------2--------------------------|
|--------------4-------------------4-------------4------|
|-------4-------------4-------------------4-------------|
|-4-----------------------------------------------------|


    D5                  N.C.
|-----------------------------------------------------|
|-----------------------------------------------------|
|---7--7--7--7--7--7--7-14-14--14--14--14--14--14--14-|
|---7--7--7--7--7--7--7-------------------------------|
|---5--5--5--5--5--5--5-12-12--12--12--12--12--12--12-|
|-----------------------------------------------------|
|
|-----------------------------------------------------|
|-----------------------------------------------------|
|---7--7--7--7--7--7--7-------------------------------|
|---7--7--7--7--7--7--7-------------------------------|
|---5--5--5--5--5--5--5-------------------------------|
|-----------------------------------------------------|
|
|-----------------------------------------------------|
|-----------------------10----(10)----(10)----(10)----|
|-7---(7)---(7)---(7)----7----------------------------|
|------------0------------------0---------------0-----|
|------0-----------0--------------------0-------------|
|-0---------------------------------------------------|


|--------------------------------------------------|
|--------------------------------------------------|
|---13-13--13-13--13-13--13-7-7--7--7--7--7--7--7--|
|--------------------------------------------------|
|---11-11--11-11--11-11--11-5-5--5--5--5--5--5--5--|
|--------------------------------------------------|
|
|--------------------------------------------------|
|--------------------------------------------------|
|--------------------------------------------------|
|--------------------------------------------------|
|--------------------------------------------------|
|--------------------------------------------------|
|
|--------------------------------------------------|
|-9----(9)----(9)----(9)----7---(7)---(7)---(7)----|
|---------------------------7----------------------|
|--------------0-----------------0-----------0-----|
|-------0-------------0----------------0-----------|
|-0------------------------------------------------|


    D#5VI               N.C.
|-----------------------------------------------------|
|-----------------------------------------------------|
|---8--8--8--8--8--8--8-14-14--14--14--14--14--14--14-|
|---8--8--8--8--8--8--8-------------------------------|
|---6--6--6--6--6--6--6-12-12--12--12--12--12--12--12-|
|-----------------------------------------------------|
|
|-----------------------------------------------------|
|-----------------------------------------------------|
|---8--8--8--8--8--8--8-------------------------------|
|---8--8--8--8--8--8--8-------------------------------|
|---6--6--6--6--6--6--6-------------------------------|
|-----------------------------------------------------|
|
|-----------------------------------------------------|
|-----------------------10----(10)----(10)----(10)----|
|-8---(8)---(8)---(8)----8----------------------------|
|------------1------------------1---------------1-----|
|------1-----------1--------------------1-------------|
|-1---------------------------------------------------|


|-------------------------------------------------------|
|-------------------------------------------------------|
|---13-13--13-13--13-13--13-11-11-11--11-11--11-11--11--|
|-------------------------------------------------------|
|---11-11--11-11--11-11--11--9--9--9---9--9---9--9---9--|
|-------------------------------------------------------|
|
|-------------------------------------------------------|
|-------------------------------------------------------|
|-------------------------------------------------------|
|-------------------------------------------------------|
|-------------------------------------------------------|
|-------------------------------------------------------|
|
|-------------------------------------------------------|
|-9----(9)----(9)----(9)-----7----(7)----(7)----(7)-----|
|----------------------------8--------------------------|
|--------------1-------------------1-------------1------|
|-------1-------------1-------------------1-------------|
|-1-----------------------------------------------------|


    D5                  N.C.                            E5VIID5
|-----------------------------------------------------|-----------||
|-----------------------------------------------------|-----------||
|---7--7--7--7--7--7--7-14-14--14--14--14--14--14--14-|-9----7----||
|---7--7--7--7--7--7--7-------------------------------|-9----7----||
|---5--5--5--5--5--5--5-12-12--12--12--12--12--12--12-|-7----5----||
|-----------------------------------------------------|-----------||
|
|-----------------------------------------------------|-----------||
|-----------------------------------------------------|-----------||
|---7--7--7--7--7--7--7-------------------------------|-9----7----||
|---7--7--7--7--7--7--7-------------------------------|-9----7----||
|---5--5--5--5--5--5--5-------------------------------|-7----5----||
|-----------------------------------------------------|-----------||
|
|-----------------------------------------------------|-----------||
|-----------------------10----(10)----(10)----(10)----|-----------||
|-7---(7)---(7)---(7)----7----------------------------|-----------||
|------------0------------------0---------------0-----|-----------||
|------0-----------0--------------------0-------------|-----------||
|-0---------------------------------------------------|-----------||


   Chorus
    A5
||----------------------------------|---------------------------------|
||o---------------------------------|---------------------------------|
||----------------------------------|---------------------------------|
||--7-7-7-7-7-7-7-7-7-7-7-7-7-7-7-7-|-7-7-7-7-7-7-7-7-7-7-7-7-7-7-7-7-|
||o-7-7-7-7-7-7-7-7-7-7-7-7-7-7-7-7-|-7-7-7-7-7-7-7-7-7-7-7-7-7-7-7-7-|
||--5-5-5-5-5-5-5-5-5-5-5-5-5-5-5-5-|-5-5-5-5-5-5-5-5-5-5-5-5-5-5-5-5-|


  F#5                               D5
                                                                      3x
|---------------------------------|-----------------------------------||
|---------------------------------|----------------------------------o||
|---------------------------------|-7-7-7-7-7-7-7-7-7-7-7-7-7-7-7-7---||
|-4-4-4-4-4-4-4-4-4-4-4-4-4-4-4-4-|-7-7-7-7-7-7-7-7-7-7-7-7-7-7-7-7---||
|-4-4-4-4-4-4-4-4-4-4-4-4-4-4-4-4-|-5-5-5-5-5-5-5-5-5-5-5-5-5-5-5-5--o||
|-2-2-2-2-2-2-2-2-2-2-2-2-2-2-2-2-|-----------------------------------||


  A5
|---------------------------------|----------------------------------|
|---------------------------------|----------------------------------|
|---------------------------------|----------------------------------|
|-7-7-7-7-7-7-7-7-7-7-7-7-7-7-7-7-|-7-7-7-7-7-7-7-7-7-7-7-7-7-7-7-7--|
|-7-7-7-7-7-7-7-7-7-7-7-7-7-7-7-7-|-7-7-7-7-7-7-7-7-7-7-7-7-7-7-7-7--|
|-5-5-5-5-5-5-5-5-5-5-5-5-5-5-5-5-|-5-5-5-5-5-5-5-5-5-5-5-5-5-5-5-5--|


  F#5                               A/C# D5
|---------------------------------|-----------||
|---------------------------------|-----------||
|---------------------------------|-----------||
|-4-4-4-4-4-4-4-4-4-4-4-4-4-4-4-4-|-7----7----||
|-4-4-4-4-4-4-4-4-4-4-4-4-4-4-4-4-|-4----5----||
|-2-2-2-2-2-2-2-2-2-2-2-2-2-2-2-2-|-----------||


 Outro
   F#5
|--------------------------------|---------------------------------|
|--------------------------------|---------------------------------|
|--------------------------------|---------------------------------|
|--4-4-4-4-4-4-4-4-4-4-4-4-4-4-4-|--4-4-4-4-4-4-4-4-4-4-4-4-4-4-4--|
|--4-4-4-4-4-4-4-4-4-4-4-4-4-4-4-|--4-4-4-4-4-4-4-4-4-4-4-4-4-4-4--|
|--2-2-2-2-2-2-2-2-2-2-2-2-2-2-2-|--2-2-2-2-2-2-2-2-2-2-2-2-2-2-2--|
|
| Gtr II
|--------------------------------|---------------------------------|
|--------------------------------|---------------------------------|
|--------------------------------|---------------------------------|
|--4-4-4-4-4-4-4-4-4-4-4-4-4-4-4-|--4-4-4-4-4-4-4-4-4-4-4-4-4-4-4--|
|--4-4-4-4-4-4-4-4-4-4-4-4-4-4-4-|--4-4-4-4-4-4-4-4-4-4-4-4-4-4-4--|
|--2-2-2-2-2-2-2-2-2-2-2-2-2-2-2-|--2-2-2-2-2-2-2-2-2-2-2-2-2-2-2--|


|--------------------------------|
|--------------------------------|
|--9-9-9-9-9-9-9-9-9-9-9-9-9-9-9-|
|--------------------------------|
|--7-7-7-7-7-7-7-7-7-7-7-7-7-7-7-|
|--------------------------------|
|
|--------------------------------|
|--------------------------------|
|--------------------------------|
|--4-4-4-4-4-4-4-4-4-4-4-4-4-4-4-|
|--4-4-4-4-4-4-4-4-4-4-4-4-4-4-4-|
|--2-2-2-2-2-2-2-2-2-2-2-2-2-2-2-|


|------------------------------------------------*|
|------------------------------------------------*|
|--11-11-11-11-11-11-11-11-11-11-11-11-11-11-11--*|
|------------------------------------------------*|
|---9--9--9--9--9--9--9--9--9--9--9--9--9--9--9--*|
|------------------------------------------------*|
|
|------------------------------------------------*|
|------------------------------------------------*|
|------------------------------------------------*|
|---4--4--4--4--4--4--4--4--4--4--4--4--4--4--4--*|
|---4--4--4--4--4--4--4--4--4--4--4--4--4--4--4--*|
|---2--2--2--2--2--2--2--2--2--2--2--2--2--2--2--*|



Tablature Legend
----------------
 h   - hammer-on
 p   - pull-off
 b   - bend
 pb  - pre-bend
 r   - bend release (if no number after the r, then release immediately)
 /\  - slide into or out of (from/to "nowhere")
 s   - legato slide
 S   - shift slide
 - natural harmonic
[n]  - artificial harmonic
n(n) - tapped harmonic
 ~   - vibrato
 tr  - trill
 T   - tap
 TP  - trem. picking
 PM  - palm muting
\n/  - tremolo bar dip; n = amount to dip
 \n  - tremolo bar down
 n/  - tremolo bar up
/n\  - tremolo bar inverted dip
 =   - hold bend; also acts as connecting device for hammers/pulls
 <> - volume swell (louder/softer)
 x   - on rhythm slash represents muted slash
 o   - on rhythm slash represents single note slash

Misc Legend
-----------
 |  - bar
||  - double bar
||o - repeat start
o|| - repeat end
*|  - double bar (ending)
 :  - bar (freetime)
 $  - Segno
 &  - Coda
Tempo markers -  = BPM(8/16=s8/s16), where s8 = swing 8ths, s16 = swing 16ths
3 comments total.
0 reply
avenged7foldrox wrote on October 29 2005, 03:08 pm

terrible


hey im the first one to write a comment
sweet

0 reply
dan121212 wrote on February 2 2006, 03:08 pm

****in hell id just shoot yourslef u cant tell wats wat

0 reply
GuitaristDown! wrote on February 26 2008, 03:52 pm

Noobs should never write comments, they probably didn't notice the tuning, or that the intro is the piano.

Good piano and guitar tab. Except I have no 29th fret. haha. Is there any guitar with a 29th?

Good job.

I want to post or [tab]
guest
You may want to rate the tab now too:
select rating
Please do not post tabs as comments. Select "correction" instead!