Oops, an error
Loading. Please wait.

Dirty Little Secret Tab

ver6
28,713 views 15 this week
11 commentsread comments
1 2 3 4 5
accurate
x 10
Autoscroll
+/-
esc
set tempo
stop
Contributor
Hey! There's an official Ultimate Guitar app which is ideal
for learning songs when you're away from computer. Get the app
WARNING: You are trying to view
                                    content from Ultimate-Guitar.com
                                    in an unauthorized application,
                                    which is prohibited.

                                    Please use an official Ultimate
                                    Guitar Tabs application for iPhone,
                                    iPad or Android to access legitimate
                                    chords, guitar, bass, and drum tabs
                                    from Ultimate-Guitar.com database.

                                    Type "ultimate guitar tabs" in Apple
                                    App Store's or Android Market's
                                    search to find the application.
OK, Please don't hate, first Tab. This is how me and my band play
this song. It sounds perfect to us.

Tabbed By: Stephen
Email    : I_am_madness@hotmail.co.uk

Email for questions/ suggestions, and I'll get back shortly.

Ignore the names. Just our guitarists.


Tuning: Guitar One:  Standard (EADGBe)
        Guitar Two:  Standard (EADGBe)


Guitar One: (Stephen)  Overdrive.
--------------------------------


[0:00 - 0:04]


e|--------------------------------|
B|--------------------------------|
G|--------------------------------|
D|--------------------------------|
A|--------------------------------|
E|--------------------------------|


[0:04 - 0:15]


e|--------------------------------|
B|11--11--11--11--9---9p8h9p8-----|
G|-x---x---x---x--------------8---|
D|-8---8---8---8------------------|
A|--------------------------------|
E|--------------------------------|

e|--------------------------------|
B|----11-----11---9---9p8h9p8-----|
G|----------------------------8---|
D|-8------8-----------------------|
A|--------------------------------|
E|--------------------------------|

e|-------------------------------------------------|
B|----11-----11---9---9p8h9p8---11--9p8h9p8--------|
G|----------------------------8-------------8------|
D|-8------8----------------------------------------|
A|-------------------------------------------------|
E|-------------------------------------------------|


[0:15 - 0:29]

e|--------------------------------------------------------------------|
B|--------------------------------------------------------------------|
G|--------------------------------------------------------------------|
D|-8-8-8-8-8-8-8-8-7-7-7-7-7-7-7-7-5-5-5-5-5-5-5-5-5-5-5-5-5-5-5-5----|
A|-----------------8-8-8-8-8-8-8-8-----------------6-6-6-6-6-6-6-6----|
E|-6-6-6-6-6-6-6-6-----------------3-3-3-3-3-3-3-3--------------------|

e|--------------------------------------------------------------------|
B|--------------------------------------------------------------------|
G|--------------------------------------------------------------------|
D|-8-8-8-8-8-8-8-8-7-7-7-7-7-7-7-7-5-5-5-5-5-5-5-5-5-5-5-5-5-5-5-5----|
A|-----------------8-8-8-8-8-8-8-8-----------------6-6-6-6-6-6-6-6----|
E|-6-6-6-6-6-6-6-6-----------------3-3-3-3-3-3-3-3--------------------|


[0:29 - 0:42]


e|--------------------------------------------------------------------|
B|--------------------------------------------------------------------|
G|-5~--5-5---5~--5-5-----------------------8~--8-8---8~--8-8/10~------|
D|-5~--5-5---5~--5-5---5~--5-5---5~--5-5---8~--8-8---8~--8-8/10~------|
A|-3~--3-3---5~--3-5---5~--5-5---5~--5-5---6~--6-6---6~--6-6/8~-------|
E|---------------------3~--3-3---3~--3-3------------------------------|


e|--------------------------------------------------|
B|--------------------------------------------------|
G|-10-10-10-10-10-10-10-10-10-10-10-10-10-10-10-10--|
D|-10-10-10-10-10-10-10-10-10-10-10-10-10-10-10-10--|
A|--8--8--8--8--8--8--8--8--8--8--8--8--8--8--8--8--|
E|--------------------------------------------------|


[0:42 - 0:59]


e|-------------------------------------------------------------------|
B|-------------------------------------------------------------------|
G|-----------------8-8-8-8-8-8-8-8-----------------------------------|
D|-8-8-8-8-8-8-8-8-8-8-8-8-8-8-8-8-5-5-5-5-5-5-5-5-3-3-3-3-3-3-3-3---|
A|-8-8-8-8-8-8-8-8-6-6-6-6-6-6-6-6-5-5-5-5-5-5-5-5-3-3-3-3-3-3-3-3---|
E|-6-6-6-6-6-6-6-6-----------------3-3-3-3-3-3-3-3-1-1-1-1-1-1-1-1---|

e|-------------------------------------------------------------------|
B|-------------------------------------------------------------------|
G|-----------------8-8-8-8-8-8-8-8-----------------------------------|
D|-8-8-8-8-8-8-8-8-8-8-8-8-8-8-8-8-5-5-5-5-5-5-5-5-3-3-3-3-3-3-3-3---|
A|-8-8-8-8-8-8-8-8-6-6-6-6-6-6-6-6-5-5-5-5-5-5-5-5-3-3-3-3-3-3-3-3---|
E|-6-6-6-6-6-6-6-6-----------------3-3-3-3-3-3-3-3-1-1-1-1-1-1-1-1---|

e|-----------------|
B|-----------------|
G|-----------------|
D|-8---8---8---8~--|
A|-8---8---8---8~--|
E|-6---6---6---6~--|


[0:59 - 1:12] - PALM MUTED LIGHTLY


e|------------------------------------------------------------------------------------------|
B|-11-11-11-11-11-11-11-11-10-10-10-10-10-10-10-10-11-11-11-11-11-11-11-11-8-8-8-8-8-8-8-8--|
G|------------------------------------------------------------------------------------------|
D|------------------------------------------------------------------------------------------|
A|------------------------------------------------------------------------------------------|
E|------------------------------------------------------------------------------------------|

e|------------------------------------------------------------------------------------------|
B|-11-11-11-11-11-11-11-11-10-10-10-10-10-10-10-10-11-11-11-11-11-11-11-11-8-8-8-8-8-8-8-8--|
G|------------------------------------------------------------------------------------------|
D|------------------------------------------------------------------------------------------|
A|------------------------------------------------------------------------------------------|
E|------------------------------------------------------------------------------------------|


[1:12 - 1:25]


e|--------------------------------------------------------------------|
B|--------------------------------------------------------------------|
G|-5~--5-5---5~--5-5-----------------------8~--8-8---8~--8-8/10~------|
D|-5~--5-5---5~--5-5---5~--5-5---5~--5-5---8~--8-8---8~--8-8/10~------|
A|-3~--3-3---5~--3-5---5~--5-5---5~--5-5---6~--6-6---6~--6-6/8~-------|
E|---------------------3~--3-3---3~--3-3------------------------------|


e|--------------------------------------------------|
B|--------------------------------------------------|
G|-10-10-10-10-10-10-10-10-10-10-10-10-10-10-10-10--|
D|-10-10-10-10-10-10-10-10-10-10-10-10-10-10-10-10--|
A|--8--8--8--8--8--8--8--8--8--8--8--8--8--8--8--8--|
E|--------------------------------------------------|


[1:25 - 1:42]


e|-------------------------------------------------------------------|
B|-------------------------------------------------------------------|
G|-----------------8-8-8-8-8-8-8-8-----------------------------------|
D|-8-8-8-8-8-8-8-8-8-8-8-8-8-8-8-8-5-5-5-5-5-5-5-5-3-3-3-3-3-3-3-3---|
A|-8-8-8-8-8-8-8-8-6-6-6-6-6-6-6-6-5-5-5-5-5-5-5-5-3-3-3-3-3-3-3-3---|
E|-6-6-6-6-6-6-6-6-----------------3-3-3-3-3-3-3-3-1-1-1-1-1-1-1-1---|

e|-------------------------------------------------------------------|
B|-------------------------------------------------------------------|
G|-----------------8-8-8-8-8-8-8-8-----------------------------------|
D|-8-8-8-8-8-8-8-8-8-8-8-8-8-8-8-8-5-5-5-5-5-5-5-5-3-3-3-3-3-3-3-3---|
A|-8-8-8-8-8-8-8-8-6-6-6-6-6-6-6-6-5-5-5-5-5-5-5-5-3-3-3-3-3-3-3-3---|
E|-6-6-6-6-6-6-6-6-----------------3-3-3-3-3-3-3-3-1-1-1-1-1-1-1-1---|

e|-----------------|
B|-----------------|
G|-8---8---8---8---|
D|-8---8---8---8~--|
A|-6---6---6---6~--|
E|-----------------|


[1:42 - 2:02]

e|------------------------------------------------------------------|
B|------------------------------------------------------------------|
G|-----------------8-8-8-8-8-8-8-8-7-7-7-7-7-7-7-7-5-5-5-5-5-5-5-5--|
D|-5-5-5-5-5-5-5-5-8-8-8-8-8-8-8-8-7-7-7-7-7-7-7-7-5-5-5-5-5-5-5-5--|
A|-5-5-5-5-5-5-5-5-6-6-6-6-6-6-6-6-5-5-5-5-5-5-5-5-3-3-3-3-3-3-3-3--|
E|-3-3-3-3-3-3-3-3--------------------------------------------------|


e|-----------------------------------|
B|-----------------------------------|
G|---------8-8-8-8-7-7-7-7-5-5-5-5---|
D|-5-5-5-5-8-8-8-8-7-7-7-7-5-5-5-5---|
A|-5-5-5-5-6-6-6-6-5-5-5-5-3-3-3-3---|
E|-3-3-3-3---------------------------|


[2:02 - 2:16] - LIGHTLY PALM MUTED


e|------------------------------------------------------------------|
B|------------------------------------------------------------------|
G|------------------------------------------------------------------|
D|------------------------------------------------------------------|
A|-8-8-8-8-8-8-8-8-6-6-6-6-6-6-6-6-8-8-8-8-8-8-8-8-6-6-6-6-6-6-6-6--|
E|-6-6-6-6-6-6-6-0-4-4-4-4-4-4-4-4-6-6-6-6-6-6-6-0-4-4-4-4-4-4-4-4--|


e|------------------------------------------------------------------|
B|------------------------------------------------------------------|
G|------------------------------------------------------------------|
D|------------------------------------------------------------------|
A|-8-8-8-8-8-8-8-8-6-6-6-6-6-6-6-6-8-8-8-8-8-8-8-8-6-6-6-6-6-6-6-6--|
E|-6-6-6-6-6-6-6-0-4-4-4-4-4-4-4-4-6-6-6-6-6-6-6-0-4-4-4-4-4-4-4-4--|


[2:15 - 2:29] - LIGHTLY PALM MUTED UNTIL "|"


e|------------------------------------------------------------------|
B|------------------------------------------------------------------|
G|------------------------------------------------------------------|
D|-----------------5-5-5-5-5-5-5-5-5-5-5-5-5-5-5-5-4-4-4-4-4-4-4-4--|
A|-5-5-5-5-5-5-5-5-3-3-3-3-3-3-3-3-2-2-2-2-2-2-2-2-5-5-5-5-5-5-5-5--|
E|-3-3-3-3-3-3-3-3--------------------------------------------------|

e|---------------------------------|--------------------------------|
B|---------------------------------|------------11-10----11-10------|
G|---------------------------------|------------------10-------10~--|
D|-----------------5-5-5-5-5-5-5-5-|--------------------------------|
A|-5-5-5-5-5-5-5-5-3-3-3-3-3-3-3-3-|--------------------------------|
E|-3-3-3-3-3-3-3-3-----------------|--------------------------------|


[2:29 - 2:42]


e|-------------------------------------------------------------------|
B|-------------------------------------------------------------------|
G|-----------------8-8-8-8-8-8-8-8-----------------------------------|
D|-8-8-8-8-8-8-8-8-8-8-8-8-8-8-8-8-5-5-5-5-5-5-5-5-3-3-3-3-3-3-3-3---|
A|-8-8-8-8-8-8-8-8-6-6-6-6-6-6-6-6-5-5-5-5-5-5-5-5-3-3-3-3-3-3-3-3---|
E|-6-6-6-6-6-6-6-6-----------------3-3-3-3-3-3-3-3-1-1-1-1-1-1-1-1---|

e|-------------------------------------------------------------------|
B|-------------------------------------------------------------------|
G|-----------------8-8-8-8-8-8-8-8-----------------------------------|
D|-8-8-8-8-8-8-8-8-8-8-8-8-8-8-8-8-5-5-5-5-5-5-5-5-3-3-3-3-3-3-3-3---|
A|-8-8-8-8-8-8-8-8-6-6-6-6-6-6-6-6-5-5-5-5-5-5-5-5-3-3-3-3-3-3-3-3---|
E|-6-6-6-6-6-6-6-6-----------------3-3-3-3-3-3-3-3-1-1-1-1-1-1-1-1---|


[2:42 - 2:49]


e|--------------------------------------------------------------------|
B|--------------------------------------------------------------------|
G|-8-8-8-8-8-8-8-8-10-10-10-10-10-10-10-10-12-12-12-12-12-12-12-12/13~--|
D|-8-8-8-8-8-8-8-8-10-10-10-10-10-10-10-10-12-12-12-12-12-12-12-12/13~--|
A|-6-6-6-6-6-6-6-6--8--8--8--8--8--8--8--8-10-10-10-10-10-10-10-10/11~--|
E|---------------------------------------------------------------|


[2:49 - 3:13]

e|--------------------------------|
B|----11-----11---9---9p8h9p8-----|
G|----------------------------8---|
D|-8------8-----------------------|
A|--------------------------------|
E|--------------------------------|

e|--------------------------------|
B|----11-----11---9---9p8h9p8-----|
G|----------------------------10~-|
D|-8------8-----------------------|
A|--------------------------------|
E|--------------------------------|



Guitar Two: (Rob)  Overdrive.
--------------------------------

[0:00 - 0:15]

e|------------------------------------------------------------------|
B|------------------------------------------------------------------|
G|------------------------------------------------------------------|
D|-----8-------8---6---6p5h6p5----------8-------8---6---6p5h6p5-----|
A|-8-------8-------------------6----8-------8-------------------6---|
E|-6-------6------------------------6-------6-----------------------|

e|----------------------------------------------------------------------------------|
B|----------------------------------------------------------------------------------|
G|----------------------------------------------------------------------------------|
D|----------------------------------------------------------------------------------|
A|-8-8-8-8-8-8-8-8-6-6-6-6-6-6-6-6-8-8-8-8-8-8-8-8-6-6-6-6-6-6-6-6------------------|
E|-6-6-6-6-6-6-6-0-4-4-4-4-4-4-4-4-6-6-6-6-6-6-6-0-4-4-4-4-4-4-4-4-4-4-4-4-4-4-4-4--|


[0:15 - 0:29]


e|--------------------------------|
B|--------------------------------|
G|--------------------------------|
D|--------------------------------|
A|--------------------------------|
E|--------------------------------|


[0:29 - 0:42]


e|--------------------------------------------------------------------|
B|-------------------------------------------11-10----11-10-----------|
G|-------------------------------------------------10-------10~-------|
D|--------------------------------------------------------------------|
A|-----------------------------------------8--------------------------|
E|--------------------------------------------------------------------|

e|--------------------------------------------------|
B|--------------------------------------------------|
G|--------------------------------------------------|
D|--------------------------------------------------|
A|--------------------------------------------------|
E|--------------------------------------------------|


[0:42 - 0:59]

e|-------------------------------------------------------------------|
B|-------------------------------------------------------------------|
G|-----------------8-8-8-8-8-8-8-8-----------------------------------|
D|-8-8-8-8-8-8-8-8-8-8-8-8-8-8-8-8-5-5-5-5-5-5-5-5-3-3-3-3-3-3-3-3---|
A|-8-8-8-8-8-8-8-8-6-6-6-6-6-6-6-6-5-5-5-5-5-5-5-5-3-3-3-3-3-3-3-3---|
E|-6-6-6-6-6-6-6-0-----------------3-3-3-3-3-3-3-3-1-1-1-1-1-1-1-1---|

e|-------------------------------------------------------------------|
B|-------------------------------------------------------------------|
G|-----------------8-8-8-8-8-8-8-8-----------------------------------|
D|-8-8-8-8-8-8-8-8-8-8-8-8-8-8-8-8-5-5-5-5-5-5-5-5-3-3-3-3-3-3-3-3---|
A|-8-8-8-8-8-8-8-8-6-6-6-6-6-6-6-6-5-5-5-5-5-5-5-5-3-3-3-3-3-3-3-3---|
E|-6-6-6-6-6-6-6-0-----------------3-3-3-3-3-3-3-3-1-1-1-1-1-1-1-1---|

e|-----------------|
B|-----------------|
G|-----------------|
D|-8---8---8---8~--|
A|-8---8---8---8~--|
E|-6---6---6---6~--|


[0:59 - 1:12] - PALM MUTED SECOND HALF


e|--------------------------------------------------------------------|
B|--------------------------------------------------------------------|
G|-Not-palm-muted--and--Strum-Very-Hard-Here--------------------------|
D|-8~~~~~~~~~~~~~~~~~~~~~~~~~~~~~~~~~~~~~~~~~~~~~~~~~~~~~~~~~~~~~~----|
A|-8~~~~~~~~~~~~~~~~~~~~~~~~~~~~~~~~~~~~~~~~~~~~~~~~~~~~~~~~~~~~~~----|
E|-6~~~~~~~~~~~~~~~~~~~~~~~~~~~~~~~~~~~~~~~~~~~~~~~~~~~~~~~~~~~~~~----|

e|--------------------------------------------------------------------|
B|--------------------------------------------------------------------|
G|---------------------(Tens)-----------------------------------------|
D|----------------1010101010101010-----------------8-8-8-8-8-8-8-8----|
A|-8-8-8-8-8-8-8-8-8-8-8-8-8-8-8-8-5-5-5-5-5-5-5-5-6-6-6-6-6-6-6-6----|
E|-6-6-6-6-6-6-6-6-----------------3-3-3-3-3-3-3-3--------------------|
PALM MUTED HERE...................................................

[1:12 - 1:25]


e|--------------------------------------------------------------------|
B|-------------------------------------------11-10----11-10-----------|
G|-------------------------------------------------10-------10~-------|
D|--------------------------------------------------------------------|
A|-----------------------------------------8--------------------------|
E|--------------------------------------------------------------------|

e|--------------------------------------------------|
B|--------------------------------------------------|
G|--------------------------------------------------|
D|--------------------------------------------------|
A|--------------------------------------------------|
E|--------------------------------------------------|


[1:25 - 1:42]


e|-------------------------------------------------------------------|
B|-------------------------------------------------------------------|
G|-----------------8-8-8-8-8-8-8-8-----------------------------------|
D|-8-8-8-8-8-8-8-8-8-8-8-8-8-8-8-8-5-5-5-5-5-5-5-5-3-3-3-3-3-3-3-3---|
A|-8-8-8-8-8-8-8-8-6-6-6-6-6-6-6-6-5-5-5-5-5-5-5-5-3-3-3-3-3-3-3-3---|
E|-6-6-6-6-6-6-6-0-----------------3-3-3-3-3-3-3-3-1-1-1-1-1-1-1-1---|

e|-------------------------------------------------------------------|
B|-------------------------------------------------------------------|
G|-----------------8-8-8-8-8-8-8-8-----------------------------------|
D|-8-8-8-8-8-8-8-8-8-8-8-8-8-8-8-8-5-5-5-5-5-5-5-5-3-3-3-3-3-3-3-3---|
A|-8-8-8-8-8-8-8-8-6-6-6-6-6-6-6-6-5-5-5-5-5-5-5-5-3-3-3-3-3-3-3-3---|
E|-6-6-6-6-6-6-6-0-----------------3-3-3-3-3-3-3-3-1-1-1-1-1-1-1-1---|

e|-----------------|
B|-----------------|
G|-8---8---8---8~--|
D|-8---8---8---8~--|
A|-6---6---6---6~--|
E|-----------------|


[1:42 - 2:02]

e|----------------------------------------------------------------|
B|--8----------------------------/8---------------------8-10-10br-|
G|-----7-----------------------------7----5p4--5---7/9------------|
D|----------5---5/7---7---9/10------------------------------------|
A|----------------------------------------------------------------|
E|----------------------------------------------------------------|


[2:02 - 2:16]


e|--------------------------------------------------------------------|
B|----11-----11---9---9p8h9p8--------11-----11---9---9p8-------13b15--|
G|----------------------------8--------------------------10/12--------|
D|-8------8-----------------------8------8----------------------------|
A|--------------------------------------------------------------------|
E|--------------------------------------------------------------------|

e|------13--------13---11---11p10h11p10---------13--------13---11---11p10h11p10-----|
B|-11--------11-------------------------11-11--------11-------------------------11~-|
G|----------------------------------------------------------------------------------|
D|----------------------------------------------------------------------------------|
A|----------------------------------------------------------------------------------|
E|----------------------------------------------------------------------------------|


[2:15 - 2:29] - PALM MUTED


e|------------------------------------------------------------------|
B|------------------------------------------------------------------|
G|------------------------------------------------------------------|
D|------------------------------------------------------------------|
A|------------------------------------------------------------------|
E|------------------------------------------------------------------|

e|------------------------------------------------------------------|
B|------------------------------------------------------------------|
G|-----------------8-8-8-8-8-8-8------------------------------------|
D|-8-8-8-8-8-8-8---8-8-8-8-8-8-8---5-5-5-5-5-5-5---3-3-3-3-3-3-3/8--|
A|-8-8-8-8-8-8-8---6-6-6-6-6-6-6---5-5-5-5-5-5-5---3-3-3-3-3-3-3/8--|
E|-6-6-6-6-6-6-6-------------------3-3-3-3-3-3-3---1-1-1-1-1-1-1/6--|


[2:29 - 2:42]


e|-------------------------------------------------------------------|
B|-------------------------------------------------------------------|
G|-----------------8-8-8-8-8-8-8-8-----------------------------------|
D|-8-8-8-8-8-8-8-8-8-8-8-8-8-8-8-8-5-5-5-5-5-5-5-5-3-3-3-3-3-3-3-3---|
A|-8-8-8-8-8-8-8-8-6-6-6-6-6-6-6-6-5-5-5-5-5-5-5-5-3-3-3-3-3-3-3-3---|
E|-6-6-6-6-6-6-6-0-----------------3-3-3-3-3-3-3-3-1-1-1-1-1-1-1-1---|

e|-------------------------------------------------------------------|
B|-------------------------------------------------------------------|
G|-----------------8-8-8-8-8-8-8-8-----------------------------------|
D|-8-8-8-8-8-8-8-8-8-8-8-8-8-8-8-8-5-5-5-5-5-5-5-5-3-3-3-3-3-3-3-3---|
A|-8-8-8-8-8-8-8-8-6-6-6-6-6-6-6-6-5-5-5-5-5-5-5-5-3-3-3-3-3-3-3-3---|
E|-6-6-6-6-6-6-6-0-----------------3-3-3-3-3-3-3-3-1-1-1-1-1-1-1-1---|


[2:42 - 2:49]

e|--------------------------------------------------------------|
B|--------------------------------------------------------------|
G|-8-8-8-8-8-8-8-8----------------------------------------------|
D|-8-8-8-8-8-8-8-8--3-3-3-3-3-3-3-3--5-5-5-5-5-5-5-5--6~--------|
A|-6-6-6-6-6-6-6-6--3-3-3-3-3-3-3-3--5-5-5-5-5-5-5-5--6~--------|
E|------------------1-1-1-1-1-1-1-1--3-3-3-3-3-3-3-3--4~--------|


[2:49 - 3:13] - FADE SLOWLY OUT


e|---------------------------------|
B|---------------------------------|
G|---------------------------------|
D|---------------------------------|
A|---------------------------------|
E|---------------------------------|

e|---------------------------------|
B|---------------------------------|
G|---------------------------------|
D|---------------------------------|
A|---------------------------------|
E|---------------------------------|

e|-3-3-3-3-3-3-3-3-1-1-1-1-1-1-1-1-3-3-3-3-3-3-3-3-1-1-1-1-1-1-1-1-|
B|-3-3-3-3-3-3-3-3-1-1-1-1-1-1-1-1-3-3-3-3-3-3-3-3-1-1-1-1-1-1-1-1-|
G|-0-0-0-0-0-0-0-0-0-0-0-0-0-0-0-0-0-0-0-0-0-0-0-0-0-0-0-0-0-0-0-0-|
D|-----------------------------------------------------------------|
A|-----------------------------------------------------------------|
E|-----------------------------------------------------------------|


Tablature Legend:


| h - Hammer On
| p - Pull Off
| x - Mute Note
| / - Slide Up Neck
comments
print report bad tab
11 comments total. Showing first comments.
+2 reply
ToneDeafRetard wrote on September 29 2008, 01:46 pm

My name might be ToneDeafRetard, but I'm not tone deaf. This is a wicked tab 5 stars. Woot to first post to a tab that should go far.

ps. I like how you put the times in too

+2 reply
AFI_Jade_Puget wrote on October 5 2008, 04:39 pm

Thanks, ToneDeafRetard, lol.

+5 reply
geetarguy1313 wrote on November 8 2008, 07:15 pm

if tonedeafretard is not tone deaf, is he still a retard?

I want to post or [tab]
guest
You may want to rate the tab now too:
select rating
Please do not post tabs as comments. Select "correction" instead!