Oops, an error
Loading. Please wait.

Laid To Rest Tab

ver2
ver2

Whole song

Interactive

More versions @911Tabs.com
5,107 views 3 this week
3 commentsread comments
1 2 3 4 5
excellent!
x 6
Autoscroll
+/-
esc
set tempo
stop
Contributor
Difficulty
intermediate
Hey! There's an official Ultimate Guitar app which is ideal
for learning songs when you're away from computer. Get the app
WARNING: You are trying to view
                                    content from Ultimate-Guitar.com
                                    in an unauthorized application,
                                    which is prohibited.

                                    Please use an official Ultimate
                                    Guitar Tabs application for iPhone,
                                    iPad or Android to access legitimate
                                    chords, guitar, bass, and drum tabs
                                    from Ultimate-Guitar.com database.

                                    Type "ultimate guitar tabs" in Apple
                                    App Store's or Android Market's
                                    search to find the application.
All Shall Perish
Hate.Malice.Revenge
Laid To Rest
Tabbed by Jay LeBrun

Tabbed this for my band to cover, and maybe yours too. Things might be ever so slightly
but any people with complaints are just splitting hairs. One note: I'm pretty sure they
this is Drop-B on 6-strings and I tabbed this for a standard-tuned 7-string. Oh well. 
still tell you how to play it, it's not hard to move the frets up or down a couple.
comments, requests for other tabs: PM me. Btw, checkout my band at 
for some sweet death/grind. Thanks. Now for the tab...


Intro (0:00)
Gtr. I
|-------------------------------------|
|-------------------------------------|
|-------------------------------------|
|-------------------------------------|
|--2------------------2--------2-2222-|
|--2------------------2--------2-2222-|
|--0------------------0--------0-0000-|
|pm*                  *        * ****
|
|Gtr. II
|-------------------------------------------------------|
|-------------------------------------------------------|
|-------------------------------------------------------|
|-------------------------------------------------------|
|------------------------------7------------------------|
|----7-10-7-------------7-10-7---10-9h10p9h10p9h10p9h10-|
|--0--------8-11-8-11-0---------------------------------| (trem picked)


Gtr.I
|--------------------------------------|
|--------------------------------------|
|--------------------------------------|
|--------------------------------------|
|-2------------------------------------|
|-2------------------------------------|
|-0------------------------------------|\
pm*                                      \
                                          |
Gtr. II                                  /
|--------------------------------------|/
|--------------------------------------|
|--------------------------------------|
|--------------------------------------|
|--------------------------------------|
|---7-10-7-------------7-10-7----------|
|-0--------8-11-8-11-0-----------------|

Main Riff (0:07)
Both Gtrs.                                          x4 |
|------------------------------------------------------|
|------------------------------------------------------|
|------------------------------------------------------|
|------------------------------------------------------|
|-----------------------------7------------------------|
|---7-10-7-------------7-10-7---10-9h10p9h10p9h10p9h10-|
|-0--------8-11-8-11-0---------------------------------| (trem picked)


Verse 1 (0:23)
Both Gtrs.
|---------------------------------------------------------------------------------------------------------|
|---------------------------------------------------------------------------------------------------------|
|---------------------------------------------------------------------------------------------------------|
|---------------------------------------------------------------------------------------------------------|
|--------------------9999------------------------------------------------9999-10101010-9999----------9999-|
|------7777-10101010------10101010-9999-10101010-9999------7777-10101010--------------------10101010------|
|-0000------------------------------------------------0000------------------------------------------------|

|---------------------------------------------------------------------------|
|---------------------------------------------------------------------------|
|---------------------------------------------------------------------------|
|---------------------------------------------------------------------------|
|--------------------9999--------------------------------------------99-----|
|------7777-10101010------10101010-9999-10101010-6-6-6-6-6-6-6-6-6699--1010-|
|-0000----------------------------------------------------------------------|

Gtr.I
|---------------------------------------------------------------------------------------------------------|
|---------------------------------------------------------------------------------------------------------|
|---------------------------------------------------------------------------------------------------------|
|---------------------------------------------------------------------------------------------------------|
|--------------------9999------------------------------------------------9999-10101010-9999----------9999-|
|------7777-10101010------10101010-9999-10101010-9999------7777-10101010--------------------10101010------|
|-0000------------------------------------------------0000------------------------------------------------|\
|
                  \
|Gtr.II
                  /
|---------------------------------------------------------------------------------------------------------|/
|---------------------------------------------------------------------------------------------------------|
|---------------------------------------------------------------------------------------------------------|
|--------------------------------------------------------------------------------------9999---------------|
|--------------------9999------------------------------------------------9999-10101010------10101010-9999-|
|------7777-10101010------10101010-9999-10101010-9999------7777-10101010----------------------------------|
|-0000------------------------------------------------0000------------------------------------------------|

|---------------------------------------------------------------------------|
|---------------------------------------------------------------------------|
|---------------------------------------------------------------------------|
|---------------------------------------------------------------------------|
|--------------------9999--------------------------------------------99-----|
|------7777-10101010------10101010-9999-10101010-6-6-6-6-6-6-6-6-6699--1010-|
|-0000----------------------------------------------------------------------|

>>> Main Riff (x2) (0:37)

Bridge 1 (0:45)
Gtr.I
|---------------------------------------------------------------------------------------------|
|---------------------------------------------------------------------------------------------|
|---------------------------------------------------------------------------------------------|
|---------------------------------------------------------------------------------------------|
|-2--~---~---~------------2--~---~---~---~---~--2--~---~---~------------2--~---~---~--2-~-2-~-|
|-2--~---~---~--/7-10-6-9-2--~---~---~---~---~--2--~---~---~--/7-10-6-9-2--~---~---~--2-~-2-~-|
|-0--~---~---~------------0--~---~---~---~---~--0--~---~---~------------0--~---~---~--0-~-0-~-|\
                                                                                    pm*
*     \
Gtr.II
      /
|---------------------------------------------------------------------------------------------|/
|---------------------------------------------------------------------------------------------|
|---------------------------------------------------------------------------------------------|
|---------------------------------------------------------------------------------------------|
|-2--~---~---~---~---~--~-2--~---~---~----9---8-2--~---~---~---~---~--~-2--~---~---~--2-~-2-~-|
|-2--~---~---~---~---~--~-2--~---~---~-/7---6---2--~---~---~---~---~--~-2--~---~---~--2-~-2-~-|
|-0--~---~---~---~---~--~-0--~---~---~----------0--~---~---~---~---~--~-0--~---~---~--0-~-0-~-|
                                                                                    pm*
*


Gtr.I
|-----------------------------------------------------------------------------------------------|
|-----------------------------------------------------------------------------------------------|
|-----------------------------------------------------------------------------------------------|
|-----------------------------------------------------------------------------------------------|
|-2--~---~---~---~---~--~-2--~---~--~-----------2--~---~---~---~---~--~-2--~---~---~--2-~-2--~--|
|-2--~---~---~---~---~--~-2--~---~--~-/7-10-6-9-2--~---~---~---~---~--~-2--~---~---~--2-~-2--~--|
|-0--~---~---~---~---~--~-0--~---~--~-----------0--~---~---~---~---~--~-0--~---~---~--0-~-0--~--|\
                                                                                    pm*
*       \
Gtr.II
        /
|-----------------------------------------------------------------------------------------------|/
|-----------------------------------------------------------------------------------------------|
|-----------------------------------------------------------------------------------------------|
|-----------------------------------------------------------------------------------------------|
|-2--~---~---~------9---8-2--~---~---~---~---~--2--~---~---~------9---8-2--~---~---~--2-~-2--~--|
|-2--~---~---~---/7---6---2--~---~---~---~---~--2--~---~---~---/7---6---2--~---~---~--2-~-2--~--|
|-0--~---~---~------------0--~---~---~---~---~--0--~---~---~------------0--~---~---~--0-~-0--~--|
                                                                                    pm*


Breakdown 1 (1:03)
Gtr. I
|---------------------------------------------------------|
|---------------------------------------------------------|
|---------------------------------------------------------|
|---------------------------------------------------------|
|-------------------------------------------------------*-|
|-2-2-~-2-222-222-5-8-5-6-5-*-2-2-~-2-222-222-3-6-3-4-3-3-|
|-0-0-~-0-000-000-3-6-3-4-3-4-0-0-~-0-000-000-1-4-1-2-1---|\
pm* *   * *** *** * * * * *   * *   * *** *** * * * * *     \
                                                             |
Gtr.II                                                      /
|---------------------------------------------------------|/
|---------------------------------------------------------|
|---------------------------------------------------------|
|---------------------------------------------------------|
|-------------------------------------------------------*-|
|-2-2-~-2-222-222-5-8-5-6-5-6-2-2-~-2-222-222-3-6-3-4-3-3-|
|-0-0-~-0-000-000-3-6-3-4-3-4-0-0-~-0-000-000-1-4-1-2-1---|
pm* 8   * *** *** * * * * * * * *   * *** *** * * * * *

Gtr. I
|-------------------------------------------------------------------|
|-------------------------------------------------------------------|
|-------------------------------------------------------------------|
|-------------------------------------------------------------------|
|-------------------------------------------------------------------|
|-2-2-~-2-222-222-5-8-5-6-5-*-2-2-~-2-222-222-55778888-778810101010\| (repeat)
|-0-0-~-0-000-000-3-6-3-4-3-4-0-0-~-0-000-000-----------------------|\
pm* *   * *** *** * * * * *   * *   * *** ***                         \
                                                                       |
Gtr.II                                                                /
|-------------------------------------------------------------------|/
|-------------------------------------------------------------------|
|-------------------------------------------------------------------|
|-------------------------------------------------------------------|
|-------------------------------------------------------------------|
|-2-2-~-2-222-222-5-8-5-6-5-*-2-2-~-2-222-222-55778888-778810101010\|
|-0-0-~-0-000-000-3-6-3-4-3-4-0-0-~-0-000-000-----------------------| (repeat)
pm* *   * *** *** * * * * *   * *   * *** ***

Breakdown 1, Part 2 (1:31)
Both Gtrs.
|-------------------------------------------------------|
|-------------------------------------------------------|
|-------------------------------------------------------|
|-------------------------------------------------------|
|-------------------------------------------------------|
|-2-2-~-222-222--~---~---~--2-2-~-222-222-~-5-8-5-7-6-5-|
|-0-0-~-000-000--~---~---~--0-0-~-000-000-~-3-6-3-5-4-3-|
pm* *   *** ***             * *   *** ***   * * * * * *

|-----------------------------------------|
|-----------------------------------------|
|-----------------------------------------|
|-----------------------------------------|
|-----------------------------------------|
|-2-2-~-222-222--~---~--~---2-2-~-222-222-|
|-0-0-~-000-000--~---(x\\\)-0-0-~-000-000-|   <-- ( ) means Gtr.II slides


Breakdown 1 Ending (1:43)
Gtr.I
|------------------------------------------------|
|------------------------------------------------|
|------------------------------------------------|
|------------------------------------------------|
|------------------------------------2--~--~--~--|
|-5-8-5-6-5-6------------------------2--~--~--~--|
|-3-6-3-4-3-4------------------------0--~--~--~--|\
pm* * * * * *                                      \
                                                    |
Gtr.II                                             /
|------------------------------------------------|/
|------------------------------------------------|
|------------------------------------------------|
|------------------------------------------------|
|------------------------------------2--~--~-----|
|-------------5-8-5-6-5-6------------2--~--~-----|
|-------------3-6-3-4-3-4------------0--~--~--x\-|
            pm* * * * * *


Breakdown 2 (1:50)
Both Gtrs.                                                x2 |
|------------------------------------------------------------|
|------------------------------------------------------------|
|------------------------------------------------------------|
|------------------------------------------------------------|
|------------------------------------------------------------|
|-2-2-----222-222-2-----2--2--2--2-2----222-222-2-----2-2-~--|
|-0-0--~--000-000-0--~--0--0--0--0-0--~-000-000-0--~--0-0-~--|
pm* *     *** *** *     *  *  *  * *    *** *** *     * *


Breakdown 2, Part 2 (2:03)
Gtr. I
|-------------------------------------------------------------|
|-------------------------------------------------------------|
|-------------------------------------------------------------|
|-------------------------------------------------------------|
|-------------------------------------------------------------|
|--2-2-----222-222-2-----2--2--2--2-2----222-222-2-----2-2-~--|
|--0-0--~--000-000-0--~--0--0--0--0-0--~-000-000-0--~--0-0-~--|
|pm* *     *** *** *     *  *  *  * *    *** *** *     * *
|
|Gtr.II
|----------------------------------------------------------------------------|
|----------------------------------------------------------------------------|
|----------------------------------------------------------------------------|
|----------------------------------------------------------------------------|
|---------9------------------9-10-9----9--------9-----------------------9----|
|----7-10---10-9910-9---7-10--------10-----7-10---10-9-10-9-6-6-6-6-6-9---10-|
|--0------------------0------------------0-----------------------------------|
 pm* * *    *  ***  * * * *         *    * * *    *  * *  * * * * * * *


Gtr. I
|-------------------------------------------------------------|
|-------------------------------------------------------------|
|-------------------------------------------------------------|
|-------------------------------------------------------------|
|-------------------------------------------------------------|
|--2-2-----222-222-2-----2--2--2--2-2----222-222-2-----2-2-~--|
|--0-0--~--000-000-0--~--0--0--0--0-0--~-000-000-0--~--0-0-~--|
|pm* *     *** *** *     *  *  *  * *    *** *** *     * *
|
|Gtr.II
|----------------------------------------------------------------------------|
|----------------------------------------------------------------------------|
|----------------------------------------------------------------------------|
|---------------------------------9------------------------------------------|
|---------9------------------9-10---10-9--------9-----------------------9----|
|----7-10---10-9910-9---7-10---------------7-10---10-9910-9-6-6-6-6-6-9---10-|
|--0------------------0------------------0-----------------------------------|
 pm* * *    *  ***  * * * *              * * *    *  ***  * * * * * * *


Gtr. I
|-------------------------------------------------------------|
|-------------------------------------------------------------|
|-------------------------------------------------------------|
|-------------------------------------------------------------|
|-------------------------------------------------------------|
|--2-2-----222-222-2-----2--2--2--2-2----222-222-2-----2-2-~--|
|--0-0--~--000-000-0--~--0--0--0--0-0--~-000-000-0--~--0-0-~--|
|pm* *     *** *** *     *  *  *  * *    *** *** *     * *
|
|Gtr.II (TREM PICK!!!)
|----------------------------------------------------------------------------|
|----------------------------------------------------------------------------|
|----------------------------------------------------------------------------|
|----------------------------------------------------------------------------|
|---------9------------------9-10-9----9--------9-----------------------9----|
|----7-10---10-9-10-9---7-10--------10-----7-10---10-9-10-9-6-6-6-6-6-9---10-|
|--0------------------0------------------0-----------------------------------|


Gtr. I
|-------------------------------------------------------------|
|-------------------------------------------------------------|
|-------------------------------------------------------------|
|-------------------------------------------------------------|
|-------------------------------------------------------------|
|--2-2-----222-222-2-----2--2--2--2-2----222-222-2-----2-2-~--|
|--0-0--~--000-000-0--~--0--0--0--0-0--~-000-000-0--~--0-0-~--|
|pm* *     *** *** *     *  *  *  * *    *** *** *     * *
|
|Gtr.II (TREM PICK!!!)
|------------------------------------------------------------|
|------------------------------------------------------------|
|------------------------------------------------------------|
|---------------------------------9--------------------------|
|---------9------------------9-10---10-9--------9------------|
|----7-10---10-9-10-9---7-10---------------7-10---10-9-10-9--|
|--0------------------0------------------0-------------------|


Quick Harmonized Break (2:29)
Gtr.I
|----------------------------------------------|
|----------------------------------------------|
|----------------------------------------------|
|----------------------------------------------|
|----------------------------------------------|
|-/7-~-~-~-~-~-~-6-~-~-~-~-~-~--\3-~-~-~-~-~-~-|
|----------------------------------------------|\
                                                 \
Gtr.II                                           /
|----------------------------------------------|/
|----------------------------------------------|
|----------------------------------------------|
|----------------------------------------------|
|----------------------------------------------|
|-/7-~-~-~-~-~-~-/10-~-~-~-~-~-~-\6-~-~-~-~-~--|
|----------------------------------------------|


Bridge 2 (2:35)
Gtr. I
|-----------------------------------------------------------------------|
|-----------------------------------------------------------------------|
|-----------------------------------------------------------------------|
|--------------------5-----------------------------------4--------------|
|-2------------------5------------------7----------------4--------------|
|-2------------------3------------------7----------------2--------------|
|-0------------------3------------------5----------------2--------------|\
                                                                          \
Gtr.II                                                                    /
|-----------------------------------------------------------------------|/
|-----------------------------------------------------------------------|
|-----------------------------------------------------------------------|
|-----------------------------------------------------------------------|
|---------9------------------9-10-9-------------------------------------|
|----7-10---10-9-10-9---7-10--------10-9-------7-9-7---7--------6-9-~-~-|
|--0------------------8------------------5-7-8-------8---/7-~-~---------|


Gtr.I
|-----------------------------------------------------------------------|
|-----------------------------------------------------------------------|
|-----------------------------------------------------------------------|
|--------------------5--------------------------------------------------|
|-2------------------5------------------7-------------------------------|
|-2------------------3------------------7----------------9------6-9--~--|
|-0------------------3------------------5----------------7--~--~--~--~--|\
                                                                          \
Gtr.II                                                                    /
|-----------------------------------------------------------------------|/
|-----------------------------------------------------------------------|
|-----------------------------------------------------------------------|
|-----------------------------------------------------------------------|
|---------9------------------9-10-9-------------------------------------|
|----7-10---10-9-10-9---7-10--------10-9-------7-9-7---7--------6-9-~-~-|
|--0------------------8------------------5-7-8-------8---/7-~-~---------|


Build-Up Part (2:50)
Gtr.I
|-----------------------------------------------------------------------|
|-----------------------------------------------------------------------|
|-----------------------------------------------------------------------|
|-----------------------------------------------------------------------|
|--------------------5-5-5-5-5-5-5-5------------------------------------|
|-2-2-2-2-2-2-2-2-2--3-3-3-3-3-3-3-3----7-7-7-7-7-7-7-7---9-9-9--6-9~~~-|
|-0-0-0-0-0-0-0-0-0---------------------5-5-5-5-5-5-5-5---7-7-7---------|\
pm* * * * * * * * *  * * * * * * * *    * * * * * * * *   * * *           \
                                                                           |
Gtr.II                                                                    /
|-----------------------------------------------------------------------|/
|-----------------------------------------------------------------------|
|-----------------------------------------------------------------------|
|-----------------------------------------------------------------------|
|---------9------------------9-10-9-------------------------------------|
|----7-10---10-9-10-9---7-10--------10-9-------7-9-7---7--------6-9-~~~-|
|--0------------------8------------------5-7-8-------8---/7-~-~---------|


Gtr.I
|-----------------------------------------------------------------------|
|-----------------------------------------------------------------------|
|-----------------------------------------------------------------------|
|-----------------------------------------------------------------------|
|--------------------5-5-5-5-5-5-5-5------------------------------------|
|-2-2-2-2-2-2-2-2-2--3-3-3-3-3-3-3-3----7-7-7-7-7-7-7-7---9--~--~--~--~-|
|-0-0-0-0-0-0-0-0-0---------------------5-5-5-5-5-5-5-5---7--~--~--~--~-|\
pm* * * * * * * * *  * * * * * * * *    * * * * * * * *                   \
                                                                           |
Gtr.II                                                                    /
|-----------------------------------------------------------------------|/
|-----------------------------------------------------------------------|
|-----------------------------------------------------------------------|
|-----------------------------------------------------------------------|
|---------9------------------9-10-9-------------------------------------|
|----7-10---10-9-10-9---7-10--------10-9-------7-9-7---7--------6-9-~~~-|
|--0------------------8------------------5-7-8-------8---/7-~-~---------|


Shred Build-Up (3:04)
Gtr.I
|-----------------------------------------------------------------------------------------|
|-----------------------------------------------------------------------------------------|
|-----------------------------------------------------------------------------------------|
|-.---------------------------------------------------------------------------------------|
|-2---------------------------------------------------------------------------------------|
|-2-----------------------------------------------991010-----991010-0000991010-----101099-|
|-0-------------------------------------------0000-------8888------------------7777-------|\

  \                                                      |
Gtr.II
  /
|-----------------------------------------------------------------------------------------|/
|-----------------------------------------------------------------------------------------|
|-----------------------------------------------------------------------------------------|
|-----------------------------------------------------------------------------------------|
|---------------------------------------------2--~--~--~--~--~--~--~--~--~--~--~--~--~--~-|
|-----991010-----991010-0000991010-----101099-2--~--~--~--~--~--~--~--~--~--~--~--~--~--~-|
|-0000-------8888------------------7777-------0--~--~--~--~--~--~--~--~--~--~--~--~--~--~-|

Shred Riff (3:10)
Both Gtrs.                                 x4 |
|---------------------------------------------|
|---------------------------------------------|
|---------------------------------------------|
|---------------------------------------------|
|---------------------------------------------|
|-----991010-----991010-0000991010-----101099-|
|-0000-------8888------------------7777-------|


Shred Section, Part 2 (3:21)
Gtr.I
|---------------------------------------------------------------------|
|---------------------------------------------------------------------|
|---------------------------------------------------------------------|
|---------------------------------------------------------------------|
|---------------------------------------------------------------------|
|------------------3333333333333333------------------------6699999999-|
|-0000000000000000------------------5555555555555555-777777-----------| (repeat)        \
                                                                                         \
Gtr.II                                                                                   /
|--------------------------------------------------------------------------------------|/
|--------------------------------------------------------------------------------------|
|--------------------------------------------------------------------------------------|
|--------------------------------------------------------------------------------------|
|---------99-----------------------99--------------------------------------------------|
|---771010--10109910101010---771010--10109910101010-------779977--77-------66999999999-|
|-00-----------------------88-----------------------557788------88---777777------------| (repeat)

Part 3
Both Gtrs. (3:36)
|---------------------------------------------------------------------------------|
|---------------------------------------------------------------------------------|
|---------------------------------------------------------------------------------|
|---------------------------------------------------------------------------------|
|---------99---------------------99101099-----------------------------------------|
|---771010--101099101099---771010--------101099-------779977--77-------6699999999-|
|-00---------------------88---------------------557788------88---777777-----------|
only once)


Chordal Break (3:44)
Gtr.I
|-------------------------------------------------------------------------|
|-------------------------------------------------------------------------|
|-------------------------------------------------------------------------|
|--------------------5--~--~--~--~------2--~--~--~--~--~------------------|
|-2--~--~--~--~------5--~--~--~--~--5-5-2--~--~--~--~--~--9-~-~-~-9-~-~-~-|
|-2--~--~--~--~--2-2-3--~--~--~--~--3-3-0--~-----~--~--~--7-~-~-~-6-~-~-~-|
|-0--~--~--~--~--0-0------------------------------------------------------|\
               pm* *                * *                                     \
Gtr.I                                                                       /
|-------------------------------------------------------------------------|/
|-------------------------------------------------------------------------|
|-------------------------------------------------------------------------|
|--------------------5--~--~--~--~------2--~--~--~--~--~------------------|
|-2--~--~--~--~------5--~--~--~--~--5-5-2--~--~--~--~--~------------------|
|-2--~--~--~--~--2-2-3--~--~--~--~--3-3-0--~-----~--~--~--7-~-~-~-6-~-~-~-|
|-0--~--~--~--~--0-0--------------------------------------7-~-~-~-8-~-~-~-|
               pm* *                * *


Pre-Outro (3:51)
Gtr.I
|-----------------------------------------------------------------|
|-----------------------------------------------------------------|
|-----------------------------------------------------------------|
|-----------------------------------------------------------------|
|-----------------------------------------------------------------|
|-2-3-5-6-5-3-5-3-2-3-5-6-5-3-5-3-2-3-5-6-5-3-5-3-2-3-5-6-5-3-5-3-|
|-0-1-3-4-3-1-3-1-0-1-3-4-3-1-3-1-0-1-3-4-3-1-3-1-0-1-3-4-3-1-3-1-|
pm* * * * * * * * * * * * * * * * * * * * * * * * * * * * * * * *

Gtr.II
|--------------------------------------------------------------------------------|
|--------------------------------------------------------------------------------|
|-------------------------------------------------T---------T--------------------|
|-.---------------.---------------.---------------12p9-(x8)-11p8-(x4)-T----------|
|-2---------------2-------------2-2-----------------------------------13p10-(x4)-|
|-2---------------2-------------2-2----------------------------------------------|
|-0---------------0-------------0-0----------------------------------------------|
pm*               *             * *


Gtr.I (3:58)
|--------------------------------------------------------------------------------|
|--------------------------------------------------------------------------------|
|--------------------------------------------------------------------------------|
|--------------------------------------------------------------------------------|
|-------------------------------------------------T---------T--------------------|
|-2-3-5-6-5-3-5-3-2-3-5-6-5-3-5-3-2-3-5-6-5-3-5-3-10p7-(x8)-9p6-(x4)--T----------|
|-0-1-3-4-3-1-3-1-0-1-3-4-3-1-3-1-0-1-3-4-3-1-3-1---------------------11p8-(x4)--|\
pm* * * * * * * * * * * * * * * * * * * * * * * *                                  \
                                                                                    |
Gtr.II                                                                             /
|--------------------------------------------------------------------------------|/
|--------------------------------------------------------------------------------|
|-------------------------------------------------T------------------------------|
|-------------------------------------------------12p9-(x8)-11p8-(x4)-T----------|
|---------------------------------------------------------------------13p10-(x4)-|
|-2-3-5-6-5-3-5-3-2-3-5-6-5-3-5-3-2-3-5-6-5-3-5-3--------------------------------|
|-0-1-3-4-3-1-3-1-0-1-3-4-3-1-3-1-0-1-3-4-3-1-3-1--------------------------------|
pm* * * * * * * * * * * * * * * * * * * * * * * *


Outro (4:06)                                  x8 | (4:37)
|------------------------------------------------|---------------|
|------------------------------------------------|---------------|
|------------------------------------------------|---------------|
|------------------------------------------------|-.-------------|
|-----------------T---------T--------------------|-2-------------|
|-2-3-5-6-5-3-5-3-10p7-(x8)-9p6-(x4)--T----------|-2-------------|
|-0-1-3-4-3-1-3-1---------------------11p8-(x4)--|-0-------------|

Gtr.II                                        x8 |
|------------------------------------------------|---------------|
|------------------------------------------------|---------------|
|-----------------T------------------------------|---------------|
|-----------------12p9-(x8)-11p8-(x4)-T----------|-.-------------|
|-------------------------------------13p10-(x4)-|-2-------------|
|-2-3-5-6-5-3-5-3--------------------------------|-2-------------|
|-0-1-3-4-3-1-3-1--------------------------------|-0-------------|

NOTE ON OUTRO: Palm mute the power chords the first four times, last four don't. If you
it to sound as it does on the CD.
comments
print report bad tab
3 comments total.
+3 reply
MetalorDIE wrote on August 16 2007, 01:37 pm

great job dude! u actually have it tabbed out pretty well for both a 6 string and a 7 string on certain parts. actually ASP's guitarist use different guitars(one uses a 6 string and the other a 7 string) so they are both in the same tune except the 6 string is dropped to B. good job thow man!

+2 reply
BMTH<3 wrote on October 6 2011, 10:00 pm

Great tab bro! It sounds absolutely perfect and very welly laid out. c: Thank you for the amazing work my friend. Best of days to you.

0 reply
metalheadrenzo wrote on July 6 2012, 03:58 am

I just read your comment about my tab and you are right, yours is pretty impressive. I was 16 when I made my Laid to Rest tab and looking back, it's indeed inaccurate. Peace out

I want to post or [tab]
guest
You may want to rate the tab now too:
select rating
Please do not post tabs as comments. Select "correction" instead!