Oops, an error
Loading. Please wait.

Never Again Tab

10,706 views 15 this week
8 commentsread comments
1 2 3 4 5
accurate
x 9
Autoscroll
+/-
esc
set tempo
stop
Contributor
Difficulty
Tuning
advanced
A E A D F# B
WARNING: You are trying to view
                                    content from Ultimate-Guitar.com
                                    in an unauthorized application,
                                    which is prohibited.

                                    Please use an official Ultimate
                                    Guitar Tabs application for iPhone,
                                    iPad or Android to access legitimate
                                    chords, guitar, bass, and drum tabs
                                    from Ultimate-Guitar.com database.

                                    Type "ultimate guitar tabs" in Apple
                                    App Store's or Android Market's
                                    search to find the application.
            I Dont think this song is played in Drop A originaly
              I think its in some wierd 7 string tuning unknown
                But i wanted to tab it in Drop A cause its a
                 very common Tuning everyone knows it so...      
                 This tab was requested by alot of people
                    So im gonna give everyone a great
                        Tablature of Never Again!
                           Rate and Comment.




Things To Know,

Tuning - Drop A

~ - Let ring
x - Times played
PS - Pick slide
h - Hammer on
p - Pull off
b - Bend
\ - Slide down
/ - Slide up



Intro

|--7~------------------------------------------|
|-----8~----8~---------------------------------|
|--------7~----7~-----7~-----------------------|
|-----------------11~----11~----11~------------| (4x)
|----------------------------9~-----9~---------|
|--------------------------------------7~------|
|----------------------------------------------|

After intro
|-------------------------|
|-------------------------|
|-------------------------|
|-------------------------|
|-------------------------|
|--2222-22-22-2---PS------|
|--2222-22-22-2---PS------|


This cool riff
|------------------------------------------|
|------------------------------------------|
|------------------------------------------|
|------------------------------------------| (6x)
|------------------------------------------|
|--2-4-5-4-6-5-4-7--6-5-6-5--7-6-5-6-5-4---|
|--2-4-5-4-6-5-4-7--6-5-6-5--7-6-5-6-5-4---|

After 6th time
|------------------|
|------------------|
|------------------|
|------------------|
|------------------|
|--7-6-5-6-5-4-----|
|--7-6-5-6-5-4-----|


Sweep picking
|--------10h14p10----------10h14p10----------10h14p10---------|
|-----12----------12----12----------12----12----------12------|
|--11----------------11----------------11----------------11---|
|-------------------------------------------------------------|
|-------------------------------------------------------------|
|-------------------------------------------------------------|
|-------------------------------------------------------------|

Sweep picking
|--------9h13p9----------9h13p9----------9h13p9-----------|
|-----11--------11----11--------11----11--------12--------|
|--10--------------10--------------10--------------11-----|
|---------------------------------------------------------|
|---------------------------------------------------------|
|---------------------------------------------------------|
|---------------------------------------------------------|

Sweep picking
|--------11h15p11----------11h15p11----------11h15p11---------|
|-----13----------13----13----------13----13----------13------|
|--12----------------12----------------12----------------12---|
|-------------------------------------------------------------|
|-------------------------------------------------------------|
|-------------------------------------------------------------|
|-------------------------------------------------------------|


Sweep picking
|--------10h14p10----------10h14p10----------10h14p10---------|
|-----12----------12----12----------12----12----------12------|
|--11----------------11----------------11----------------11---|
|-------------------------------------------------------------| (2x)
|-------------------------------------------------------------|
|-------------------------------------------------------------|
|-------------------------------------------------------------|

Sweep picking
|--------9h13p9----------9h13p9----------9h13p9-----------|
|-----11--------11----11--------11----11--------12--------|
|--10--------------10--------------10--------------11-----|
|---------------------------------------------------------|
|---------------------------------------------------------|
|---------------------------------------------------------|
|---------------------------------------------------------|

Sweep picking
|--------11h15p11----------11h15p11----------11h15p11---------|
|-----13----------13----13----------13----13----------13------|
|--12----------------12----------------12----------------12---|
|-------------------------------------------------------------|
|-------------------------------------------------------------|
|-------------------------------------------------------------|
|-------------------------------------------------------------|


Sweep picking
|--------10h14p10----------10h14p10----------10h14p10---------|
|-----12----------12----12----------12----12----------12------|
|--11----------------11----------------11----------------11---|
|-------------------------------------------------------------| (2x)
|-------------------------------------------------------------|
|-------------------------------------------------------------|
|-------------------------------------------------------------|

Sweep picking
|--------9h13p9----------9h13p9----------9h13p9-----------|
|-----11--------11----11--------11----11--------12--------|
|--10--------------10--------------10--------------11-----|
|---------------------------------------------------------|
|---------------------------------------------------------|
|---------------------------------------------------------|
|---------------------------------------------------------|

Sweep picking
|--------11h15p11----------11h15p11----------11h15p11---------|
|-----13----------13----13----------13----13----------13------|
|--12----------------12----------------12----------------12---|
|-------------------------------------------------------------|
|-------------------------------------------------------------|
|-------------------------------------------------------------|
|-------------------------------------------------------------|


Sweep picking
|--------10h14p10----------10h14p10----------10h14p10---------|
|-----12----------12----12----------12----12----------12------|
|--11----------------11----------------11----------------11---|
|-------------------------------------------------------------| (2x)
|-------------------------------------------------------------|
|-------------------------------------------------------------|
|-------------------------------------------------------------|

Sweep picking
|--------9h13p9----------9h13p9----------9h13p9-----------|
|-----11--------11----11--------11----11--------12--------|
|--10--------------10--------------10--------------11-----|
|---------------------------------------------------------|
|---------------------------------------------------------|
|---------------------------------------------------------|
|---------------------------------------------------------|

Sweep picking
|--------11h15p11----------11h15p11----------11h15p11---------|
|-----13----------13----13----------13----13----------13------|
|--12----------------12----------------12----------------12---|
|-------------------------------------------------------------|
|-------------------------------------------------------------|
|-------------------------------------------------------------|
|-------------------------------------------------------------|


Sweep picking
|--------10h14p10----------10h14p10----------10h14p10---------|
|-----12----------12----12----------12----12----------12------|
|--11----------------11----------------11----------------11---|
|-------------------------------------------------------------|
|-------------------------------------------------------------|
|-------------------------------------------------------------|
|-------------------------------------------------------------|

Sweep picking
|------7h10p7-------7h10p7-------7h10p7----------|
|----8--------8---8--------8---8--------8--------|
|--7------------7------------7------------7------|
|------------------------------------------------|
|------------------------------------------------|
|------------------------------------------------|
|------------------------------------------------|

Sweep picking
|-------9h12p9---------9h12p9---------9h12p9---------|
|----10--------10---10--------10---10--------10------|
|--9--------------9--------------9--------------9----|
|----------------------------------------------------|
|----------------------------------------------------|
|----------------------------------------------------|
|----------------------------------------------------|

Sweep picking
|------5h9p5-------5h9p5-------5h9p5----------|
|----7-------7---7-------7---7-------7--------|
|--6-----------6-----------6-----------6------|
|---------------------------------------------|
|---------------------------------------------|
|---------------------------------------------|
|---------------------------------------------|

End of sweeping solo
|------7h10p7-------7h10p7-------7h10p7------9b--7~---|
|----8--------8---8--------8---8--------8-------------|
|--7------------7------------7------------7-----------|
|-----------------------------------------------------|
|-----------------------------------------------------|
|-----------------------------------------------------|
|-----------------------------------------------------|


Play the intro or you
can play this solo.
|--14\12-----------------------------------------|
|--------15-14-12-10-12~-------------------------|
|-------------------------12-12-14-14-11~--------|
|------------------------------------------------|
|------------------------------------------------|
|------------------------------------------------|
|------------------------------------------------|

|------------------------------------------------|
|------------------------------------------------|
|------------------------------14-12-11-12-11~---|
|---------------9-7-9-12-11-12-------------------|
|----9-9/10-9-7----------------------------------|
|--7---------------------------------------------|
|------------------------------------------------|


Intro verse
|--7~------------------------------------------|
|-----8~----8~---------------------------------|
|--------7~----7~-----7~-----------------------|
|-----------------11~----11~----11~------------| (2x)
|----------------------------9~-----9~---------|
|--------------------------------------7~------|
|----------------------------------------------|


Breakdown
|-----------------------------------------------------------|
|-----------------------------------------------------------|
|-----------------------------------------------------------|
|-----------------------------------------------------------| (2x)
|-----------------------------------------------------------|
|--222--22222--22222222222--222-222-22222-2--2-222222222----|
|--222--22222--22222222222--222-222-22222-2--2-222222222----|


This riff again
|------------------------------------------|
|------------------------------------------|
|------------------------------------------|
|------------------------------------------| (4x)
|------------------------------------------|
|--2-4-5-4-6-5-4-7--6-5-6-5--7-6-5-6-5-4---|
|--2-4-5-4-6-5-4-7--6-5-6-5--7-6-5-6-5-4---|

After 4th time
|------------------|
|------------------|
|------------------|
|------------------|
|------------------|
|--7-6-5-6-5-4-----|
|--7-6-5-6-5-4-----|


Amazing Solo!
|--------------------------------------------------------------------------|
|--------------------------------------------------------------------------|
|-----------------------------------------------------14----14-16-14-16----|
|-----------14----------14-15-14----14-15-17-14-15-17----17----------------|
|--14-15-17----17-14-17----------17----------------------------------------|
|--------------------------------------------------------------------------|
|--------------------------------------------------------------------------|

|--------------------------------14-15-14----14-15-17-------|
|--14-15-14----14-15-17-14-15-17----------17----------18----|
|-----------16----------------------------------------------|
|-----------------------------------------------------------|
|-----------------------------------------------------------|
|-----------------------------------------------------------|
|-----------------------------------------------------------|

|-----17-19-----------------|
|--20-------19-------18-----|
|--------------19-18--------|
|---------------------------|
|---------------------------|
|---------------------------|
|---------------------------|


sweeps
|--22----------------21----------------20-------------------|
|-----22----------22----21----------21----20----------20----|
|--------23----23----------22----22----------21----21-------|
|-----------24----------------23----------------22----------|
|-----------------------------------------------------------|
|-----------------------------------------------------------|
|-----------------------------------------------------------|

|--19----------------18----------------17-------------------|
|-----19----------19----18----------18----17----------17----|
|--------20----20----------19----19----------18----18-------|
|-----------21----------------20----------------19----------|
|-----------------------------------------------------------|
|-----------------------------------------------------------|
|-----------------------------------------------------------|

|--16----------------15~----|
|-----16----------16--------|
|--------17----17-----------|
|-----------18--------------|
|---------------------------|
|---------------------------|
|---------------------------|

sweeps
|--19----------------18----------------17----------------16----------------|
|-----20----------------19----------------18----------------17-------------|
|--------21----------------20----------------19----------------18----------|
|-----------21----------------20----------------19----------------18-------|
|--------------21----------------20----------------19----------------18----|
|-----------------23----------------22----------------21----------------20-|
|--------------------------------------------------------------------------|

|-----------------------14----------------------17----|
|-----------15-------15-------------18-------18-------|
|--------16-------16-------------19-------19----------|
|-----16-------16-------------19-------19-------------|
|--17----------------------21-------------------------|
|-----------------------------------------------------|
|-----------------------------------------------------|

sweeps
|--19----------------18----------------17----------------16----------------|
|-----20----------------19----------------18----------------17-------------|
|--------21----------------20----------------19----------------18----------|
|-----------21----------------20----------------19----------------18-------|
|--------------21----------------20----------------19----------------18----|
|-----------------23----------------22----------------21----------------20-|
|--------------------------------------------------------------------------|

|-----------------------14----------------------17----|
|-----------15-------15-------------18-------18-------|
|--------16-------16-------------19-------19----------|
|-----16-------16-------------19-------19-------------|
|--17----------------------21-------------------------|
|-----------------------------------------------------|
|-----------------------------------------------------|


Sweep picking
|--------10h14p10----------10h14p10----------10h14p10---------|
|-----12----------12----12----------12----12----------12------|
|--11----------------11----------------11----------------11---|
|-------------------------------------------------------------|
|-------------------------------------------------------------|
|-------------------------------------------------------------|
|-------------------------------------------------------------|

Sweep picking
|--------9h13p9----------9h13p9----------9h13p9-----------|
|-----11--------11----11--------11----11--------12--------|
|--10--------------10--------------10--------------11-----|
|---------------------------------------------------------|
|---------------------------------------------------------|
|---------------------------------------------------------|
|---------------------------------------------------------|

Sweep picking
|--------11h15p11----------11h15p11----------11h15p11---------|
|-----13----------13----13----------13----13----------13------|
|--12----------------12----------------12----------------12---|
|-------------------------------------------------------------|
|-------------------------------------------------------------|
|-------------------------------------------------------------|
|-------------------------------------------------------------|


Sweep picking
|--------10h14p10----------10h14p10----------10h14p10---------|
|-----12----------12----12----------12----12----------12------|
|--11----------------11----------------11----------------11---|
|-------------------------------------------------------------| (2x)
|-------------------------------------------------------------|
|-------------------------------------------------------------|
|-------------------------------------------------------------|

Sweep picking
|--------9h13p9----------9h13p9----------9h13p9-----------|
|-----11--------11----11--------11----11--------12--------|
|--10--------------10--------------10--------------11-----|
|---------------------------------------------------------|
|---------------------------------------------------------|
|---------------------------------------------------------|
|---------------------------------------------------------|

Sweep picking
|--------11h15p11----------11h15p11----------11h15p11---------|
|-----13----------13----13----------13----13----------13------|
|--12----------------12----------------12----------------12---|
|-------------------------------------------------------------|
|-------------------------------------------------------------|
|-------------------------------------------------------------|
|-------------------------------------------------------------|


Sweep picking
|--------10h14p10----------10h14p10----------10h14p10---------|
|-----12----------12----12----------12----12----------12------|
|--11----------------11----------------11----------------11---|
|-------------------------------------------------------------| (2x)
|-------------------------------------------------------------|
|-------------------------------------------------------------|
|-------------------------------------------------------------|

Sweep picking
|--------9h13p9----------9h13p9----------9h13p9-----------|
|-----11--------11----11--------11----11--------12--------|
|--10--------------10--------------10--------------11-----|
|---------------------------------------------------------|
|---------------------------------------------------------|
|---------------------------------------------------------|
|---------------------------------------------------------|

Sweep picking
|--------11h15p11----------11h15p11----------11h15p11---------|
|-----13----------13----13----------13----13----------13------|
|--12----------------12----------------12----------------12---|
|-------------------------------------------------------------|
|-------------------------------------------------------------|
|-------------------------------------------------------------|
|-------------------------------------------------------------|


Sweep picking
|--------10h14p10----------10h14p10----------10h14p10---------|
|-----12----------12----12----------12----12----------12------|
|--11----------------11----------------11----------------11---|
|-------------------------------------------------------------| (2x)
|-------------------------------------------------------------|
|-------------------------------------------------------------|
|-------------------------------------------------------------|

Sweep picking
|--------9h13p9----------9h13p9----------9h13p9-----------|
|-----11--------11----11--------11----11--------12--------|
|--10--------------10--------------10--------------11-----|
|---------------------------------------------------------|
|---------------------------------------------------------|
|---------------------------------------------------------|
|---------------------------------------------------------|

Sweep picking
|--------11h15p11----------11h15p11----------11h15p11---------|
|-----13----------13----13----------13----13----------13------|
|--12----------------12----------------12----------------12---|
|-------------------------------------------------------------|
|-------------------------------------------------------------|
|-------------------------------------------------------------|
|-------------------------------------------------------------|


Sweep picking
|--------10h14p10----------10h14p10----------10h14p10---------|
|-----12----------12----12----------12----12----------12------|
|--11----------------11----------------11----------------11---|
|-------------------------------------------------------------|
|-------------------------------------------------------------|
|-------------------------------------------------------------|
|-------------------------------------------------------------|

Sweep picking
|------7h10p7-------7h10p7-------7h10p7----------|
|----8--------8---8--------8---8--------8--------|
|--7------------7------------7------------7------|
|------------------------------------------------|
|------------------------------------------------|
|------------------------------------------------|
|------------------------------------------------|

Sweep picking
|-------9h12p9---------9h12p9---------9h12p9---------|
|----10--------10---10--------10---10--------10------|
|--9--------------9--------------9--------------9----|
|----------------------------------------------------|
|----------------------------------------------------|
|----------------------------------------------------|
|----------------------------------------------------|

Sweep picking
|------5h9p5-------5h9p5-------5h9p5----------|
|----7-------7---7-------7---7-------7--------|
|--6-----------6-----------6-----------6------|
|---------------------------------------------|
|---------------------------------------------|
|---------------------------------------------|
|---------------------------------------------|

End of sweeping solo
|------7h10p7-------7h10p7-------7h10p7------------|
|----8--------8---8--------8---8--------8---12b~---|
|--7------------7------------7------------7--------|
|--------------------------------------------------|
|--------------------------------------------------|
|--------------------------------------------------|
|--------------------------------------------------|


Play the intro or you
can play this solo.
|--14\12-----------------------------------------|
|--------15-14-12-10-12~-------------------------|
|-------------------------12-12-14-14-11~--------|
|------------------------------------------------|
|------------------------------------------------|
|------------------------------------------------|
|------------------------------------------------|

|------------------------------------------------|
|------------------------------------------------|
|------------------------------14-12-11-12-11~---|
|---------------9-7-9-12-11-12-------------------|
|----9-9/10-9-7----------------------------------|
|--7---------------------------------------------|
|------------------------------------------------|


Outro/Ending
|--7~------------------------------------------|
|-----8~----8~---------------------------------|
|--------7~----7~-----7~-----------------------|
|-----------------11~----11~----11~------------| (12x)
|----------------------------9~-----9~---------|
|--------------------------------------7~------|
|----------------------------------------------|

Outro/Ending
|-----------------------------------------------------------|
|-----------------------------------------------------------|
|-----------------------------------------------------------|
|-----------------------------------------------------------| (4x)
|-----------------------------------------------------------|
|--222--22222--22222222222--222-222-22222-2--2-222222222----|
|--222--22222--22222222222--222-222-22222-2--2-222222222----|
comments
print report bad tab
8 comments total. Showing first comments.
-1 reply
pol315 wrote on February 15 2010, 02:21 pm

It's a decent tab, but..... they play it in drop B. It makes the "After Intro" and the riff right after that alot easier to play. It wouldn't need to be in Drop A because you never drop lower than a 2 on the lowest string...
Nice tab other than that though

+1 reply
pol315 wrote on February 15 2010, 02:23 pm

Sorry, i just read the thing at the top.... ><
The 7 string tuning is actually drop B with an extra high string added to it

+1 reply
wild577mxracer wrote on February 15 2010, 02:30 pm

oh yea i think im going to tab eradication next. drop b

I want to post or [tab]
guest
You may want to rate the tab now too:
select rating
Please do not post tabs as comments. Select "correction" instead!