Oops, an error
Loading. Please wait.

Prisoner Of War Tab

ver1
ver1

Whole song

Interactive

More versions @911Tabs.com
10,414 views 3 this week
8 commentsread comments
1 2 3 4 5
excellent!
x 3
Autoscroll
+/-
esc
set tempo
stop
Contributor
Hey! There's an official Ultimate Guitar app which is ideal
for learning songs when you're away from computer. Get the app
WARNING: You are trying to view
                                    content from Ultimate-Guitar.com
                                    in an unauthorized application,
                                    which is prohibited.

                                    Please use an official Ultimate
                                    Guitar Tabs application for iPhone,
                                    iPad or Android to access legitimate
                                    chords, guitar, bass, and drum tabs
                                    from Ultimate-Guitar.com database.

                                    Type "ultimate guitar tabs" in Apple
                                    App Store's or Android Market's
                                    search to find the application.
PRISONER OF WAR
As recorded by All Shall Perish
(From the 2006 Album THE PRICE OF EXISTENCE)

Transcribed by Eric De La Torre
        

Words and Music by All Shall Perish
Arranged by All Shall Perish

Gtr I (A E A D F# B) - 'Guitar 1'
Gtr II (A E A D F# B) - 'Guitar 2'
Gtr III (A E A D F# B) - 'Solo Guitar'
Gtr IV (A E A D F# B) - 'Synth 1'
Gtr V (A E A D F# B) - 'Synth 2'

 Synth Intro
  Q=120
 4/4
  Gtr IV
   H   Q   Q       Q    Q   Q   Q    +H    Q    Q    Q   Q   Q   Q
|---------------|-----------------|---------------|-------------------|
|---------------|-----------------|---------------|-------------------|
|---------------|-14--------------|---------------|-------------------|
|-12--14--15----|------15--14--12-|-(12)--14---12-|-10--12--14--12----|
|---------------|-----------------|---------------|-------------------|
|---------------|-----------------|---------------|-------------------|
|
| Gtr V
|  W              +W                  W              W
|---------------|-----------------|---------------|-------------------|
|---------------|-----------------|---------------|-------------------|
|---------------|-----------------|---------------|-------------------|
|--0------------|-(0)-------------|---3-----------|--5----------------|
|--0------------|-(0)-------------|---1-----------|--3----------------|
|---------------|-----------------|---------------|-------------------|


   Q   H.      H      H    H.   Q     H  Q   Q      Q  Q  Q  Q   +W
|-----------|-----------|----------|-------------|-------------|--------|
|-----------|-18-----17-|-15---13--|-11--8--11---|-10--8--6--5-|-(5)----|
|-----------|-----------|----------|-------------|-------------|--------|
|-14--15----|-----------|----------|-------------|-------------|--------|
|-----------|-----------|----------|-------------|-------------|--------|
|-----------|-----------|----------|-------------|-------------|--------|
|
|  W          +H      H    W         +H        H    W            +W
|-----------|-----------|----------|-------------|-------------|--------|
|-----------|-----------|----------|-------------|-------------|--------|
|-----------|-----------|----------|-------------|-------------|--------|
|--0--------|-(0)-------|--3-------|-(3)-------2-|--2----------|-(2)----|
|--0--------|-(0)-----5-|--1-------|-(1)-------3-|--0----------|-(0)----|
|-----------|---------5-|----------|-------------|-------------|--------|


   Guitar Intro
    Q=120
   4/4
    Gtr I
    PM-------------------------------|             ~~~~   PM-------------------------|
    |------3-------|  |------3-------|  |--3--|           |--------3--------|  |--3--|
    S. S. S. S. S. S. S. S. S. S. S. S. S. S. E.   Q.     S. S. S. S. S. S. S. S. S. S.
||-----------------------------------------------|--------------------------------------|
||o----------------------------------------------|--------------------------------------|
||-----------------------------------7--7--------|--------------------------------------|
||-----------7-----------------7-----------7-----|--------------------------------------|
||o-5--7--8-----7--8--5--7--8-----7-----------8--|-3b4r=================================|
||-----------------------------------------------|--------0--0--7--8--7--5--7--5--3--2--|
|
|   Gtr II
|   TP          TP          TP          TP         TP   TP      TP          TP
|   Q           Q           Q           Q          Q    Q       Q           Q
||-----------------------------------------------|--------------------------------------|
||o----------------------------------------------|--------------------------------------|
||-----------------------------------------------|--------------------------------------|
||-----------------------------------------------|-7------------------------------------|
||o-------------5-----------7-----------8--------|------8-------7-----------5-----------|
||--0--------------------------------------------|--------------------------------------|


     PM--------------------------|           TP TP TP TP
     |----------------3----------------|
  Q  S. S. S. S. S. S.  S. S. S. S. S. S.    Q  Q  Q  Q
|-----------------------------------------|----------------|
|-----------------------------------------|----------------|
|--------------------------------------2--|-/7--6--7--9----|
|-----------------------------2--3--5-----|----------------|
|----------------0--1--/3--5--------------|----------------|
|-0--0--2--3--5---------------------------|----------------|
|
| TP TP          TP           TP             TP TP TP TP
| Q  Q           Q            Q              Q  Q  Q  Q
|-----------------------------------------|----------------|
|-----------------------------------------|----------------|
|-----------------------------------------|----------------|
|-----------------------------------------|----------------|
|----5-----------7------------5-----------|--3--5--7--5----|
|-0---------------------------------------|----------------|


  TP        TP    TP   TP
  H.        Q     Q.   E T T T T T T T T T T T T T T T T
|--------------|-----------------------------------------|
|--------------|-----------------------------------------|
|-7---------6--|--7----6---------------------------------|
|--------------|---------8-8-7-7-5-5-7-7-8-8-7-7-5-5-3-3-|
|--------------|-----------------------------------------|
|--------------|-----------------------------------------|
|
| TP  TP TP       TP                     TP
| Q   Q  H       +H.                     Q
|--------------|-----------------------------------------|
|--------------|-----------------------------------------|
|--------------|-----------------------------------------|
|--------------|-----------------------------------------|
|-7---8--5-----|-(5)---------------------3---------------|
|--------------|-----------------------------------------|


  TP TP TP       TP TP TP TP   TP TP TP  ~~~
  Q  Q  H        Q  Q  Q  Q    Q  Q  Q   Q
|--------------|-------------|------------------||
|--------------|-------------|-----------------o||
|--------------|-------------|------------------||
|-2--3--0------|-2--3--0-----|------------------||
|--------------|----------3--|-5--1--0---------o||
|--------------|-------------|----------[3]-----||
|
| TP TP TP  TP   TP TP TP TP   TP TP TP  TP
| Q  Q  Q   Q    Q  Q  Q  Q    Q  Q  Q   Q
|--------------|-------------|------------------||
|--------------|-------------|-----------------o||
|--------------|-------------|------------------||
|----------/8--|-7--8--5--8--|-7--5--3---2------||
|-1--5--7------|-------------|-----------------o||
|--------------|-------------|------------------||


   Breakdown I
    PM---------------------------------------------
    S S E E S S E S S E E   S S E E S S E S S E E
||------------------------|-----------------------|
||o-----------------------|-----------------------|
||------------------------|-----------------------|
||--0-0-0---0-0-0-0-0-0-0-|-0-0-0---0-0-0-0-0-0-0-|
||o-0-0-0---0-0-0-0-0-0-0-|-0-0-0---0-0-0-0-0-0-0-|
||--0-0-0---0-0-0-0-0-0-0-|-0-0-0---0-0-0-0-0-0-0-|
|
|   PM---------------------------------------------
|   S S E E S S E S S E E   S S E E S S E S S E E
||------------------------|-----------------------|
||o-----------------------|-----------------------|
||------------------------|-----------------------|
||--0-0-0---0-0-0-0-0-0-0-|-0-0-0---0-0-0-0-0-0-0-|
||o-0-0-0---0-0-0-0-0-0-0-|-0-0-0---0-0-0-0-0-0-0-|
||--0-0-0---0-0-0-0-0-0-0-|-0-0-0---0-0-0-0-0-0-0-|


 ---------------------------------|   PM------|   PM------|
  S S E E S S E S S E E   T T T T E E T T T T E E T T T T E
|-----------------------|-------------------------------------||
|-----------------------|------------------------------------o||
|-----------------------|-------------------------------------||
|-0-0-0---0-0-0-0-0-0-0-|-0-0-0-0-0---0-0-0-0-0---0-0-0-0-0---||
|-0-0-0---0-0-0-0-0-0-0-|-0-0-0-0-0---0-0-0-0-0---0-0-0-0-0--o||
|-0-0-0---0-0-0-0-0-0-0-|-0-0-0-0-0---0-0-0-0-0---0-0-0-0-0---||
|
|---------------------------------|   PM------|   PM------|
| S S E E S S E S S E E   T T T T E E T T T T E E T T T T E
|-----------------------|-------------------------------------||
|-----------------------|------------------------------------o||
|-----------------------|-------------------------------------||
|-0-0-0---0-0-0-0-0-0-0-|-0-0-0-0-0---0-0-0-0-0---0-0-0-0-0---||
|-0-0-0---0-0-0-0-0-0-0-|-0-0-0-0-0---0-0-0-0-0---0-0-0-0-0--o||
|-0-0-0---0-0-0-0-0-0-0-|-0-0-0-0-0---0-0-0-0-0---0-0-0-0-0---||


 Riff A
                                                                         TP          TP
  W                                              H                       Q           Q
|----------------------------------------------|----------------------------------------------|
|----------------------------------------------|----------------------------------------------|
|----------------------------------------------|----------------------------------------------|
|----------------------------------------------|----------------------------------------------|
|----------------------------------------------|-------------------------8-----------7--------|
|----------------------------------------------|----------------------------------------------|
|
|           T                 T                            T                 T
| |--------------------3--------------------|    |--------------------3--------------------|
| S.S.  S.  S. S. S.S.S.  S.  S. S. S.S.S.S.S.   S.S.  S.  S. S. S.S.S.  S.  S. S. S.S.S.S.S.
|----------------------------------------------|----------------------------------------------|
|----------------------------------------------|----------------------------------------------|
|------10--19p10---------10--19p10-------------|------10--19p10---------10--19p10-------------|
|-0h7-------------7p0h7-------------7p0h7p0h7--|-0h7-------------7p0h7-------------7p0h7p0h7--|
|----------------------------------------------|----------------------------------------------|
|----------------------------------------------|----------------------------------------------|


  TP                                   TP  TP     TP       TP         TP      TP        TP      TP
                                                  |---3----|          |---3---|         |---3---|
  H.                                  +E   E      Q        Q          Q       Q         Q       Q
|-----------------------------------------------|------------------------------------------------------|
|-----------------------------------------------|------------------------------------------------------|
|-----------------------------------------------|------------------------------------------------------|
|-----------------------------------------------|------------------------------------------------------|
|-5-----------------------------------(5)--7----|-8--------7----------8------10---------8-------7------|
|-----------------------------------------------|------------------------------------------------------|
|
|           T                 T                               T                   T
| |--------------------3---------------------|    |------------------------3------------------------|
| S.S.  S.  S. S. S.S.S.  S.  S. S. S. S.S.S.S.   S.S.  S.    S. S. S.  S.S.  S.  S. S.   S.S.S.  S.S.
|-----------------------------------------------|------------------------------------------------------|
|------11--20p11---------11--20p11--------------|------11----20p11-----------11--20p11-----------------|
|-0h7-------------7p0h7-------------7p=0h7p0h7--|-0h7---------------7p==0h7---------------7p0h7p==0h7--|
|-----------------------------------------------|------------------------------------------------------|
|-----------------------------------------------|------------------------------------------------------|
|-----------------------------------------------|------------------------------------------------------|


  TP       TP         TP      TP                     TP      TP        TP      TP
  |---------3---------|                              |--------3--------|
  Q        Q          Q      +H                      Q       Q         Q      +H
|--------------------------------------------------|-----------------------------------------------|
|--------------------------------------------------|-----------------------------------------------|
|--------------------------------------------------|-----------------------------------------------|
|--------------------------------------------------|-----------------------------------------------|
|-8--------7----------5------(5)-------------------|-7-------5---------4------(4)------------------|
|--------------------------------------------------|-----------------------------------------------|
|
|             T                   T                             T                  T
| |----------------------3----------------------|    |--------------------3---------------------|
| S.S.  S.    S. S. S.  S.S.  S.  S. S. S.S.S.S.S.   S.S. S.    S.S. S.  S.S.  S.  S.S. S.S.S.S.S.
|--------------------------------------------------|-----------------------------------------------|
|--------------------------------------------------|-----------------------------------------------|
|------10----19p10-----------10--19p10-------------|------9----18p9------------9--18p9-------------|
|-0h7---------------7p==0h7-------------7p0h7p0h7--|-0h6-------------6p==0h6------------6p0h6p0h6--|
|--------------------------------------------------|-----------------------------------------------|
|--------------------------------------------------|-----------------------------------------------|


  TP       TP         TP      TP                     TP                TP    TP        TP      TP
  |---------3---------|                                                      |--------3--------|
  Q        Q          Q      +H                      Q.                E     Q         Q       Q
|--------------------------------------------------|-----------------------------------------------------|
|--------------------------------------------------|-----------------------------------------------------|
|--------------------------------------------------|-----------------------------------------------------|
|--------------------------------------------------|-----------------------------------------------------|
|-8--------7----------5------(5)-------------------|-5-----------------7-----8---------7-------8---------|
|--------------------------------------------------|-----------------------------------------------------|
|
|             T                   T                            T                 T
| |----------------------3----------------------|    |----------------------3----------------------|
| S.S.  S.    S. S. S.  S.S.  S.  S. S. S.S.S.S.S.   S.S.  S.  S. S. S.S.S.  S.  S. S.   S.S.S.  S.S.
|--------------------------------------------------|-----------------------------------------------------|
|--------------------------------------------------|-----------------------------------------------------|
|------10----19p10-----------10--19p10-------------|------10--19p10---------10--19p10--------------------|
|-0h7---------------7p==0h7-------------7p0h7p0h7--|-0h7-------------7p0h7---------------7p0h7p==0h7-----|
|--------------------------------------------------|-----------------------------------------------------|
|--------------------------------------------------|-----------------------------------------------------|


   TP       TP         TP      TP        TP      TP       TP       TP         TP      TP        TP      TP
   |---------3---------|       |--------3--------|        |---------3---------|       |--------3--------|
   Q        Q          Q       Q         Q       Q        Q        Q          Q       Q         Q       Q
|-------------------------------------------------------|------------------------------------------------------|
|-------------------------------------------------------|------------------------------------------------------|
|-------------------------------------------------------|------------------------------------------------------|
|-------------------------------------------------------|------------------------------------------------------|
|-10--------8----------7-------8---------7-------5------|-7--------5----------4-------5---------8-------7------|
|-------------------------------------------------------|------------------------------------------------------|
|
|              T                   T                                  T                   T
|  |------------------------3------------------------|    |------------------------3------------------------|
|  S.S.  S.    S. S. S.  S.S.  S.  S. S.   S.S.S.  S.S.   S.S.  S.    S. S. S.  S.S.  S.  S. S.   S.S.S.  S.S.
|-------------------------------------------------------|------------------------------------------------------|
|-------11----20p11-----------11--20p11-----------------|------11----20p11-----------11--20p11-----------------|
|--0h7---------------7p==0h7---------------7p0h7p==0h7--|-0h7---------------7p==0h7---------------7p0h7p==0h7--|
|-------------------------------------------------------|------------------------------------------------------|
|-------------------------------------------------------|------------------------------------------------------|
|-------------------------------------------------------|------------------------------------------------------|


  TP                                   TP  TP     TP                   TP         TP
  H.                                  +E   E      H                    Q          Q
|-----------------------------------------------|---------------------------------------------|
|-----------------------------------------------|---------------------------------------------|
|-----------------------------------------------|---------------------------------------------|
|-----------------------------------------------|---------------------------------------------|
|-5-----------------------------------(5)--7----|-4--------------------8----------7-----------|
|-----------------------------------------------|---------------------------------------------|
|
|           T                 T                            T               T
| |--------------------3---------------------|    |------------------3------------------|
| S.S.  S.  S. S. S.S.S.  S.  S. S. S. S.S.S.S.   S.S. S.  S.S. S.S.S. S.  S.S. S.S.S.S.S.
|-----------------------------------------------|---------------------------------------------|
|-----------------------------------------------|---------------------------------------------|
|------10--19p10---------10--19p10--------------|------9--18p9---------9--18p9----------------|
|-0h7-------------7p0h7-------------7p=0h7p0h7--|-0h6-----------6p0h6-----------6p0h6p0h6-----|
|-----------------------------------------------|---------------------------------------------|
|-----------------------------------------------|---------------------------------------------|


 Fill
  TP          TP     TP
  W           H      Q.      E
|----------|-------------------|
|----------|-------------------|
|----------|-------------------|
|----------|-------------------|
|-5--------|--8-----12---------|
|----------|-------------------|
|
| TP          TP          TP
| W          +H.         +E  E
|----------|-------------------|
|----------|-------------------|
|----------|-------------------|
|----------|-------------------|
|-8--------|-(8)---------(8)---|
|----------|-------------------|


 Fill II
   H     H       H     H       H     H       H     H
|-------------|-------------|-------------|-------------|
|-------------|-------------|-------------|-------------|
|-14----13----|-14----15----|-14----13----|-14----15----|
|-15----14----|-15----14----|-15----14----|-15----14----|
|-12----11----|-12----13----|-12----11----|-12----13----|
|-12----11----|-12----11----|-12----11----|-12----11----|
|
|  H     H       H     H       H     H       H     H
|-------------|-------------|-------------|-------------|
|-------------|-------------|-------------|-------------|
|-14----13----|-14----15----|-14----13----|-14----15----|
|-15----14----|-15----14----|-15----14----|-15----14----|
|-12----11----|-12----13----|-12----11----|-12----13----|
|-12----11----|-12----11----|-12----11----|-12----11----|


   Riff B
        PM---------|            PM---------|
     S  S  S  S  S  S  S  S  S  S  S  S  S  S  S  S
||--------------------------------------------------|
||o-------------------------------------------------|
||--------------------------------------------------|
||--19p15----------15-19p15-18p14----------14-18-14-|
||o-------17----17----------------16----16----------|
||-----------19----------------------18-------------|
|
|       PM---------|            PM---------|
|    S  S  S  S  S  S  S  S  S  S  S  S  S  S  S  S
||--------------------------------------------------|
||o-------------------------------------------------|
||--------------------------------------------------|
||--15-12----------12-15-12-14-11----------11-14-11-|
||o-------12----12----------------11----11----------|
||-----------12----------------------11-------------|


      PM---------|            PM---|      PM---|
   S  S  S  S  S  S  S  S  S  S  S  S  S  S  S  S   3x
|---------------------------------------------------||
|--------------------------------------------------o||
|-------------------------------------18------------||
|-19p15----------15-19p15-18p14----------18---------||
|-------17----17----------------16----------16-----o||
|----------19----------------------18----------18---||
|
|     PM---------|            PM---|      PM---|
|  S  S  S  S  S  S  S  S  S  S  S  S  S  S  S  S   3x
|---------------------------------------------------||
|--------------------------------------------------o||
|-------------------------------------13------------||
|-15-12----------12-15-12-14-11----------11---------||
|-------12----12----------------11----------11-----o||
|----------12----------------------11----------11---||


   Riff C
    E E E E E E Q     E  E  E  E  E  E  Q
||----------5------|-----------------------|
||o-------6---6----|-------------14--------|
||------7-------7--|----------------13-----|
||-----------------|-------11-14-------14--|
||o---0------------|----11-----------------|
||--0--------------|-11--------------------|
|
|   E E E E E E Q     E  E  E  E  E  E  Q
||----------5------|-----------------------|
||o-------6---6----|-------------14--------|
||------7-------7--|----------------13-----|
||-----------------|-------11-14-------14--|
||o---0------------|----11-----------------|
||--0--------------|-11--------------------|


  E E E E E E Q     E  E  E  E  E  E  Q
|---------5------|-------------------------||
|-------6---6----|-------------14---------o||
|-----7-------7--|----------------13-------||
|----------------|-------11-14-------14----||
|---0------------|----11------------------o||
|-0--------------|-11----------------------||
|
| E E E E E E Q     E  E  E  E  E  E  Q
|---------5------|-------------------------||
|-------6---6----|-------------14---------o||
|-----7-------7--|----------------13-------||
|----------------|-------11-14-------14----||
|---0------------|----11------------------o||
|-0--------------|-11----------------------||


   Breakdown II
    PM----------------------------------------------------------------------
    S S E S S S S S E   S E S S    S  S  E  S  S  S  S  S  E    S  E  S  S
||------------------------------|------------------------------------------|
||o-----------------------------|------------------------------------------|
||------------------------------|------------------------------------------|
||------------------------------|------------------------------------------|
||o-0-0-0---0-0-0-0-0-----0-0-0-|-11-11-11----11-11-11-11-11------11-11-11-|
||--0-0-0---0-0-0-0-0-----0-0-0-|-11-11-11----11-11-11-11-11------11-11-11-|
|
|   E   E E   E   E   E   Q        E     E  E     E     E     E    Q
||----------------5-------------|------------------------------------------|
||o-----------6-------6---------|----------------------14------------------|
||--------7---------------7-----|----------------------------13------------|
||------------------------------|----------11----14---------------14-------|
||o-----0-----------------------|-------11---------------------------------|
||--0---------------------------|-11---------------------------------------|


 ---------------------------------------------------------------------|
  S S E S S S S S E   S E S S    S  S  E  S  S  S  S  S  E    S  E  S  S
|-----------------------------|----------------------------------------------||
|-----------------------------|---------------------------------------------o||
|-----------------------------|----------------------------------------------||
|-----------------------------|----------------------------------------------||
|-0-0-0---0-0-0-0-0-----0-0-0-|-11-11-11----11-11-11-11-11------11-11-11----o||
|-0-0-0---0-0-0-0-0-----0-0-0-|-11-11-11----11-11-11-11-11------11-11-11-----||
|
| E   E E   E   E   E   Q        E     E  E     E     E     E    Q
|---------------5-------------|----------------------------------------------||
|-----------6-------6---------|----------------------14---------------------o||
|-------7---------------7-----|----------------------------13----------------||
|-----------------------------|----------11----14---------------14-----------||
|-----0-----------------------|-------11------------------------------------o||
|-0---------------------------|-11-------------------------------------------||


   Breakdown III
        PM|      PM|      PM      PM|      PM|      PM
     E  E  E  E  E  E  E  E    E  E  E  E  E  E  E  E
||--------------------------|-------------------------|
||o-------------------------|-------------------------|
||--------------------------|-------------------------|
||--15-------15-------15----|-15-------15-------15----|
||o-12-12-12-12-12-12-12-12-|-12-12-12-12-12-12-12-12-|
||--12-12-12-12-12-12-12-12-|-12-12-12-12-12-12-12-12-|
|
|       PM|      PM|      PM      PM|      PM|      PM
|    E  E  E  E  E  E  E  E    E  E  E  E  E  E  E  E
||--------------------------|-------------------------|
||o-------------------------|-------------------------|
||--------------------------|-------------------------|
||--15-------15-------15----|-15-------15-------15----|
||o-12-12-12-12-12-12-12-12-|-12-12-12-12-12-12-12-12-|
||--12-12-12-12-12-12-12-12-|-12-12-12-12-12-12-12-12-|


    PM|   PM|   PM    PM|   PM|   PM
  E E E E E E E E   E E E E E E E E   4x
|-----------------|-------------------||
|-----------------|------------------o||
|-----------------|-------------------||
|-6-----6-----6---|-7-----7-----7-----||
|-4-4-4-4-4-4-4-4-|-4-4-4-4-4-4-4-4--o||
|-4-4-4-4-4-4-4-4-|-4-4-4-4-4-4-4-4---||
|
|   PM|   PM|   PM    PM|   PM|   PM
| E E E E E E E E   E E E E E E E E   4x
|-----------------|-------------------||
|-----------------|------------------o||
|-----------------|-------------------||
|-6-----6-----6---|-7-----7-----7-----||
|-4-4-4-4-4-4-4-4-|-4-4-4-4-4-4-4-4--o||
|-4-4-4-4-4-4-4-4-|-4-4-4-4-4-4-4-4---||


 Outro Pt. I
                                 |-3-|
  Q.   Q.   Q    +E  S S E E E E S S S E   Q.   Q  E Q    +W
|--------------|-------------------------|--------------|--------|
|--------------|-------------------------|--------------|--------|
|--------------|-------------------------|--------------|--------|
|-7----6----4--|-(4)-----4-7-6-4-4h6p4-0-|-6----6--7-4--|-(4)----|
|-4----4----4--|-(4)-0-5-----------------|-0----0--0-0--|-(0)----|
|-4----4----4--|-(4)---------------------|-0----0--0-0--|-(0)----|
|
|                                |-3-|
| Q.   Q.   Q    +E  S S E E E E S S S E   Q.   Q  E Q    +W
|--------------|-------------------------|--------------|--------|
|--------------|-------------------------|--------------|--------|
|--------------|-------------------------|--------------|--------|
|-7----6----4--|-(4)-----4-7-6-4-4h6p4-0-|-6----6--7-4--|-(4)----|
|-4----4----4--|-(4)-0-5-----------------|-0----0--0-0--|-(0)----|
|-4----4----4--|-(4)---------------------|-0----0--0-0--|-(0)----|


                                 |-3-|
  Q.   Q.   Q    +E  S S E E E E S S S E
|--------------|-------------------------|
|--------------|-------------------------|
|--------------|-------------------------|
|-7----6----4--|-(4)-----4-7-6-4-4h6p4-0-|
|-4----4----4--|-(4)-0-5-----------------|
|-4----4----4--|-(4)---------------------|
|
|                                |-3-|
| Q.   Q.   Q    +E  S S E E E E S S S E
|--------------|-------------------------|
|--------------|-------------------------|
|--------------|-------------------------|
|-7----6----4--|-(4)-----4-7-6-4-4h6p4-0-|
|-4----4----4--|-(4)-0-5-----------------|
|-4----4----4--|-(4)---------------------|


  Q.   Q  E Q    +H      E   E   E  E
|--------------|-----------------------|
|--------------|-----------------------|
|-6----6--7----|-----------------------|
|-0----0--0-7--|-(7)----/9---7---6-----|
|-0----0--0-0--|-(0)----(0)-(0)-(0)-7--|
|-0----0--0-0--|-(0)----(0)-(0)-(0)----|
|
| Q.   Q  E Q    +H      E   E   E  E
|--------------|-----------------------|
|--------------|-----------------------|
|-6----6--7----|-----------------------|
|-0----0--0-7--|-(7)----/9---7---6-----|
|-0----0--0-0--|-(0)----(0)-(0)-(0)-7--|
|-0----0--0-0--|-(0)----(0)-(0)-(0)----|


 Outro Pt. II/Solo
  Gtr III
   ~~~~~~~~~~~~~~~~~~~~
                       |-------------------------3--------------------------|
   Q.    Q.   Q    +E  S. S.  S.  S.  S. S.  S.  S.  S.  S.  S.   S.    S.  S.
|----------------|-----------------------9--14--12----------12-----------------|
|----------------|-------------------10-------------15--14-------15----14--12--|
|----------------|---------------11--------------------------------------------|
|----------------|-----------11------------------------------------------------|
|-12----11----9--|-(9)-9h12----------------------------------------------------|
|----------------|-------------------------------------------------------------|
|
| Gtr I
|                                                            |---3---|
|  Q.    Q.   Q    +E  S  S   E       E      E       E       S S     S  E
|----------------|-------------------------------------------------------------|
|----------------|-------------------------------------------------------------|
|----------------|-------------------------------------------------------------|
|--7-----6----4--|-(4)--------4-------7------6-------4-------4h6p====4--0------|
|--4-----4----4--|-(4)-0--5----------------------------------------------------|
|--4-----4----4--|-(4)---------------------------------------------------------|
|
| Gtr II
|                                                            |---3---|
|  Q.    Q.   Q    +E  S  S   E       E      E       E       S S     S  E
|----------------|-------------------------------------------------------------|
|----------------|-------------------------------------------------------------|
|----------------|-------------------------------------------------------------|
|--7-----6----4--|-(4)--------4-------7------6-------4-------4h6p====4--0------|
|--4-----4----4--|-(4)-0--5----------------------------------------------------|
|--4-----4----4--|-(4)---------------------------------------------------------|


                                                                     ~~~~~~~~~~~~~~
   |-----------------------------3-----------------------------|
   S.  S.  S.  S.  S.  S.  S.  S.  S.  S.  S.  S.  S.  S.  S.  S.    H       Q   Q
|-----------------------------------------------------------------|-------------------|
|-15--14--12------14--12------------------------------------------|-------------------|
|-------------14----------14--13--16--14--13--11--14--13--11------|-11-----/14--13----|
|-------------------------------------------------------------14--|-------------------|
|-----------------------------------------------------------------|-------------------|
|-----------------------------------------------------------------|-------------------|
|
|  Q.                      Q               E       Q                +W
|-----------------------------------------------------------------|-------------------|
|-----------------------------------------------------------------|-------------------|
|-----------------------------------------------------------------|-------------------|
|--6-----------------------6---------------7-------4--------------|-(4)---------------|
|--0-----------------------0---------------0-------0--------------|-(0)---------------|
|--0-----------------------0---------------0-------0--------------|-(0)---------------|
|
|  Q.                      Q               E       Q                +W
|-----------------------------------------------------------------|-------------------|
|-----------------------------------------------------------------|-------------------|
|-----------------------------------------------------------------|-------------------|
|--6-----------------------6---------------7-------4--------------|-(4)---------------|
|--0-----------------------0---------------0-------0--------------|-(0)---------------|
|--0-----------------------0---------------0-------0--------------|-(0)---------------|


   ~~~~~~~~~~~~~~~~~~~~~~~~~~~~~~~~~~~~~~~~~~~~~~~
   Q.    Q.    Q     +E   Q.        Q    Q
|-----------------|------------------------------|
|-----------------|------------------------------|
|-11----13----14--|-(14)-13--------14---16-------|
|-----------------|------------------------------|
|-----------------|------------------------------|
|-----------------|------------------------------|
|
|                                        |-3-|
|  Q.    Q.    Q     +E   S  S E E  E E  S S S E
|-----------------|------------------------------|
|-----------------|------------------------------|
|-----------------|------------------------------|
|--7-----6-----4--|--(4)-------4-7--6-4--4h6p4-0-|
|--4-----4-----4--|--(4)--0--5-------------------|
|--4-----4-----4--|--(4)-------------------------|
|
|                                        |-3-|
|  Q.    Q.    Q     +E   S  S E E  E E  S S S E
|-----------------|------------------------------|
|-----------------|------------------------------|
|-----------------|------------------------------|
|--7-----6-----4--|--(4)-------4-7--6-4--4h6p4-0-|
|--4-----4-----4--|--(4)--0--5-------------------|
|--4-----4-----4--|--(4)-------------------------|


 ~~~~~~~~~~     ~~~~~~~~~~
   Q.    Q   E  Q     +H       E   E   E   E
|------------------|--------------------------|
|------------------|--------------------------|
|-18----18--19-14--|-(14)----/16--14--13------|
|------------------|----------------------14--|
|------------------|--------------------------|
|------------------|--------------------------|
|
|  Q.    Q   E  Q     +H       E   E   E   E
|------------------|--------------------------|
|------------------|--------------------------|
|--6-----6---7-----|--------------------------|
|--0-----0---0--7--|--(7)-----/9---7---6------|
|--0-----0---0--0--|--(0)-----(0)-(0)-(0)--7--|
|--0-----0---0--0--|--(0)-----(0)-(0)-(0)-----|
|
|  Q.    Q   E  Q     +H       E   E   E   E
|------------------|--------------------------|
|------------------|--------------------------|
|--6-----6---7-----|--------------------------|
|--0-----0---0--7--|--(7)-----/9---7---6------|
|--0-----0---0--0--|--(0)-----(0)-(0)-(0)--7--|
|--0-----0---0--0--|--(0)-----(0)-(0)-(0)-----|


  PM-------------------------------------------
  S   S  S S  S  S S   S  S S  S  S S  S  S S
|---------------------------------------------|
|---------------------------------------------|
|-------------------------------------------9-|
|----------9-------9--11----9-11-12-9-11-12---|
|-9--11-12---11-12-------12-------------------|
|---------------------------------------------|
|
| Q.               Q.               Q
|---------------------------------------------|
|---------------------------------------------|
|---------------------------------------------|
|-7----------------6----------------4---------|
|-4----------------4----------------4---------|
|-4----------------4----------------4---------|
|
| Q.               Q.               Q
|---------------------------------------------|
|---------------------------------------------|
|---------------------------------------------|
|-7----------------6----------------4---------|
|-4----------------4----------------4---------|
|-4----------------4----------------4---------|


 ------------------------------------|                   ~~~~~~~~     ~~~~~~~~~~
   S   S S  S  S S  S  S S   S  S  S  S     S    S  S    Q.    Q   E  Q     +H       E   E   E   E
|-----------------------------------------------------|------------------|--------------------------|
|-----------------------------------------------------|-14----14--15-----|--------------------------|
|--------9-11----9-11-13-9-/11-13-14-11---/13---14-16-|--------------14--|-(14)----/16--14--13------|
|-11--12------12--------------------------------------|------------------|----------------------14--|
|-----------------------------------------------------|------------------|--------------------------|
|-----------------------------------------------------|------------------|--------------------------|
|
|                                     |---3---|
| +E     S  S  E    E    E      E     S S     S  E       Q.    Q   E  Q     +H       E   E   E   E
|-----------------------------------------------------|------------------|--------------------------|
|-----------------------------------------------------|------------------|--------------------------|
|-----------------------------------------------------|--6-----6---7-----|--------------------------|
|-(4)----------4----7----6------4-----4h6p====4--0----|--0-----0---0--7--|--(7)-----/9---7---6------|
|-(4)----0--5-----------------------------------------|--0-----0---0--0--|--(0)-----(0)-(0)-(0)--7--|
|-(4)-------------------------------------------------|--0-----0---0--0--|--(0)-----(0)-(0)-(0)-----|
|
|                                     |---3---|
| +E     S  S  E    E    E      E     S S     S  E       Q.    Q   E  Q     +H       E   E   E   E
|-----------------------------------------------------|------------------|--------------------------|
|-----------------------------------------------------|------------------|--------------------------|
|-----------------------------------------------------|--6-----6---7-----|--------------------------|
|-(4)----------4----7----6------4-----4h6p====4--0----|--0-----0---0--7--|--(7)-----/9---7---6------|
|-(4)----0--5-----------------------------------------|--0-----0---0--0--|--(0)-----(0)-(0)-(0)--7--|
|-(4)-------------------------------------------------|--0-----0---0--0--|--(0)-----(0)-(0)-(0)-----|


   PM-|                                  PM|
   |----------------------------------3-----------------------------------|
   S   S  S  S  S  S  S  S  S  S   S  S  S  S  S  S  S  S  S  S  S  S  S  S
|-----------------17-21-17-----------------------------17-21-17-------------|
|--------------19----------19-----------------------19----------19----------|
|-----------18----------------18-----------------18----------------18-------|
|--------19-----------------------19----------19----------------------19----|
|-21--21-----------------------------21-21-21----------------------------21-|
|---------------------------------------------------------------------------|
|
|  Q.                          Q.                          Q
|---------------------------------------------------------------------------|
|---------------------------------------------------------------------------|
|---------------------------------------------------------------------------|
|--7---------------------------6---------------------------4----------------|
|--4---------------------------4---------------------------4----------------|
|--4---------------------------4---------------------------4----------------|
|
|  Q.                          Q.                          Q
|---------------------------------------------------------------------------|
|---------------------------------------------------------------------------|
|---------------------------------------------------------------------------|
|--7---------------------------6---------------------------4----------------|
|--4---------------------------4---------------------------4----------------|
|--4---------------------------4---------------------------4----------------|


   PM-|                                   PM|
   |-----------------------------------3-----------------------------------|
   S   S  S  S  S    S  S  S  S  S  S  S  S  S  S  S  S  S  S  S  S  S  S  S
|-------------------17-21-17----------------------------17-21-17-------------|
|--------------19------------19----------------------19----------19----------|
|-----------18------------------18----------------18----------------18-------|
|--------19------------------------19----------19----------------------19----|
|-21--21------------------------------21-21-21----------------------------21-|
|----------------------------------------------------------------------------|
|
|                                                           |--3--|
| +E         S    S     E        E        E        E        S  S  S  E
|----------------------------------------------------------------------------|
|----------------------------------------------------------------------------|
|----------------------------------------------------------------------------|
|-(4)-------------------4--------7--------6--------4--------4h=6p=4--0-------|
|-(4)--------0----5----------------------------------------------------------|
|-(4)------------------------------------------------------------------------|
|
|                                                           |--3--|
| +E         S    S     E        E        E        E        S  S  S  E
|----------------------------------------------------------------------------|
|----------------------------------------------------------------------------|
|----------------------------------------------------------------------------|
|-(4)-------------------4--------7--------6--------4--------4h=6p=4--0-------|
|-(4)--------0----5----------------------------------------------------------|
|-(4)------------------------------------------------------------------------|


   |----------------------------------3----------------------------------|
   S   S  S  S  S  S  S  S  S  S  S  S  S  S  S  S  S  S  S  S  S  S  S  S
|-----------------17-22-17----------------------------17-22-17-------------|
|--------------19----------19----------------------19----------19----------|
|-----------19----------------19----------------19----------------19-------|
|--------19----------------------19----------19----------------------19----|
|-17--21----------------------------21-17-21----------------------------21-|
|--------------------------------------------------------------------------|
|
|  Q.                          Q                 E        Q
|--------------------------------------------------------------------------|
|--------------------------------------------------------------------------|
|--6---------------------------6-----------------7-------------------------|
|--0---------------------------0-----------------0--------7----------------|
|--0---------------------------0-----------------0--------0----------------|
|--0---------------------------0-----------------0--------0----------------|
|
|  Q.                          Q                 E        Q
|--------------------------------------------------------------------------|
|--------------------------------------------------------------------------|
|--6---------------------------6-----------------7-------------------------|
|--0---------------------------0-----------------0--------7----------------|
|--0---------------------------0-----------------0--------0----------------|
|--0---------------------------0-----------------0--------0----------------|


   |----------------3----------------|
   S   S  S  S  S  S  S  S  S  S  S  S  Q       Q
|-----------------17-22-17---------------------------|
|--------------19----------19------------------------|
|-----------19----------------19---------------------|
|--------19----------------------19----12------14----|
|-17--21----------------------------21---------------|
|----------------------------------------------------|
|
| +H                                    E   E   E  E
|----------------------------------------------------|
|----------------------------------------------------|
|----------------------------------------------------|
|-(7)----------------------------------/9---7---6----|
|-(0)----------------------------------(0)-(0)-(0)-7-|
|-(0)----------------------------------(0)-(0)-(0)---|
|
| +H                                    E   E   E  E
|----------------------------------------------------|
|----------------------------------------------------|
|----------------------------------------------------|
|-(7)----------------------------------/9---7---6----|
|-(0)----------------------------------(0)-(0)-(0)-7-|
|-(0)----------------------------------(0)-(0)-(0)---|


 Outro Pt. III
   Q   H.            W                        W               W
|-----------------|-------------------------|--------------|--------|
|-----------------|-------------------------|--------------|--------|
|-----------------|-------------------------|--------------|--------|
|-16\-------------|-------------------------|--------------|--------|
|-----------------|-------------------------|--------------|--------|
|-----------------|-------------------------|--------------|--------|
|
| Gtr I
|                                   |-3-|
|  Q.     Q.   Q    +E  S S E E E E S S S E   Q.   Q  E Q    +W
|-----------------|-------------------------|--------------|--------|
|-----------------|-------------------------|--------------|--------|
|-----------------|-------------------------|--------------|--------|
|--7------6----4--|-(4)-----4-7-6-4-4h6p4-0-|-6----6--7-4--|-(4)----|
|--4------4----4--|-(4)-0-5-----------------|-0----0--0-0--|-(0)----|
|--4------4----4--|-(4)---------------------|-0----0--0-0--|-(0)----|
|
| Gtr II
|                                   |-3-|
|  Q.     Q.   Q    +E  S S E E E E S S S E   Q.   Q  E Q    +W
|-----------------|-------------------------|--------------|--------|
|-----------------|-------------------------|--------------|--------|
|-----------------|-------------------------|--------------|--------|
|--7------6----4--|-(4)-----4-7-6-4-4h6p4-0-|-6----6--7-4--|-(4)----|
|--4------4----4--|-(4)-0-5-----------------|-0----0--0-0--|-(0)----|
|--4------4----4--|-(4)---------------------|-0----0--0-0--|-(0)----|


  Gtr I
                                 |-3-|
  Q.   Q.   Q    +E  S S E E E E S S S E
|--------------|-------------------------|
|--------------|-------------------------|
|--------------|-------------------------|
|-7----6----4--|-(4)-----4-7-6-4-4h6p4-0-|
|-4----4----4--|-(4)-0-5-----------------|
|-4----4----4--|-(4)---------------------|
|
| Gtr II
|                                |-3-|
| Q.   Q.   Q    +E  S S E E E E S S S E
|--------------|-------------------------|
|--------------|-------------------------|
|--------------|-------------------------|
|-7----6----4--|-(4)-----4-7-6-4-4h6p4-0-|
|-4----4----4--|-(4)-0-5-----------------|
|-4----4----4--|-(4)---------------------|


  Q.   Q  E Q    +H      E   E   E  E
|--------------|-----------------------|
|--------------|-----------------------|
|-6----6--7----|-----------------------|
|-0----0--0-7--|-(7)----/9---7---6-----|
|-0----0--0-0--|-(0)----(0)-(0)-(0)-7--|
|-0----0--0-0--|-(0)----(0)-(0)-(0)----|
|
| Q.   Q  E Q    +H      E   E   E  E
|--------------|-----------------------|
|--------------|-----------------------|
|-6----6--7----|-----------------------|
|-0----0--0-7--|-(7)----/9---7---6-----|
|-0----0--0-0--|-(0)----(0)-(0)-(0)-7--|
|-0----0--0-0--|-(0)----(0)-(0)-(0)----|


                                   |-3-|
    Q.   Q.   Q    +E  S S E E E E S S S E   Q.   Q  E Q    +W
||---------------|-------------------------|--------------|--------|
||o--------------|-------------------------|--------------|--------|
||---------------|-------------------------|--------------|--------|
||--7----6----4--|-(4)-----4-7-6-4-4h6p4-0-|-6----6--7-4--|-(4)----|
||o-4----4----4--|-(4)-0-5-----------------|-0----0--0-0--|-(0)----|
||--4----4----4--|-(4)---------------------|-0----0--0-0--|-(0)----|
|
|                                  |-3-|
|   Q.   Q.   Q    +E  S S E E E E S S S E   Q.   Q  E Q    +W
||---------------|-------------------------|--------------|--------|
||o--------------|-------------------------|--------------|--------|
||---------------|-------------------------|--------------|--------|
||--7----6----4--|-(4)-----4-7-6-4-4h6p4-0-|-6----6--7-4--|-(4)----|
||o-4----4----4--|-(4)-0-5-----------------|-0----0--0-0--|-(0)----|
||--4----4----4--|-(4)---------------------|-0----0--0-0--|-(0)----|


                                 |-3-|
  Q.   Q.   Q    +E  S S E E E E S S S E
|--------------|-------------------------|
|--------------|-------------------------|
|--------------|-------------------------|
|-7----6----4--|-(4)-----4-7-6-4-4h6p4-0-|
|-4----4----4--|-(4)-0-5-----------------|
|-4----4----4--|-(4)---------------------|
|
|                                |-3-|
| Q.   Q.   Q    +E  S S E E E E S S S E
|--------------|-------------------------|
|--------------|-------------------------|
|--------------|-------------------------|
|-7----6----4--|-(4)-----4-7-6-4-4h6p4-0-|
|-4----4----4--|-(4)-0-5-----------------|
|-4----4----4--|-(4)---------------------|


  Q.   Q  E Q    +H      E   E   E  E   3x
|--------------|------------------------||
|--------------|-----------------------o||
|-6----6--7----|------------------------||
|-0----0--0-7--|-(7)----/9---7---6------||
|-0----0--0-0--|-(0)----(0)-(0)-(0)-7--o||
|-0----0--0-0--|-(0)----(0)-(0)-(0)-----||
|
| Q.   Q  E Q    +H      E   E   E  E   3x
|--------------|------------------------||
|--------------|-----------------------o||
|-6----6--7----|------------------------||
|-0----0--0-7--|-(7)----/9---7---6------||
|-0----0--0-0--|-(0)----(0)-(0)-(0)-7--o||
|-0----0--0-0--|-(0)----(0)-(0)-(0)-----||



Duration Legend
---------------
W - whole; H - half; Q - quarter; E - 8th; S - 16th; T - 32nd; X - 64th; a - acciaccatura
+ - note tied to previous; . - note dotted; .. - note double dotted
Uncapitalized letters represent notes that are staccato (1/2 duration)
Irregular groupings are notated above the duration line
Duration letters will always appear directly above the note/fret number it represents the
duration for.  Duration letters with no fret number below them represent rests.  Multi-
bar rests are notated in the form Wxn, where n is the number of bars to rest for.  Low
melody durations appear below the staff

Tablature Legend
----------------
 h   - hammer-on
 p   - pull-off
 b   - bend
 pb  - pre-bend
 r   - bend release (if no number after the r, then release immediately)
 /\  - slide into or out of (from/to "nowhere")
 s   - legato slide
 S   - shift slide
 - natural harmonic
[n]  - artificial harmonic
n(n) - tapped harmonic
 ~   - vibrato
 tr  - trill
 T   - tap
 TP  - trem. picking
 PM  - palm muting
\n/  - tremolo bar dip; n = amount to dip
 \n  - tremolo bar down
 n/  - tremolo bar up
/n\  - tremolo bar inverted dip
 =   - hold bend; also acts as connecting device for hammers/pulls
 <> - volume swell (louder/softer)
 x   - on rhythm slash represents muted slash
 o   - on rhythm slash represents single note slash

Misc Legend
-----------
 |  - bar
||  - double bar
||o - repeat start
o|| - repeat end
*|  - double bar (ending)
 :  - bar (freetime)
 $  - Segno
 &  - Coda
Tempo markers -  = BPM(8/16=s8/s16), where s8 = swing 8ths, s16 = swing 16ths

comments
We did not receive enough feedback on this tab! Please rate:
print report bad tab
1 2 3 4 5
8 comments total. Showing first comments.
0 reply
guitarwannabe16 wrote on May 25 2007, 02:19 pm

Hey this is my tab!! Thanks for taking the time to do this man. More people can see it! Btw, how interested are you in doing a bass tab for either tab you transcribed?

0 reply
sfsknight07 wrote on July 5 2007, 01:41 am

this would be amazing if u could transfer it to guitar pro. if ya could do that then...thanks a billion

0 reply
silentshane420 wrote on July 25 2007, 08:28 pm

Dont they tune to drop B?

I want to post or [tab]
guest
You may want to rate the tab now too:
select rating
Please do not post tabs as comments. Select "correction" instead!