Oops, an error
Loading. Please wait.

Promises Tab

ver1
ver1

Whole song

Interactive

More versions @911Tabs.com
6,281 views 1 this week
1 commentread comment
1 2 3 4 5
accurate
x 7
Autoscroll
+/-
esc
set tempo
stop
Contributor
Difficulty
Tuning
intermediate
B F# B E G# C#
Hey! There's an official Ultimate Guitar app which is ideal
for learning songs when you're away from computer. Get the app
WARNING: You are trying to view
                                    content from Ultimate-Guitar.com
                                    in an unauthorized application,
                                    which is prohibited.

                                    Please use an official Ultimate
                                    Guitar Tabs application for iPhone,
                                    iPad or Android to access legitimate
                                    chords, guitar, bass, and drum tabs
                                    from Ultimate-Guitar.com database.

                                    Type "ultimate guitar tabs" in Apple
                                    App Store's or Android Market's
                                    search to find the application.
Tuning: B F# B E G# C#

(Tr) =Trill.
(T)  =Tremolo.

MySpace.com/crissxlikesxtoxfuck
This Is My First Tab. =]
Weeeeeeeeeeeeeeeeeeeeeeeeeeeeeeeeeeeeeeeee.

Guitar One.


-|-----------------------------------------------------------------------|
-|-----------------------------------------------------------------------|
-|-----------------------------------------------------------------------|
-|-0---------0--------------7h8p7-----8---------7--------------7h8p7-----|
-|-0-----7/8-0-----10-8-7-8-------8p7-8-----7/8-7-----10-8-7-8-------8p7-|
-|-0-0000----0-0000-------------------8-8888----7-7777-------------------|
     ....      ...... . . .             ....      .....  . . .

-|---------------------------------------------------------------------------|
-|---------------------------------------------------------------------------|
-|---------------------------------------------------------------------------|
-|-0---------0--------------7h8p7--------------------------------------------|
-|-0-----7/8-0-----10-8-7-8-------8p7----------------------------------------|
-|-0-0000----0-0000-------------------8(T)10(T)12(T)14(T)7(T)14(T)12(T)11----|(T)
     ...       .....  . . .

-|-----------------------------------------------------------------------|
-|-----------------------------------------------------------------------|
-|-----------------------------------------------------------------------|
-|-0---------0--------------7h8p7-----8---------7--------------7h8p7-----|
-|-0-----7/8-0-----10-8-7-8-------8p7-8-----7/8-7-----10-8-7-8-------8p7-|
-|-0-0000----0-0000-------------------8-8888----7-7777-------------------|
     ....      .....  . . .             ....      .....  . . .

-|---------------------------------------------------------------------------|
-|---------------------------------------------------------------------------|
-|---------------------------------------------------------------------------|
-|-0---------0--------------7h8p7--------------------------------------------|
-|-0-----7/8-0-----10-8-7-8-------8p7----------------------------------------|
-|-0-0000----0-0000-------------------8(T)10(T)12(T)14(T)7(T)14(T)12(T)11----|(T)
     ...       .....  . . .

-|------------------------------------------------------------------------|
-|------------------------------------------------------------------------|
-|------------------------------------------------------------------------|
-|-0-0--0-00--------------------------------------------------------------|
-|-0-0--0-00-----000--000--000-000-000-----888--888--888-888-888-777--777-|
-|-0-0--0-00-----000--000--000-000-000-----888--888--888-888-888-888--888-|
   . .  . .      ...  ...  ... ... ...     ...  ...  ... ... ... ...  ...

-|----------------------------------------------------------|
-|----------------------------------------------------------|
-|----------------------------------------------------------|
-|----------------------------------------------------------|
-|-000--000--000-000-000-----888--888--888-888-888-777--777-|
-|-000--000--000-000-000---//888--888--888-888-888-777--777-|
   ...  ...  ... ... ...     ...  ...  ... ... ... ...  ...

-|--------------------------------------------------------|
-|--------------------------------------------------------|
-|------13/14\13--10------13/14\13--10-------13/14\13--10-|
-|-0------------------7-----------------0-----------------|
-|-0----11/12\11--8-------11/12\11--8---0----11/12\11--8--|
-|-0------------------7-----------------0-----------------|

-|-----------------------------------------------|
-|-----------------------------------------------|
-|-----------------------------------------------|
-|-----------------------------8-7-5-7-5---5-----|
-|-8--7--5--7--8--7-/10--8--7------------8---4-5-|
-|-----------------------------------------------|

-|-----------------------------------------------------------------|
-|-----------------------------------------------------------------|
-|-----------------------------------------------------------------|
-|-----------------------------------------------------------------|
-|-----------5-7-8-----------8-7-5-------------------------4-7-4-5-|
-|-000-0-000-------000-0-000-------000-0-000-0-000-0-000-0---------|
   ... . ...       ... . ...       ... . ... . ... . ... .

-|-----------------------------------------------------------------|
-|-----------------------------------------------------------------|
-|-----------------------------------------------------------------|
-|-----------------------------------------------8-7-5-7-5---5-----|
-|-----------5-7-8-----------8-7-5-------------------------8---4-5-|
-|-000-0-000-------000-0-000-------000-0-000-000-------------------|
   ... . ...       ... . ...       ... . ... ...

-|-----------------------------------------------------------------|
-|-----------------------------------------------------------------|
-|-----------------------------------------------------------------|
-|-----------------------------------------------------------------|
-|-----------5-7-8-----------8-7-5-------------------------4-7-4-5-|
-|-000-0-000-------000-0-000-------000-0-000-0-000-0-000-0---------|
   ... . ...       ... . ...       ... . ... . ... . ... .

-|---------------------------------------------------------------|
-|---------------------------------------------------------------|
-|---------------------------------------------------------------|
-|-----------------------------------------------8-7-5-7-5---5---|
-|-----------5-7-8-----------8-7-5-------------------------8---4-|
-|-000-0-000-------000-0-000-------000-0-000-000-----------------|
   ... . ...       ... . ...       ... . ... ...

-|--------------------------|
-|--------------------------|
-|--------------------------|
-|--------------------------|
-|-000-0-000-0-0-0--000-0-0-|
-|-000-0-000-0-0-0--000-0-0-|
   ... . ... . . .  ... . .

-|--------------------------|X8
-|--------------------------|
-|--------------------------|
-|--------------------------|
-|-000-0-000-0-0-0--000-0-0-|
-|-000-0-000-0-0-0--000-0-0-|
   ... . ... . . .  ... . .

Let Notes Ring.
-|------------------------------------------------------|X4(Little Change On The
-|------------------------------------------------------|       Fourth Time)
-|------------------------------------------------------|
-|------------------------------------------------------|
-|-0-0-0--0-0--0-0-0000-0-0-0--0-0--0-0--0000-----------|
-|-0-0-0--0-0--0-0-0000-0-0-0--0-0--0-0--0000-3---------|
   . . .  . .  . . .... . . .  . .  . .  ....

Breakdoooooooooown.(Slower) Let All Notes Ring.
-|---------------------------------------------|
-|---------------------------------------------|
-|---------------------------------------------|
-|---------------------------------------------|
-|-0-0-0--0-0--0-0-0000-0000--0-0--0-0---11-11-|
-|-0-0-0--0-0--0-0-0000-0000--0-0--0-0--011011-|
   . . .  . .  . . .... ....  . .  . .  .  .

-|------------------------------------------------|
-|------------------------------------------------|
-|------------------------------------------------|
-|------------------------------------------------|
-|-0-0-0--0-0--0-0-0000-0000--0-0--0-0---11-11-12-|
-|-0-0-0--0-0--0-0-0000-0000--0-0--0-0--011011011-|
   . . .  . .  . . .... ....  . .  . .  .  .  .

-|---------------------------------------------|
-|---------------------------------------------|
-|---------------------------------------------|
-|-------------------------------------------0-|
-|-0-0-0--0-0--0-0-0000-0000--0-0--0-0---11--0-|
-|-0-0-0--0-0--0-0-0000-0000--0-0--0-0--011--0-|
   . . .  . .  . . .... ....  . .  . .  .

End With Pick Scrapes And Stuff.


Guitar Two.


-|-----------------------------------------------------------------------|
-|-----------------------------------------------------------------------|
-|-----------------------------------------------------------------------|
-|-0---------0--------------7h8p7-----8---------7--------------7h8p7-----|
-|-0-----7/8-0-----10-8-7-8-------8p7-8-----7/8-7-----10-8-7-8-------8p7-|
-|-0-0000----0-0000-------------------8-8888----7-7777-------------------|
     ....       ..... . . .             ....      .....  . . .

-|-----------------------------------------------------------------------|
-|-----------------------------------------------------------------------|
-|-----------------------------------------------------------------------|
-|-0---------0--------------7h8p7----------------------------------------|
-|-0-----7/8-0-----10-8-7-8-------8p7-5(T)7(T)8(t)10(T)4(T)10------------|(T)8(T)7(T)
-|-0-0000----0-0000------------------------------------------------------|
     ...       .....  . . .

-|----------------------------------------------|
-|----------------------------------------------|
-|----------------------------------------------|
-|-0-----------0-----------------10h12p10-------|
-|-0-----10/12-0-----13-12-10-12----------12p10-|
-|-0-0000------0-0000---------------------------|
     ....        .....  .  .  .

-|----------------------------------------------|
-|----------------------------------------------|
-|----------------------------------------------|
-|-8-----------7-----------------10h12p10-------|
-|-8-----10/12-7-----13-12-10-12----------12p10-|
-|-8-8888------7-7777---------------------------|
     ....        .....  .  .  .

-|----------------------------------------------|
-|----------------------------------------------|
-|----------------------------------------------|
-|-0-----------0-----------------10h12p10-------|
-|-0-----10/12-0-----13-12-10-12----------12p10-|
-|-0-0000------0-0000---------------------------|
     ....        .....  .  .  .

-|------------------------------------------------------------------------|
-|------------------------------------------------------------------------|
-|------------------------------------------------------------------------|
-|-0-0--0-0---------------------------------------------------------------|
-|-0-0--0-0-13(Tr)10-12(Tr)8-10(Tr)7-8(Tr)5-7(Tr)4-8(Tr)5-10(Tr)7-12(Tr)8-|
-|-0-0--0-0---------------------------------------------------------------|
   . .  . .

-|-----------------------------|
-|-----------------------------|
-|-----------------------------|
-|-----------------------------|
-|-13(Tr)10---12(Tr)8--10(Tr)7-|
-|-----------------------------|

-|---------------------------------------------------------------|
-|---------------------------------------------------------------|
-|---------------------------------------------------------------|
-|---------------------------------------------------------------|
-|-13(Tr)10-12(Tr)8-10(Tr)7-8(Tr)5-7(Tr)4-8(Tr)5-10(Tr)7-12(Tr)8-|
-|---------------------------------------------------------------|

-|-----------------------------|
-|-----------------------------|
-|-----------------------------|
-|-----------------------------|
-|-13(Tr)10---12(Tr)8--10(Tr)7-|
-|-----------------------------|

-|---------------------------------------------------------------|
-|---------------------------------------------------------------|
-|---------------------------------------------------------------|
-|---------------------------------------------------------------|
-|-13(Tr)10-12(Tr)8-10(Tr)7-8(Tr)5-7(Tr)4-8(Tr)5-10(Tr)7-12(Tr)8-|
-|---------------------------------------------------------------|

-|------------------------------|
-|------------------------------|
-|------------------------------|
-|------------------------------|
-|-13(Tr)10---12(Tr)8--16(Tr)12-|
-|------------------------------|

-|--------------------------------------------------------|
-|--------------------------------------------------------|
-|-----------------------------------6/7\6----------------|
-|-0----------------------------0-------------------------|
-|-0--------------000-00-000-00-0----4/5\4--000-00-000-00-|
-|-0--------------000-00-000-00-0-----------000-00-000-00-|
                  ... .. ... ..             ... .. ... ..

-|-----------------------------------------------------------------------|
-|-----------------------------------------------------------------------|
-|------9/10\9-----------------------------------------------------------|
-|-0----------------------------0----0-0-----------12-10-8-10-8----8-----|
-|-0----7/8-\7----000-00-000-00-0----0-0------------------------12---7-8-|
-|-0--------------000-00-000-00-0----0-0---------------------------------|
                  ... .. ... ..

-|-----------------------------------------------------------------|
-|-----------------------------------------------------------------|
-|-----------------------------------------------------------------|
-|-----------------------------------------------------------------|
-|-----------5-7-8-----------8-7-5-------------------------4-7-4-5-|
-|-000-0-000-------000-0-000-------000-0-000-0-000-0-000-0---------|
   ... . ...       ... . ...       ... . ... . ... . ... .

-|---------------------------------------------------------------------|
-|---------------------------------------------------------------------|
-|---------------------------------------------------------------------|
-|-----------------------------------------------12-10-8-10-8----8-----|
-|-----------5-7-8-----------8-7-5----------------------------12---7-8-|
-|-000-0-000-------000-0-000-------000-0-000-000-----------------------|
   ... . ...       ... . ...       ... . ... ...

-|----------------------------------------------------------------------|
-|----------------------------------------------------------------------|
-|----------------------------------------------------------------------|
-|----------------------------------------------------------------------|
-|-----------8-10-12-----------12-10-8-------------------------7-10-7-8-|
-|-000-0-000---------000-0-000---------000-0-000-0-000-0-000-0----------|
   ... . ...         ... . ...         ... . ... . ... . ... .

-|--------------------------------------------------------------------------|
-|--------------------------------------------------------------------------|
-|--------------------------------------------------------------------------|
-|---------------------------------------------------12-10-8-10-8----8------|
-|-----------8-10-12-----------12-10-8----------------------------12----7-8-|
-|-000-0-000---------000-0-000---------000-0-000-000------------------------|
   ... . ...         ... . ...         ... . ... ...

-|--------------------------|
-|--------------------------|
-|--------------------------|
-|--------------------------|
-|-000-0-000-0-0-0--000-0-0-|
-|-000-0-000-0-0-0--000-0-0-|
   ... . ... . . .  ... . .

-|--------------------------|X8
-|--------------------------|
-|--------------------------|
-|--------------------------|
-|-000-0-000-0-0-0--000-0-0-|
-|-000-0-000-0-0-0--000-0-0-|
   ... . ... . . .  ... . .

-|------------------|X4(Little Change On The Fourth Time, I Think)
-|------------------|
-|------6/7\6--3----|
-|-0--------------7-|
-|-0----4/5\4--1--0-|
-|-0--------------0-|

Breakdoooooooooown.(Slower) Let All Notes Ring.
-|---------------------------------------------|
-|---------------------------------------------|
-|---------------------------------------------|
-|---------------------------------------------|
-|-0-0-0--0-0--0-0-0000-0000--0-0--0-0---11-11-|
-|-0-0-0--0-0--0-0-0000-0000--0-0--0-0--011011-|
   . . .  . .  . . .... ....  . .  . .  .  .

-|------------------------------------------------|
-|------------------------------------------------|
-|------------------------------------------------|
-|------------------------------------------------|
-|-0-0-0--0-0--0-0-0000-0000--0-0--0-0---11-11-12-|
-|-0-0-0--0-0--0-0-0000-0000--0-0--0-0--011011011-|
   . . .  . .  . . .... ....  . .  . .  .  .  .

-|---------------------------------------------|
-|---------------------------------------------|
-|---------------------------------------------|
-|-------------------------------------------0-|
-|-0-0-0--0-0--0-0-0000-0000--0-0--0-0---11--0-|
-|-0-0-0--0-0--0-0-0000-0000--0-0--0-0--011--0-|
   . . .  . .  . . .... ....  . .  . .  .

End With Pick Scrapes And Stuff.



Butts...
comments
print report bad tab
1 comment total.
0 reply
Open her chest, wrote on August 7 2007, 08:57 pm

hey man cant get ahold of you if your profile is on priv.....cant send a message or add ya here is my myspace url i have a question send me a message....myspace.com/SINGLE2122

I want to post or [tab]
guest
You may want to rate the tab now too:
select rating
Please do not post tabs as comments. Select "correction" instead!