Oops, an error
Loading. Please wait.

Stabbing To Purge Dissimulation Tab

ver1
ver1

Whole song

Interactive

More versions @911Tabs.com
4,490 views 18 this week
no commentswrite comment
1 2 3 4 5
worth learning
x 1
Autoscroll
+/-
esc
set tempo
stop
Contributor
Hey! There's an official Ultimate Guitar app which is ideal
for learning songs when you're away from computer. Get the app
WARNING: You are trying to view
                                    content from Ultimate-Guitar.com
                                    in an unauthorized application,
                                    which is prohibited.

                                    Please use an official Ultimate
                                    Guitar Tabs application for iPhone,
                                    iPad or Android to access legitimate
                                    chords, guitar, bass, and drum tabs
                                    from Ultimate-Guitar.com database.

                                    Type "ultimate guitar tabs" in Apple
                                    App Store's or Android Market's
                                    search to find the application.
Gtr I (B F# B E G# C#) - 'Untitled'
Gtr II (B F# B E G# C#) - 'Untitled'


Q=220
4/4

GtrI+II
  E   E   E   E   E   E   E   E     E   E   E    E   E   E    E    E 
|---------------------------------|----------------------------------|
|---------------------------------|----------------------------------|
|---------------------------------|----------------------------------|
|---------------------------------|----------------------------------|
|---------9-----------9-------9---|---------12-----------12-------12-|
|-0---0-------0---0-------0-------|-0---0--------0---0--------0------|

    S S S S S S S S S S S S S S S S   S S S S S S S S S S S S S S S S
||----------------------------------|----------------------------------||
||o---------------------------------|---------------------------------o||
||----------------------------------|----------------------------------||
||----------------------------------|----------------------------------||
||o-8-8-8-8-------------------------|-8-8-8-8-----8-8-8-8-----8-8-----o||
||----------0-0-0-0-0-0-0-0-0-0-0-0-|---------0-0---------0-0-----0-0--||

  S  S  S  S  S S S S S S S S S S S S   S  S  S  S  S S S  S  S  S  S S S  S  S  S
|-------------------------------------|---------------------------------------------|
|-------------------------------------|---------------------------------------------|
|-------------------------------------|---------------------------------------------|
|-------------------------------------|---------------------------------------------|
|-11-11-11-11-------------------------|-11-11-11-11-----11-11-11-11-----11-11-11-11-|
|-------------0-0-0-0-0-0-0-0-0-0-0-0-|-------------0-0-------------0-0-------------|
 
  W                                 W 
|---------------------------------|---------------------------------|
|---------------------------------|---------------------------------|
|-2-------------------------------|-6-------------------------------|
|-1-------------------------------|-5-------------------------------|
|-0-------------------------------|-4-------------------------------|
|---------------------------------|---------------------------------|

  S  S  S  S  S S S S S S S S S S S S   S  S  S  S  S S S  S  S  S  S S S  S  S S
|-------------------------------------|-------------------------------------------|
|-------------------------------------|-------------------------------------------|
|-------------------------------------|-------------------------------------------|
|-------------------------------------|-------------------------------------------|
|-11-11-11-11-------------------------|-11-11-11-11-----11-11-11-11-----11-11-----|
|-------------0-0-0-0-0-0-0-0-0-0-0-0-|-------------0-0-------------0-0-------0-0-|

  S  S  S  S  S S S S S S S S S S S S   S  S  S  S  S S S  S  S  S  S S S  S  S  S
|-------------------------------------|---------------------------------------------|
|-------------------------------------|---------------------------------------------|
|-------------------------------------|---------------------------------------------|
|-------------------------------------|---------------------------------------------|
|-11-11-11-11-------------------------|-11-11-11-11-----11-11-11-11-----11-11-14-14-|
|-------------0-0-0-0-0-0-0-0-0-0-0-0-|-------------0-0-------------0-0-------------|

 S  S  S  S  S S S S S S S S S S S S   S  S  S  S  S S S  S  S  S  S S S  S  S S
|-------------------------------------|-------------------------------------------|
|-------------------------------------|-------------------------------------------|
|-------------------------------------|-------------------------------------------|
|-------------------------------------|-------------------------------------------|
|-11-11-11-11-------------------------|-11-11-11-11-----11-11-11-11-----11-11-----|
|-------------0-0-0-0-0-0-0-0-0-0-0-0-|-------------0-0-------------0-0-------0-0-|

GtrI
  W                                 E  E  E  E  E  E  E  E 
|---------------------------------|-------------------------|
|---------------------------------|-------------------------|
|-2-------------------------------|-------------------------|
|-1-------------------------------|-------------------------|
|-0-------------------------------|-------15-------17-------|
|---------------------------------|-12-14----14-15----12-14-|
|
|GtrII
| W                                 W
|---------------------------------|-------------------------|
|---------------------------------|-------------------------|
|-2-------------------------------|-------------------------|
|-1-------------------------------|-------------------------|
|-0-------------------------------|-------------------------|
|---------------------------------|-------------------------|

GtrI
  S S S S S S S S S S S S S S S S   S S S S S S S S E   E   E   E 
|---------------------------------|---------------------------------|
|---------------------------------|---------------------------------|
|---------------------------------|---------------------------------|
|---------------------------------|---------------------------------|
|---------------------------------|-----------------1---3---1---3---|
|-0-0-0-0-0-0-0-0-0-0-0-0-0-0-0-0-|-0-0-0-0-0-0-0-0-1---3---1---3---|
|
|GtrII
| E   E   H.                        E   E   E   E   E   E   E   E                              
|---------------------------------|---------------------------------|
|---------------------------------|---------------------------------|
|---------------------------------|---------------------------------|
|---------------------------------|---------------------------------|
|-0-------------------------------|-----------------1---3---1---3---|
|-0-------------------------------|-----------------1---3---1---3---|

GtrII+II
  S S S S S S S S S S S S S S S S   S S S S S S S S S S S S S S S S
|---------------------------------|---------------------------------|
|---------------------------------|---------------------------------|
|---------------------------------|---------------------------------|
|---------------------------------|---------------------------------|
|---------------------------------|---------------------------------|
|-0-0-0-0-0-0-0-0-0-0-0-0-0-0-0-0-|-0-0-0-0-0-0-0-0-0-0-0-0-0-0-0-0-|

  S S S S S S S S S S S S S S S S   S S S S S S S S E   E   E   E 
|---------------------------------|---------------------------------|
|---------------------------------|---------------------------------|
|---------------------------------|---------------------------------|
|---------------------------------|---------------------------------|
|---------------------------------|-----------------1---3---1---3---|
|-0-0-0-0-0-0-0-0-0-0-0-0-0-0-0-0-|-0-0-0-0-0-0-0-0-1---3---1---3---|

  S S S S S S S S S S S S S S S S   E  E  E  E  E  E  E  E  
|---------------------------------|-------------------------|
|---------------------------------|-------------------------|
|---------------------------------|-------------------------|
|---------------------------------|-------------------------|
|---------------------------------|-------15-------17-------|
|-0-0-0-0-0-0-0-0-0-0-0-0-0-0-0-0-|-12-14----14-15----12-14-|

  S S S S S S S S S S S S S S S S   S S S S S S S S E   E   E   E 
|---------------------------------|---------------------------------|
|---------------------------------|---------------------------------|
|---------------------------------|---------------------------------|
|---------------------------------|---------------------------------|
|---------------------------------|-----------------1---3---1---3---|
|-0-0-0-0-0-0-0-0-0-0-0-0-0-0-0-0-|-0-0-0-0-0-0-0-0-1---3---1---3---|

  S S S S S S S S S S S S S S S S   Q       Q       Q       Q  
|---------------------------------|---------------------------------|
|---------------------------------|---------------------------------|
|---------------------------------|---------------------------------|
|---------------------------------|---------------------------------|
|---------------------------------|-1-------3-------0---------------|
|-0-0-0-0-0-0-0-0-0-0-0-0-0-0-0-0-|-1-------3-------0------<3>------|

 S S S S S S S S S S S S S S S S   S S S S S S S S E   E   E   E 
|---------------------------------|---------------------------------|
|---------------------------------|---------------------------------|
|---------------------------------|---------------------------------|
|---------------------------------|---------------------------------|
|---------------------------------|-----------------1---3---1---3---|
|-0-0-0-0-0-0-0-0-0-0-0-0-0-0-0-0-|-0-0-0-0-0-0-0-0-1---3---1---3---|

 S S S S S S S S S S S S S S S S   E  E  E  E  E  E  E  E  
|---------------------------------|-------------------------|
|---------------------------------|-------------------------|
|---------------------------------|-------------------------|
|---------------------------------|-------------------------|
|---------------------------------|-------15-------17-------|
|-0-0-0-0-0-0-0-0-0-0-0-0-0-0-0-0-|-12-14----14-15----12-14-|

GtrI
  E   E   E   E   E   E   E   E     E   E   E   E   S S E   S S E 
|---------------------------------|---------------------------------|
|---------------------------------|---------------------------------|
|-------------------------7-------|---------7---10------------------|
|-6---------------6---9-------6---|-3---6---------------------------|
|-----5---2---5-------------------|-----------------0-0-0---0-0-0---|
|---------------------------------|-----------------0-0-0---0-0-0---|
|
|GtrII
| W                                 E   E   E   E   S S E   S S E 
|---------------------------------|---------------------------------|
|---------------------------------|---------------------------------|
|---------------------------------|---------------------------------|
|---------------------------------|---------------------------------|
|---------------------------------|-----------------0-0-0---0-0-0---|
|---------------------------------|-----------------0-0-0---0-0-0---|

GtrI
    E   E   E   E   E   E    E    E     E   E   E    E    S S E   S S E 
||------------------------------------|------------------------------------||
||o-----------------------------------|-----------------------------------o||
||---------------------------7--------|---------7----10--------------------||
||--6---------------6---9---------6---|-3---6------------------------------||
||o-----5---2---5---------------------|-------------------0-0-0---0-0-0---o||
||------------------------------------|-------------------0-0-0---0-0-0----||
|
|GtrII
|   E   E   E   E   E   E    E    E     E   E   E    E    S S E   S S E 
||------------------------------------|------------------------------------||
||o-----------------------------------|-----------------------------------o||
||---------------------------10-------|---------10---13--------------------||
||--9---------------9---12--------9---|-6---9------------------------------||
||o-----8---5---8---------------------|-------------------0-0-0---0-0-0---o||
||------------------------------------|-------------------0-0-0---0-0-0----||

2/4

GtrI+GtrII
  S S E   S S E 
|-----------------|
|-----------------|
|-----------------|
|-----------------|
|-0-0-0---0-0-0---|
|-0-0-0---0-0-0---|

4/4

GtrI
    E   E   E   E   E   E    E    E     E   E   E    E    S S E   S S E 
||------------------------------------|------------------------------------||
||o-----------------------------------|-----------------------------------o||
||---------------------------7--------|---------7----10--------------------||
||--6---------------6---9---------6---|-3---6------------------------------||
||o-----5---2---5---------------------|-------------------0-0-0---0-0-0---o||
||------------------------------------|-------------------0-0-0---0-0-0----||
|
|GtrII
|   E   E   E   E   E   E    E    E     E   E   E    E    S S E   S S E 
||------------------------------------|------------------------------------||
||o-----------------------------------|-----------------------------------o||
||---------------------------10-------|---------10---13--------------------||
||--9---------------9---12--------9---|-6---9------------------------------||
||o-----8---5---8---------------------|-------------------0-0-0---0-0-0---o||
||------------------------------------|-------------------0-0-0---0-0-0----||

2/4

GtrI+GtrII
  S S E   S S E 
|-----------------|
|-----------------|
|-----------------|
|-----------------|
|-0-0-0---0-0-0---|
|-0-0-0---0-0-0---|

4/4

GtrI
  S S E   S S E   S S E   S S E 
|---------------------------------|
|---------------------------------|
|---------------------------------|
|---------------------------------|
|-0-0-0---0-0-0---0-0-0---0-0-0---|
|-0-0-0---0-0-0---0-0-0---0-0-0---|
|
|GtrII
| W
|---------------------------------|
|---------------------------------|
|---------------------------------|
|---------------------------------|
|---------------------------------|
|---------------------------------|

GtrI+II
    S S E   S S E   H                 E   S S E   E   S S E   S S E 
||----------------------------------|---------------------------------|
||o---------------------------------|---------------------------------|
||----------------------------------|---------------------------------|
||----------------------------------|---------------------------------|
||o-0-0-0---0-0-0-------------------|-----0-0-0---0---0-0-0---0-0-0---|
||--0-0-0---0-0-0-------------------|-----0-0-0---0---0-0-0---0-0-0---|

GtrI
  S S E   S S E   H                 E   E   E   E   E   E   E   E
|---------------------------------|---------------------------------|
|---------------------------------|---------------------------------|
|---------------------------------|-------------------------7---10--|
|---------------------------------|---------6---9---6---9-----------|
|-0-0-0---0-0-0-------------------|-5---8---------------------------|
|-0-0-0---0-0-0-------------------|---------------------------------|
|
|GtrII
| S S E   S S E   H                 E   E   E   E   E   E   E   E  
|---------------------------------|---------------------------------|
|---------------------------------|---------------------------------|
|---------------------------------|-------------------------10--13--|
|---------------------------------|---------9---12--9---12----------|
|-0-0-0---0-0-0-------------------|-8---11--------------------------|
|-0-0-0---0-0-0-------------------|---------------------------------|

GtrI+II
  S S E   S S E   H                 E   S S E   E   S S E   S S E 
|---------------------------------|---------------------------------|
|---------------------------------|---------------------------------|
|---------------------------------|---------------------------------|
|---------------------------------|---------------------------------|
|-0-0-0---0-0-0-------------------|-----0-0-0---0---0-0-0---0-0-0---|
|-0-0-0---0-0-0-------------------|-----0-0-0---0---0-0-0---0-0-0---|

GtrI
  E S E S E S E S E S E S E S E S   E S E S E S E S E S E S E S E S
|---------------------------------|----------------------------------||
|---------------------------------|-------------------------9---12--o||
|-------------------------7---10--|---------7---10--7---10-----------||
|---------6---9---6---9-----------|-6---9----------------------------||
|-5---8---------------------------|---------------------------------o||
|---------------------------------|----------------------------------||
|
|GtrII
| E   E   E   E   E   E   E   E     E   E   E   E   E   E   E   E 
|---------------------------------|----------------------------------||
|---------------------------------|-------------------------12--15--o||
|-------------------------10--13--|---------10--13--10--13-----------||
|---------9---12--9---12----------|-9---12---------------------------||
|-8---11--------------------------|---------------------------------o||
|---------------------------------|----------------------------------||

GtrI
  E   E   S S E   E   E   E   E     E   E   E   E   S S E   S S E 
|---------------------------------|---------------------------------|
|---------------------------------|---------------------------------|
|---------------------------------|---------------------------------|
|---------------------------------|---------------------------------|
|-11--------------11------12------|-11------------------------------|
|-----0---0-0-0-------0-------0---|-----0---0---0---0-0-0---0-0-0---|
|
|GtrII
| W                                 W
|---------------------------------|---------------------------------|
|---------------------------------|---------------------------------|
|---------------------------------|---------------------------------|
|---------------------------------|---------------------------------|
|---------------------------------|---------------------------------|
|---------------------------------|---------------------------------|

GtrI
  E   E   S S E   E   E   E   E     E   E   E   E   E   E   E   E 
|---------------------------------|---------------------------------|
|---------------------------------|---------------------------------|
|---------------------------------|---------------------------------|
|---------------------------------|-----------------7---6-------6---|
|-11--------------11------12------|-5---8---5---8-----------8-------|
|-----0---0-0-0-------0-------0---|---------------------------------|
|
|GtrII
| W                                 E   E   E   E   E   E   E   E 
|---------------------------------|---------------------------------|
|---------------------------------|---------------------------------|
|---------------------------------|---------------------------------|
|---------------------------------|-----------------10--9-------9---|
|---------------------------------|-8---11--8---11----------11------|
|---------------------------------|---------------------------------|

GtrI+II
  E   E   S S E   E   E   E   E     E   E   E   E   S S E   S S E 
|---------------------------------|---------------------------------|
|---------------------------------|---------------------------------|
|---------------------------------|---------------------------------|
|---------------------------------|---------------------------------|
|-11--------------11------12------|-11------------------------------|
|-----0---0-0-0-------0-------0---|-----0---0---0---0-0-0---0-0-0---|

GtrI
  E   E   E   E   E   E   E   E     E   E   E   E   E   E   E   E  
|---------------------------------|---------------------------------|
|---------------------------------|---------------------------------|
|---------------------------------|-10--------------10------11------|
|-----------------7---6-------6---|-----9---6---9-------9-------9---|
|-5---8---5---8-----------8-------|---------------------------------|
|---------------------------------|---------------------------------|
|
|GtrII
| E   E   E   E   E   E   E   E     E   E   E   E   E   E   E   E  
|---------------------------------|---------------------------------|
|---------------------------------|---------------------------------|
|---------------------------------|-13--------------13------14------|
|-----------------10--9-------9---|-----12--9---12------12------12--|
|-8---11--8---11----------11------|---------------------------------|
|---------------------------------|---------------------------------|

GtrI+II
    E   E   S S E   E   E   E   E     E   E   E   E   S S E   S S E 
||----------------------------------|---------------------------------|
||o---------------------------------|---------------------------------|
||----------------------------------|---------------------------------|
||----------------------------------|---------------------------------|
||o-11--------------11------12------|-11------------------------------|
||------0---0-0-0-------0-------0---|-----0---0---0---0-0-0---0-0-0---|

GtrI
  E   E   S S E   E   E   E   E     E   E   E   E   E   E   E   E 
|---------------------------------|---------------------------------|
|---------------------------------|---------------------------------|
|---------------------------------|---------------------------------|
|---------------------------------|-----------------7---6-------6---|
|-11--------------11------12------|-5---8---5---8-----------8-------|
|-----0---0-0-0-------0-------0---|---------------------------------|
|
|GtrII
|  E   E   S S E   E   E   E   E     E   E   E   E   E   E   E   E 
|---------------------------------|---------------------------------|
|---------------------------------|---------------------------------|
|---------------------------------|---------------------------------|
|---------------------------------|------------------10--9-------9--|
|-11--------------11------12------|-8---11---8---11----------11-----|
|-----0---0-0-0-------0-------0---|---------------------------------|

GtrI+II
  E   E   S S E   E   E   E   E     E   E   E   E   S S E   S S E 
|---------------------------------|---------------------------------|
|---------------------------------|---------------------------------|
|---------------------------------|---------------------------------|
|---------------------------------|---------------------------------|
|-11--------------11------12------|-11------------------------------|
|-----0---0-0-0-------0-------0---|-----0---0---0---0-0-0---0-0-0---|

GtrI
  E   E   E   E   E   E   E   E     E   E   E   E   E   E   E   E  
|---------------------------------|----------------------------------||
|---------------------------------|---------------------------------o||
|---------------------------------|-10--------------10------11-------||
|-----------------7---6-------6---|-----9---6---9-------9-------9----||
|-5---8---5---8-----------8-------|---------------------------------o||
|---------------------------------|----------------------------------||
|
|GtrII
| E   E   E   E   E   E   E   E     E   E   E   E   E   E   E   E  
|---------------------------------|----------------------------------||
|---------------------------------|---------------------------------o||
|---------------------------------|-13--------------13------14-------||
|-----------------10--9-------9---|-----12--9---12------12------12---||
|-8---11--8---11----------11------|---------------------------------o||
|---------------------------------|----------------------------------||

GtrI
  E   E   E   E   E   E   E   E     E   E   E   E   E   E   E   E 
|---------------------------------|---------------------------------|
|---------------------------------|---------------------------------|
|-7---------------7---------------|-----------------7---------------|
|-----6---3---6-------6---6-------|---------6-----------6---3---6---|
|-----------------------------5---|-2---5-------5-------------------|
|---------------------------------|---------------------------------|
|
|GtrII
| E   E   E   E   E   E   E   E     E   E   E   E   E   E   E   E 
|---------------------------------|---------------------------------|
|---------------------------------|-----------------9---------------|
|-------------------------7-------|---------7-----------7---4---7---|
|-6---------------6-----------6---|-3---6-------6-------------------|
|-----5---2---5-------5-----------|---------------------------------|
|---------------------------------|---------------------------------|

GtrI                                2/4
  E   E   E   E   E   E   E   E     E   Q.  
|---------------------------------|---------------------------------|
|---------9---------------9-------|---------------------------------|
|-7-----------7---4---7-------7---|---------------------------------|
|-----6---------------------------|---------------------------------|
|---------------------------------|-0-------------------------------|
|---------------------------------|-0-------------------------------|
|
|GtrII                              2/4
| E   E   E   E   E   E   E   E     E   Q.   
|---------------------------------|---------------------------------|
|-9-------12--------------12------|---------------------------------|
|-----7-------10--7---10------10--|---------------------------------|
|---------------------------------|---------------------------------|
|---------------------------------|-0-------------------------------|
|---------------------------------|-0-------------------------------|

The rest is just a breakdown and its easy to figure out.


Duration Legend
---------------
W - whole; H - half; Q - quarter; E - 8th; S - 16th; T - 32nd; X - 64th; a - acciaccatura
+ - note tied to previous; . - note dotted; .. - note double dotted
Uncapitalized letters represent notes that are staccato (1/2 duration)
Irregular groupings are notated above the duration line
Duration letters will always appear directly above the note/fret number it represents the
duration for.  Duration letters with no fret number below them represent rests.  Multi-
bar rests are notated in the form Wxn, where n is the number of bars to rest for.  Low
melody durations appear below the staff

Tablature Legend
----------------
 h   - hammer-on
 p   - pull-off
 b   - bend
 pb  - pre-bend
 r   - bend release (if no number after the r, then release immediately)
 /\  - slide into or out of (from/to "nowhere")
 s   - legato slide
 S   - shift slide
  - natural harmonic
[n]  - artificial harmonic
n(n) - tapped harmonic
 ~   - vibrato
 tr  - trill
 T   - tap
 TP  - trem. picking
 PM  - palm muting
\n/  - tremolo bar dip; n = amount to dip
 \n  - tremolo bar down
 n/  - tremolo bar up
/n\  - tremolo bar inverted dip
 =   - hold bend; also acts as connecting device for hammers/pulls
 <>  - volume swell (louder/softer)
 x   - on rhythm slash represents muted slash
 o   - on rhythm slash represents single note slash

Misc Legend
-----------
 |  - bar
||  - double bar
||o - repeat start
o|| - repeat end
*|  - double bar (ending)
 :  - bar (freetime)
 $  - Segno
 &  - Coda
Tempo markers -  = BPM(8/16=s8/s16), where s8 = swing 8ths, s16 = swing 16ths
comments
We did not receive enough feedback on this tab! Please rate:
print report bad tab
1 2 3 4 5
I want to post or [tab]
guest
You may want to rate the tab now too:
select rating
Please do not post tabs as comments. Select "correction" instead!