Oops, an error
Loading. Please wait.

Air Thar I Breathe Tab

ver1
ver1

Intro

Whole song

More versions @911Tabs.com
3,503 views 3 this week
1 commentread comment
1 2 3 4 5
excellent!
x 2
Autoscroll
+/-
esc
set tempo
stop
Contributor
Difficulty
Tuning
advanced
D G C F A D
Hey! There's an official Ultimate Guitar app which is ideal
for learning songs when you're away from computer. Get the app
WARNING: You are trying to view
                                    content from Ultimate-Guitar.com
                                    in an unauthorized application,
                                    which is prohibited.

                                    Please use an official Ultimate
                                    Guitar Tabs application for iPhone,
                                    iPad or Android to access legitimate
                                    chords, guitar, bass, and drum tabs
                                    from Ultimate-Guitar.com database.

                                    Type "ultimate guitar tabs" in Apple
                                    App Store's or Android Market's
                                    search to find the application.
-------------------------------------------------------------------------------
                             The Air that i breathe - All That Remains
-------------------------------------------------------------------------------
Tabbed by:Jake Pomerleau
Email:Jakepomerleau@aol.com

Tuning:D standard


(Intro)

D|---------------------------------------------------------------------------|
A|---------------------------------------------------------------------------|
F|---------------------------------------------------------------------------|
C|-1411111111111411111111111411111114111111111114111111111114111111----------|
G|---------------------------------------------------------------------------|
D|---------------------------------------------------------------------------|

D|--------------------------------------------------------------------------|
A|--------------------------------------------------------------------------|
F|--------------------------------------------------------------------------|
C|--------------------------------------------------------------------------|
G|-141111111111141111111111111411111116121212121216121212121216121212-------|
D|--------------------------------------------------------------------------|

D|---------------------------------------------------------------------------|
A|---------------------------------------------------------------------------|
F|---------------------------------------------------------------------------|
C|-1411111111111411111111111411111114111111111114111111111114111111----------|
G|---------------------------------------------------------------------------|
D|---------------------------------------------------------------------------|

D|--------------------------------------------------------------------------|
A|--------------------------------------------------------------------------|
F|--------------------------------------------------------------------------|
C|--------------------------------------------------------------------------|
G|-1411111111111411111111111114111111-161414141414141614141414141416--------|
D|--------------------------------------------------------------------------|

D|--------------------------------------------------------------------------|
A|--------------------------------------------------------------------------|
F|---------64--------------------------64--------------------64-------------|
C|-----6---XX-2--------------------6---XX-2------4-------6---XX-2-----------|
G|-44444-4442-0----------------44444-4442-0-0246--66-44444-4442-0-----------|
D|---------------000000-000000-------------------------------------000000---|

D|--------------------------------------------------------------------------|
A|--------------------------------------------------------------------------|
F|------------------------------------------4466----------------------------|
C|------------------------------64----446677--------------------------------|
G|--------------76----76----76-----66---------------------------------------|
D|-000000---4444---44-----44------------------------------------------------|

(INTRO SOLO)
D|----------------------------------19--21-16-19p16\14-16p14\12/14-16-16-14-|
A|-/14~------1416-/17-19-16~--16-17-----------------------------------------|
F|-------13-----------------------------------------------------------------|
C|--------------------------------------------------------------------------|
G|--------------------------------------------------------------------------|
D|--------------------------------------------------------------------------|

D|--------------------------------------------------------------------------|
A|-17-16~-------------------------------------------------------------------|
F|--------------------------------------------------------------------------|
C|--------------------------------------------------------------------------|
G|--------------------------------------------------------------------------|
D|--------------------------------------------------------------------------|

(VERSE1)
D|--------------------------------------------------------------------------|
A|--------------------------------------------------------------------------|
F|--------------------------------------------------------------------------|
C|-6-6-4/6--4/6-----21----4--------2----------------6--6--4/6--4/6-----21---|
G|-4-4-2/4--2/4-------42--2----4---0----6---------2-4--4--2/4--2/4-------42-|
D|--0-0----0----000---------00-2-00--00-4-00-024------0--0----0----000------|

D|--------------------------------------------------------------------------|
A|--------------------------------------------------------------------------|
F|--------------------------------------------------------------------------|
C|-4---------2--------------------------------------------------------------|
G|-2----4----0---6-------2--------------------------------------------------|
D|---00-2-00--00-4-00-024---------------------------------------------------|

D|---------------------------------------------------------------------------|
A|---------------------------------------------------------------------------|
F|---------------------------------------------------------------------------|
C|-1411111111111411111111111411111114111111111114111111111114111111----------|
G|---------------------------------------------------------------------------|
D|---------------------------------------------------------------------------|

D|---------------------------------------------------------------------------|
A|---------------------------------------------------------------------------|
F|---------------------------------------------------------------------------|
C|---------------------------------------------------------------------------|
G|-1411111111111411111111111114111111-161414141414141614141414141416---------|
D|---------------------------------------------------------------------------|

(CHORUS)
D|--------------------------------------------------------------------------|
A|--------------------------------------------------------------------------|
F|--------------------------------------------------------------------------|
C|-6---66---99--99----------------------6--66--99--99-----------------------|
G|-4---44---66--66----/7-6-4------------4--44--66--66---/7-6-4--------------|
D|-4---44---77--77-0----------02040507--4--44--77--77--0--------02040507----|

(VERSE2)
D|--------------------------------------------------------------------------|
A|--------------------------------------------------------------------------|
F|--------------------------------------------------------------------------|
C|-6-6-4/6--4/6-----21----4--------2----------------6--6--4/6--4/6-----21---|
G|-4-4-2/4--2/4-------42--2----4---0----6---------2-4--4--2/4--2/4-------42-|
D|--0-0----0----000---------00-2-00--00-4-00-024------0--0----0----000------|

D|-----------------------------------------------------------------------------|
A|-----------------------------------------------------------------------------|
F|-----------------------------------------------------------------------------|
C|-6-6-4/6--4/6-----64----4--------2----------------6--6--4/6--4/6-----64------|
G|-4-4-2/4--2/4-------76--2----4---0----6-----46----4--4--2/4--2/4-------76----|
D|--0-0----0----000---------00-2-00--00-4-0046------0--0----0----000-----------|

D|---------------------------------------------------------------------------|
A|---------------------------------------------------------------------------|
F|---------------------------------------------------------------------------|
C|-4--------2----------------------------------------------------------------|
G|-2---4----0---6-----46-----------------------------------------------------|
D|--00-2-00--00-4-0046-------------------------------------------------------|

bRIDGE
CHORUSX2
PRE SOLO BRIDGE
D|------------------2------------0------------------------------------------|
A|----4-----2------5--5-----------------------------------------------------|
F|---6-6---4--4---6----6------8----8----------------------------------------|
C|--6---6-2----2-4------4---9--------9---X2---------------------------------|
G|-4-----0----------------7-------------------------------------------------|
D|--------------------------------------------------------------------------|

D|--------------------------------------------------------------------------|
A|--------------------------------------------------------------------------|
F|------------9B~--------11B~--------13B~-----------------------------------|
C|------------------------------------------------------------X2------------|
G|--/7-/7-7911----777911------777911--------12-11-9-11-9-7------------------|
D|--------------------------------------------------------------------------|

(SOLO)
D|-19b21r19b21~---16-21161916----16-----------------------------------------|
A|----------------------------20-----20-----------20b-------------18b-16----|
F|---------------------------------------21-19-17-----21-19-17-19--------17-|
C|--------------------------------------------------------------------------|
G|--------------------------------------------------------------------------|
D|--------------------------------------------------------------------------|

D|--------------12----12------12------12------12------12------12-------12----|
A|---------16B17--16B7---16B17---16B17---16B17---16B17---16B17---16B17-------|
F|16\13~---------------------------------------------------------------------|
C|---------------------------------------------------------------------------|
G|---------------------------------------------------------------------------|
D|---------------------------------------------------------------------------|

D|--------------------------------------------------------------------------|
A|-14B16R14B16R14-------14------14-------14---------------------------------|
F|----------------13-11-----11------11\9----9\8--8h9p8----------------------|
C|------------------------------------------------------9-----------6-------|
G|---------------------------------------------------------11---7/9---------|
D|--------------------------------------------------------------------------|

D|--------------------------------------------------------------------------|
A|--------------------12----------------------------------------------------|
F|------------9-11-11b---11-9-11~-----------11-13-/14-11-/13-9-/11-8--------|
C|----9--9h11----------------------11-13-14---------------------------------|
G|9h11----------------------------------------------------------------------|
D|--------------------------------------------------------------------------|

D|--------------------------------------------------------------------------|
A|--------------------------------------------------------------------------|
F|--8h9h11p9p8--------------------------------------------------------------|
C|--------------11p9p7p6h7h9p7p6--------------------------------------------|
G|-------------------------------9p7p6h7h9/11-12-9~-------------------------|
D|--------------------------------------------------------------------------|

D|------------------------------------------------------------------11b~----|
A|-------------------------------------------12----------14-----------------|
F|-------------------------------13---------------10h12------10h12----------|
C|------------11-------14-------------9h11----------------------------------|
G|-----14---------9h11-----9h11---------------------------------------------|
D|-9h12---9h12--------------------------------------------------------------|


D|12h13p12p9-----10----------------------------------------------------------|
A|-------------12---12-9-----------11ph~-------------------------------------|
F|-----------------------11-10-9-10------------------------------------------|
C|---------------------------------------------------------------------------|
G|---------------------------------------------------------------------------|
D|---------------------------------------------------------------------------|

D|----------------11h12p11--------------------------------------------------|
A|------------12----------13-10---------------------------------------------|
F|--------11---------------------11\---8p5-8p5------------------------------|
C|----12---------------------------------------7p4--------------------------|
G|-14-----------------------------------------------6------6-4~-------------|
D|-----------------------------------------------------8-4------------------|
And u guys can figure out the rest haha


************************************

| /   slide up
| \   slide down
| h   hammer-on
| p   pull-off
| ~   vibrato
| +   harmonic
| x   Mute note
| b   Bend
| pb  Pre-bend
| br  Bend release
| pbr Pre-bend release
| brb Bend release bend

************************************
comments
We did not receive enough feedback on this tab! Please rate:
print report bad tab
1 2 3 4 5
1 comment total.
0 reply
jackson.d.abbot wrote on November 11 2014, 08:55 pm

This tab deserves way more likes and views..... 5 stars

I want to post or [tab]
guest
You may want to rate the tab now too:
select rating
Please do not post tabs as comments. Select "correction" instead!