Oops, an error
Loading. Please wait.

And Death In My Arms Tab

ver1
ver1

Whole song

Interactive

More versions @911Tabs.com
22,915 views 24 this week
8 commentsread comments
1 2 3 4 5
excellent!
x 13
Autoscroll
+/-
esc
set tempo
stop
Hey! There's an official Ultimate Guitar app which is ideal
for learning songs when you're away from computer. Get the app
WARNING: You are trying to view
                                    content from Ultimate-Guitar.com
                                    in an unauthorized application,
                                    which is prohibited.

                                    Please use an official Ultimate
                                    Guitar Tabs application for iPhone,
                                    iPad or Android to access legitimate
                                    chords, guitar, bass, and drum tabs
                                    from Ultimate-Guitar.com database.

                                    Type "ultimate guitar tabs" in Apple
                                    App Store's or Android Market's
                                    search to find the application.
Note: I took no part in the writing of this tab! I just found it and though it would
help those out on this site who couldn't find it, because I know it took me forever in
order to find this one. Enjoy!
#----------------------------------PLEASE NOTE---------------------------------#
#This file is the author's own work and represents their interpretation of the-#
#song. You may only use this file for private study, scholarship, or research.-#
#---------------This file was downloaded from www.taborama.com-----------------#
#------------------------------------------------------------------------------#

                              AND DEATH IN MY ARMS
                         As recorded by All That Remains
                    (From the 2003 Album THIS DARKENED HEART)

Words by Philip Labonte

Music by All That Remains
Arranged by All That Remains and Adam Dutkiewicz
Transcribed by Josh C.

         D5/F#                 E5                   G5                  C5/G
      2 x x 2 3 x          x x 2 4 x x          x x 5 7 x x          x x 5 5 x x

         D/F#                E5open               G5open                 A5
      x x 4 7 x x          0 2 x x x x          x x x 0 3 x          x 0 2 x x x

          B5                  D5/A                 Bb5/F                G5/D
      x 2 4 x x x          x 0 0 x x x          x x 3 3 x x          x 5 5 x x x

       Bb5/FVIII              E5/B
      x 8 8 x x x          x 2 2 x x x

Gtr I (D G C F A D) - 'Acoustic Guitar'
Gtr II (D G C F A D) - 'Distorted Guitar (right channel)'
Gtr III (D G C F A D) - 'Acoustic Guitar'
Gtr IV (D G C F A D) - 'Distorted Guitar (left channel)'
Gtr V (D G C F A D) - 'Distorted Guitar'
Gtr VI (D G C F A D) - 'Distorted Guitar'

 Intro
  Q=115
  N.C.
 4/4
  Gtr I
  E E E E +E  E E E   E E E  E E E E E   E E E  E E E E E
|-----------------0-|-7---5------5-0---|-3---2------2-0----|
|-------------------|---5----3-------3-|---0----0-------0--|
|-------0-(0)---4---|------------------|----------2--------|
|-----4-------------|-5---4----4-------|-2---0-------------|
|---7---------7-----|------------------|-------------------|
|-0-----------------|------------------|-------------------|
|
| Gtr VI
| W                   Q   H.             Q   H.
|-------------------|-7---5------------|-3---2-------------|
|-------------------|------------------|-------------------|
|-------------------|------------------|-------------------|
|-------------------|------------------|-------------------|
|-------------------|------------------|-------------------|
|-------------------|------------------|-------------------|


          |-3-|
  E E E E E E E E E   E E E E +E  E E E   E E E  E E E E E
|-------------------|-0---------------0-|-7---5------5-0---|
|---------0---------|-------------------|---5----3-------3-|
|-0---0-----0-------|-------0-(0)---4---|------------------|
|---2---4-2---2-0-4-|-----4-------------|-5---4----4-------|
|-3---5-------------|---7---------7-----|------------------|
|-------------------|-0-----------------|------------------|
|
| Q   Q   Q     Q     W                   Q   H.
|---------7-----5---|-------------------|-7---5------------|
|-8---7-------------|-5-----------------|------------------|
|-------------------|-------------------|------------------|
|-------------------|-------------------|------------------|
|-------------------|-------------------|------------------|
|-------------------|-------------------|------------------|


                     |-3-| |-3-| |--3--| |-3-|
  E E E  E E E E E   E E E E E E E E S S E E E
|-3---2------2-0---|---------------------------|
|---0----0-------0-|-1p0-------------0---------|
|----------2-------|-----0-2p0---------------2-|
|-2---0------------|-----------4---2---0---0---|
|------------------|-3-----2-----0-------------|
|------------------|---------------------3-----|
|
| Q   H.             Q     Q     Q       Q
|-3---2------------|---------------------------|
|------------------|-1-----0-------------------|
|------------------|-------------2-------0-----|
|------------------|---------------------------|
|------------------|---------------------------|
|------------------|---------------------------|


  E E E E +E  E E E    E  E  E   E  E  E E  E    E E  E  E E E E E
|-0---------------0-|--7-----5---------5-0----|--3----2------2-0---|
|-------------------|-----5------3----------3-|----0-----0-------0-|
|-------0-(0)---4---|-------------------------|------------2-------|
|-----4-------------|--5-----4------4---------|--2----0------------|
|---7---------7-----|-------------------------|--------------------|
|-0-----------------|-------------------------|--------------------|
|
| Gtr III
| W                    E  E  E   E  E  E E  E    E E  E  E E E E E
|-------------------|-12----10--------10------|--7----5------5-----|
|-------------------|-------------------------|----8-----5-----5---|
|-------------------|----12-----11-------9----|------------7-----7-|
|-2-----------------|-14----12-----12-12---12-|--9----7------------|
|-------------------|-------------------------|--------------------|
|-------------------|-------------------------|--------------------|
|
| Gtr VI
| W                    Q     H.                  Q    H.
|-------------------|-------------------------|--------------------|
|-------------------|-17----15----------------|-12---10------------|
|-------------------|-------------------------|--------------------|
|-2-----------------|-------------------------|--------------------|
|-------------------|-------------------------|--------------------|
|-------------------|-------------------------|--------------------|


  E E E E E E  E E    E E E E +E  E E E    E  E  E   E  E  E E  E
|------------------|--0---------------0-|--7-----5---------5-0----|
|---------0----0---|--------------------|-----5------3----------3-|
|-0---0-----0----2-|--------0-(0)---4---|-------------------------|
|---2---4-5----0---|------4-------------|--5-----4------4---------|
|-3---5------------|----7---------7-----|-------------------------|
|------------------|--0-----------------|-------------------------|
|
| W                   W                    E  E  E   E  E  E E  E
|------------------|--------------------|-12----10--------10------|
|------------------|--------------------|-------------------------|
|------------------|--------------------|----12-----11-------9----|
|------------------|--------------------|-14----12-----12-12---12-|
|------------------|--------------------|-------------------------|
|------------------|--------------------|-------------------------|
|
| Q   Q   Q    Q      W                    Q     H.
|------------------|--------------------|-12----10----------------|
|-5---7---8---10---|-12-----------------|-------------------------|
|------------------|--------------------|-------------------------|
|------------------|--------------------|-------------------------|
|------------------|--------------------|-------------------------|
|------------------|--------------------|-------------------------|


                                               Q=218
                                           D5/F#
                                                >
                     |-3-| |-3-| |-3-| |-3-|
  E E E  E E E E E   E E E E E E E E E E E E   +W           +W
|-3---2------2-0---|-------------------------|------------|-------------|
|---0----0-------0-|-1p0-------------0-----3-|-(3)--------|-(3)---------|
|----------2-------|-----0-2p0-------------2-|-(2)--------|-(2)---------|
|-2---0------------|-----------4---2-----0---|------------|-------------|
|------------------|-3-----2-----0-----------|------------|-------------|
|------------------|-------------------3---2-|-(2)--------|-(2)---------|
|
| E E E  E E E E E   W                          W            W
|-7---5------5-----|-------------------------|------------|-------------|
|---8----5-----5---|-------------------------|------------|-------------|
|----------7-----7-|-------------------------|------------|-------------|
|-9---7------------|-------------------------|------------|-------------|
|------------------|-------------------------|------------|-------------|
|------------------|-------------------------|------------|-------------|
|
|                                               >
| Q   H.             Q     Q     Q     Q       +W           +H     H
|-7---5------------|-------------------------|------------|-------------|
|------------------|-5-----7-----8-----7-----|-(7)--------|-(7)---------|
|------------------|-------------------------|------------|-------------|
|------------------|-------------------------|------------|-------------|
|------------------|-------------------------|------------|-------------|
|------------------|-------------------------|------------|-------------|


  N.C.
  Gtrs II, IV
      PM--------|               PM--|               PM--|
  E E S S E S S E E E   E E E E S S E E E   E E E E S S E E E
|---------------------|-------------------|--------------------|
|---------------------|-------------------|--------------------|
|---------------------|-4---2-------------|--------------------|
|---------------------|---5---4-----------|-5---4--------------|
|-5h7-------------5h7-|---------------5h7-|---7---5-------5h7--|
|-----0-0-0-0-0-0-----|---------0-0-0-----|---------0-0-0------|


                        PM--------|               PM--|
  E E E E E E E E   E E S S E S S E E E   E E E E S S E E E
|-----------------|---------------------|-------------------|
|-----------------|---------------------|-------------------|
|-----------------|---------------------|-4---2-------------|
|-2---4---5---4---|---------------------|---5---4-----------|
|---3---5---7---5-|-5h7-------------5h7-|---------------5h7-|
|-----------------|-----0-0-0-0-0-0-----|---------0-0-0-----|


                                          E5               N.C.
  Gtr V
  W                   W                   W
                      |
                      x

  Gtr II
          PM--|                                            PM|
  E E E E S S E E E   E E E E E E E E     H.               E E
|-------------------|-----------------||-----------------------|
|-------------------|-----------------||o----------------------|
|-------------------|-----------------||--4--------------------|
|-5---4-------------|-2---4---5---4---||--2--------------------|
|---7---5-------5h7-|---3---5---7---5-||o----------------------|
|---------0-0-0-----|-----------------||-------------------0-0-|
|
| Gtr IV
|         PM--|                                PM--------|
| E E E E S S E E E   E E E E E E E E     E  E S S E S S E E E
|-------------------|-----------------||-----------------------|
|-------------------|-----------------||o----------------------|
|-------------------|-----------------||-----------------------|
|-5---4-------------|-2---4---5---4---||-----------------------|
|---7---5-------5h7-|---3---5---7---5-||o-5--7-------------5-7-|
|---------0-0-0-----|-----------------||-------0-0-0-0-0-0-----|


                                           1.
  G5             N.C.  C5/G           N.C.  G5      D/F#
                 PM|                  PM|
  H.             E E   H.             E E   H       H
|--------------------|--------------------|-------------------||
|--------------------|--------------------|------------------o||
|-7------------------|-5------------------|-7-------7---------||
|-5------------------|-5------------------|-5-------4---------||
|--------------------|--------------------|------------------o||
|----------------0-0-|----------------0-0-|-------------------||
|
|          PM--|                PM--|
| E  E E E S S E E E   E  E E E S S E E E   E E E E E E E E
|--------------------|--------------------|-------------------||
|--------------------|--------------------|------------------o||
|-4----2-------------|--------------------|-------------------||
|----5---4-----------|-5----4-------------|-2---4---5---4-----||
|----------------5-7-|----7---5-------5-7-|---3---5---7---5--o||
|----------0-0-0-----|----------0-0-0-----|-------------------||


  2.
  N.C.               E5N.C.
                       PM--|   PM  PM    PM  PM  PM
  E E E E E  E E E   E E E E E E E E   E E E E E E E E
|------------------|-----------------|-----------------||
|------------------|-----------------|-----------------||
|------------------|-----------------|-----------------||
|-5---7---9----7---|-----------------|-----------------||
|---7---9---10---9-|-2-------3---2---|-3---5---3---2h3-||
|------------------|-0-0-0-0---0---0-|---0---0---0-----||
|
|                      PM--|   PM  PM    PM  PM  PM
| E E E E E  E E E   E E E E E E E E   E E E E E E E E
|------------------|-----------------|-----------------||
|------------------|-----------------|-----------------||
|------------------|-----------------|-----------------||
|-2---4---5----4---|-----------------|-----------------||
|---3---5----7---5-|-2-------3---2---|-3---5---3---2h3-||
|------------------|-0-0-0-0---0---0-|---0---0---0-----||


 1st Verse
  N.C.
  Gtrs II, IV
    PM------|   PM    PM  PM  PM        PM--|   PM  PM
  E E E E E E E E   E E E E E E E E   E E E E E E E E
|-----------------|-----------------|-----------------|
|-----------------|-----------------|-----------------|
|-----------------|-----------------|-----------------|
|-----------------|-----------------|-----------------|
|-2-----------3---|-2---3---5---2-3-|-1-------3---2---|
|---0-0-0-0-0---0-|---0---0---0-----|---0-0-0---0---0-|


    PM  PM  PM        PM------|   PM    PM  PM  PM
  E E E E E E E E   E E E E E E E E   E E E E E E E E
|-----------------|-----------------|-----------------|
|-----------------|-----------------|-----------------|
|-----------------|-----------------|-----------------|
|-----------------|-----------------|-----------------|
|-3---5---3---2h3-|-2-----------3---|-2---3---5---2h3-|
|---0---0---0-----|---0-0-0-0-0---0-|---0---0---0-----|


                                             1stChorus
    E5N.C.            E5open                  N.C.
    Gtr II
      PM--|   PM  PM    PM  PM  PM            PM--|   PM|
    E E E E E E E E   E E E E E E E E  4x     E E E E E E E E
||------------------|------------------||-||-------------------|
||o-----------------|-----------------o||-||o------------------|
||------------------|------------------||-||-------------------|
||------------------|------------------||-||-------------------|
||o-2-------3---2---|-3---5---3---2h3-o||-||o-------2-----0h2--|
||----0-0-0---0---0-|---0---0---0------||-||--0-0-0---0-0------|
|
|   Gtr IV
|   PM                PM--------------------------|   PM|
|   E E Q   H         E E E E E E E E  4x     E E E E E E E E
||------------------|------------------||-||-------------------|
||o-----------------|-----------------o||-||o------------------|
||------------------|------------------||-||-------------------|
||------------------|------------------||-||-------------------|
||o-2---------------|-2-2-2-2-2-2-2-2-o||-||o-------2-----0h2--|
||--0---------------|-0-0-0-0-0-0-0-0--||-||--0-0-0---0-0------|


  Gtrs II, IV
  PM--|   PM|       PM--|   PM|       PM--|   PM|
  E E E E E E E E   E E E E E E E E   E E E E E E E E
|-----------------|-----------------|------------------||
|-----------------|-----------------|-----------------o||
|-----------------|-----------------|------------------||
|-----------------|-----------------|-------5-----4----||
|-------2-----0h2-|-------3-----2h3-|-2-2-2---2-2---5-o||
|-3-3-3---3-3-----|-5-5-5---5-5-----|------------------||


    E5open            G5open            A5
    Gtr II
    W                 W                 W
||------------------|-----------------|-----------------|
||o-----------------|-3---------------|-----------------|
||------------------|-0---------------|-----------------|
||------------------|-----------------|-2---------------|
||o-2---------------|-----------------|-0---------------|
||--0---------------|-----------------|-----------------|
|
|   Gtr IV
|   PM--|   PM|       PM--|   PM|       PM--|   PM|
|   E E E E E E E E   E E E E E E E E   E E E E E E E E
||------------------|-----------------|-----------------|
||o-----------------|-----------------|-----------------|
||------------------|-----------------|-----------------|
||------------------|-----------------|-----------------|
||o-------2-----0h2-|-------2-----0h2-|-------3-----2h3-|
||--0-0-0---0-0-----|-3-3-3---3-3-----|-5-5-5---5-5-----|


  1.                  2.
  B5                  N.C.
  W                   E E E E E E E E   E E E E E E E E
|------------------||-----------------|-----------------||
|-----------------o||-----------------|-----5-3---------||
|------------------||---2-5-4-2-------|---5-----5-4-2---||
|-4----------------||-----------5-4---|-2-------------4-||
|-2---------------o||-3-------------5-|-----------------||
|------------------||-----------------|-----------------||
|
| PM--|   PM|
| E E E E E E E E     E E E E E E E E   E E E E E E E E
|------------------||-----------------|-----------------||
|-----------------o||-----------------|-----------------||
|------------------||-----2-----------|---2-5-4-2-------||
|-------5-----4----||---4---5-4-2-----|-----------5-4---||
|-2-2-2---2-2---5-o||-0-----------5-2-|-3-------------5-||
|------------------||-----------------|-----------------||


 Interlude
  E5opN.C.     E5opN.C.     E5opN.C.     E5opN.C.
 3/4
  Q   E E Q    Q   E E Q    Q   E E Q    Q   E E  Q
|------------|------------|------------|--------------|
|------------|------------|------------|--------------|
|------------|------------|------------|--------------|
|-----4-5----|-----7-4----|-----2-4-1--|-----4-1------|
|---------7--|---------5--|------------|----------2---|
|------------|------------|------------|--------------|
|
| PM           PM           PM           PM
| E E H        E E H        E E H        E E Q    Q
|------------|------------|------------|--------------|
|------------|------------|------------|--------------|
|------------|------------|------------|--------------|
|------------|------------|------------|--------------|
|-2----------|-2----------|-2----------|-2------------|
|-0----------|-0----------|-0----------|-0-------12\--|


  D5/Bb5/FN.C.
 2/4     3/4
  Gtrs II, IV
          PM|          PM|          PM|
  Q  Q    E E E E Q    E E E E Q    E E E E Q
|-------|------------|------------|------------|
|-------|------------|------------|------------|
|-------|------------|------------|------------|
|-0--3--|-----4-5----|-----7-4----|-----2-4-1--|
|-0--3--|---------7--|---------5--|------------|
|-------|-0-0--------|-0-0--------|-0-0--------|


              2/4       3/4
  Gtr II
  PM|                    PM|          PM|
  E E E E Q    Q  Q      E E E E Q    E E E E Q
|------------|-------||-------------|------------|
|------------|-------||o------------|------------|
|------------|-------||--------4----|-----7------|
|-----4-1----|-------||------7---5--|-------7-4--|
|---------2--|-------||o------------|------------|
|-0-0--------|-5--3--||--0-0--------|-0-0--------|
|
| Gtr IV
| PM|                    PM|          PM|
| E E E E Q    Q  Q      E E E E Q    E E E E Q
|------------|-------||-------------|------------|
|------------|-------||o------------|------------|
|------------|-------||-------------|------------|
|-----4-1----|-------||------4-5----|-----7-4----|
|---------2--|-------||o---------7--|---------5--|
|-0-0--------|-5--3--||--0-0--------|-0-0--------|


                           1.         2.
                           2/4
  PM|          PM|
  E E E E Q    E E E E Q    Q  Q      Q  Q
|------------|------------|--------||-------||
|------------|------------|-------o||-------||
|-------2----|-----4------|--------||-------||
|-----5---4--|-------4-1--|--------||-------||
|------------|------------|-0--3--o||-0-----||
|-0-0--------|-0-0--------|--------||----3--||
|
| PM|          PM|
| E E E E Q    E E E E Q    Q  Q      Q  Q
|------------|------------|--------||-------||
|------------|------------|-------o||-------||
|------------|------------|--------||-------||
|-----2-4-1--|-----4-1----|--------||-------||
|------------|---------2--|-0--3--o||-0-----||
|-0-0--------|-0-0--------|--------||----3--||


 2nd Verse
  N.C.
 4/4
  Gtrs II, IV
    PM--|   PM  PM    PM  PM  PM        PM------|   PM
  E E E E E E E E   E E E E E E E E   E E E E E E E E
|-----------------|-----------------|------------------|
|-----------------|-----------------|------------------|
|-----------------|-----------------|------------------|
|-----------------|-----------------|------------------|
|-2-------3---2---|-3---5---3---2h3-|-2-----------3----|
|---0-0-0---0---0-|---0---0---0-----|---0-0-0-0-0---0--|


    PM  PM  PM        PM--|   PM  PM    PM  PM  PM
  E E E E E E E E   E E E E E E E E   E E E E E E E E
|-----------------|-----------------|-----------------|
|-----------------|-----------------|-----------------|
|-----------------|-----------------|-----------------|
|-----------------|-----------------|-----------------|
|-2---3---5---2h3-|-1-------3---2---|-3---5---3---2h3-|
|---0---0---0-----|---0-0-0---0---0-|---0---0---0-----|


                                        E5N.C.            E5
  Gtr II
    PM------|   PM    PM  PM  PM          PM--|   PM  PM    PM  PM  PM
  E E E E E E E E   E E E E E E E E     E E E E E E E E   E E E E E E E E  4x
|-----------------|-----------------||------------------|------------------||
|-----------------|-----------------||o-----------------|-----------------o||
|-----------------|-----------------||------------------|------------------||
|-----------------|-----------------||------------------|------------------||
|-2-----------3---|-2---3---5---2h3-||o-2-------3---2---|-3---5---3---2h3-o||
|---0-0-0-0-0---0-|---0---0---0-----||----0-0-0---0---0-|---0---0---0------||
|
| Gtr IV
|   PM------|   PM    PM  PM  PM        PM                PM------------|
| E E E E E E E E   E E E E E E E E     E E Q   H         E E E E E E E E  4x
|-----------------|-----------------||------------------|------------------||
|-----------------|-----------------||o-----------------|-----------------o||
|-----------------|-----------------||------------------|------------------||
|-----------------|-----------------||------------------|------------------||
|-2-----------3---|-2---3---5---2h3-||o-2---------------|-2-2-2-2-2-2-2-2-o||
|---0-0-0-0-0---0-|---0---0---0-----||--0---------------|-0-0-0-0-0-0-0-0--||


  N.C.
    PM--|   PM  PM    PM  PM  PM        PM--|   PM  PM
  E E E E E E E E   E E E E E E E E   E E E E E E E E
|-----------------|-----------------|-----------------|
|-----------------|-----------------|-----------------|
|-----------------|-----------------|-----------------|
|-----------------|-----------------|-----------------|
|-2-------3---2---|-3---5---3---2h3-|-2-------3---2---|
|---0-0-0---0---0-|---0---0---0-----|---0-0-0---0---0-|
|
|   PM--|   PM  PM    PM  PM  PM        PM--|   PM  PM
| E E E E E E E E   E E E E E E E E   E E E E E E E E
|-----------------|-----------------|-----------------|
|-----------------|-----------------|-----------------|
|-----------------|-----------------|-----------------|
|-----------------|-----------------|-----------------|
|-2-------3---2---|-3---5---3---2h3-|-2-------3---2---|
|---0-0-0---0---0-|---0---0---0-----|---0-0-0---0---0-|


  Gtrs II, IV
    PM  PM  PM        PM--|   PM  PM    PM  PM  PM
  E E E E E E E E   E E E E E E E E   E E E E E E E E
|-----------------|-----------------|-----------------|
|-----------------|-----------------|-----------------|
|-----------------|-----------------|-----------------|
|-----------------|-----------------|-----------------|
|-3---5---3---2h3-|-1-------3---2---|-3---5---3---2h3-|
|---0---0---0-----|---0-0-0---0---0-|---0---0---0-----|


                                       2nd Chorus
                                        N.C.
    PM--|   PM  PM    PM  PM  PM        PM--|   PM|
  E E E E E E E E   E E E E E E E E     E E E E E E E E
|-----------------|-----------------||------------------|
|-----------------|-----------------||o-----------------|
|-----------------|-----------------||------------------|
|-----------------|-----------------||------------------|
|-2-------3---2---|-3---5---3---2h3-||o-------2-----0h2-|
|---0-0-0---0---0-|---0---0---0-----||--0-0-0---0-0-----|


  PM--|   PM|       PM--|   PM|       PM--|   PM|
  E E E E E E E E   E E E E E E E E   E E E E E E E E
|-----------------|-----------------|------------------||
|-----------------|-----------------|-----------------o||
|-----------------|-----------------|------------------||
|-----------------|-----------------|-------5-----4----||
|-------2-----0h2-|-------3-----2h3-|-2-2-2---2-2---5-o||
|-3-3-3---3-3-----|-5-5-5---5-5-----|------------------||


    E5open            G5open            A5
    Gtr II
    W                 W                 W
||------------------|-----------------|-----------------|
||o-----------------|-3---------------|-----------------|
||------------------|-0---------------|-----------------|
||------------------|-----------------|-2---------------|
||o-2---------------|-----------------|-0---------------|
||--0---------------|-----------------|-----------------|
|
|   Gtr IV
|   PM--|   PM|       PM--|   PM|       PM--|   PM|
|   E E E E E E E E   E E E E E E E E   E E E E E E E E
||------------------|-----------------|-----------------|
||o-----------------|-----------------|-----------------|
||------------------|-----------------|-----------------|
||------------------|-----------------|-----------------|
||o-------2-----0h2-|-------2-----0h2-|-------3-----2h3-|
||--0-0-0---0-0-----|-3-3-3---3-3-----|-5-5-5---5-5-----|


  1.                  2.
  B5                          N.C.
  W                   H        H
|------------------||-------------------|
|-----------------o||-------------------|
|------------------||-------------------|
|-4----------------||-4-----------------|
|-2---------------o||-2-----------------|
|------------------||---------12\-------|
|
| PM--|   PM|         PM--|    PM-|
| E E E E E E E E     E E E E  E  E E E
|------------------||-------------------|
|-----------------o||-------------------|
|------------------||-------------------|
|-------5-----4----||-------5-------4---|
|-2-2-2---2-2---5-o||-2-2-2----2--2---5-|
|------------------||-------------------|


        PM--------|               PM--|               PM--|
    E E S S E S S E E E   E E E E S S E E E   E E E E S S E  E E
||----------------------|-------------------|--------------------|
||o---------------------|-------------------|--------------------|
||----------------------|-4---2-------------|--------------------|
||----------------------|---5---4-----------|-5---4--------------|
||o-5h7-------------5h7-|---------------5h7-|---7---5--------5h7-|
||------0-0-0-0-0-0-----|---------0-0-0-----|---------0-0-0------|
|
|       PM--------|               PM--|               PM--|
|   E E S S E S S E E E   E E E E S S E E E   E E E E S S E  E E
||----------------------|-------------------|--------------------|
||o---------------------|-------------------|--------------------|
||----------------------|-7---5-------------|-4---2--------------|
||--4h5-------------4h5-|---9---7-------4h5-|---5---4------------|
||o---------------------|-------------------|---------------/5h7-|
||------0-0-0-0-0-0-----|---------0-0-0-----|---------0-0-0------|


  E E E E E  E E E     E  E  E  E  E  E  E  E
|-------------------||------------------------||
|------------------o||------------------------||
|-------------------||------------------------||
|-2---4---5----4----||-5-----7-----9-----7----||
|---3---5----7---5-o||----7-----9----10-----9-||
|-------------------||------------------------||
|
| E E E E E  E E E     E  E  E  E  E  E  E  E
|-------------------||------------------------||
|------------------o||------------------------||
|-------------------||------------------------||
|-5---7---9----7----||-9----10----12----10----||
|---7---9---10---9-o||---10----12----14----12-||
|-------------------||------------------------||


 Interlude
  N.C.
  Gtrs II, IV
   PM                    PM--------------------------------------------|
   E  E  Q   H           E  E  E  E  E  E  E  E    E  E  E  E  E  E  E  E
|---------------------|-------------------------|-------------------------|
|---------------------|-------------------------|-------------------------|
|---------------------|-------------------------|-------------------------|
|---------------------|-------------------------|-------------------------|
|---------------------|-------------------------|--2--2--2--2-------------|
|--0------------------|--0--0--0--0--0--0--0--0-|--------------1--1--1--1-|
|
| Gtr V
|  E  E  Q   E  E  Q     E  E  E  E  E  E  E  E    E  E  E  E  E  E  E  E
|---------------------|-------15----------15----|-14----------------------|
|---------------------|-17-19----19-17-19----17-|----15-------------15----|
|---------------------|-------------------------|-------14----16-17----16-|
|-14-13-14--17-16-17--|-------------------------|----------16-------------|
|---------------------|-------------------------|-------------------------|
|---------------------|-------------------------|-------------------------|
|
| Gtr VI
|  E  E  Q   E  E  Q     E  E  E  E  E  E  E  E    E  E  E  E  E  E  E  E
|---------------------|-------------------------|-11----------------------|
|--8--7--8--12-10-12--|-12-11-12-13-12-10-12----|----12-------------------|
|---------------------|----------------------12-|-------11----10----10--9-|
|---------------------|-------------------------|----------13----10-------|
|---------------------|-------------------------|-------------------------|
|---------------------|-------------------------|-------------------------|


   PM--------------------------------------------------------------------|
   E  E  E  E  E  E  E  E    E  E  E E  E  E  E E    E  E  E  E  E  E  E  E
|-------------------------|-----------------------|-------------------------|
|-------------------------|-----------------------|-------------------------|
|-------------------------|-----------------------|-------------------------|
|-------------------------|-----------------------|-------------------------|
|-------------------------|-----------------------|-------------------------|
|--2--2--2--2--2--2--2--2-|--0--0--0-0--0--0--0-0-|--0--0--0--0--0--0--0--0-|
|
|  E  E  E  E  E  E  E  E    E  E  Q    E  E  Q      E  E  E  E  E  E  E  E
|-------------------------|-----------------------|-------15----------15----|
|-19-16-------------16-19-|-----------------------|-17-19----19-17-19----17-|
|-------16-17----17-------|-----------------------|-------------------------|
|-------------16----------|-14-13-14---17-16-17---|-------------------------|
|-------------------------|-----------------------|-------------------------|
|-------------------------|-----------------------|-------------------------|
|
|  E  E  E  E  E  E  E  E    E  E  Q    E  E  Q      E  E  E  E  E  E  E  E
|-11----------------------|-----------------------|-------------------------|
|----12----------------10-|--8--7--8---12-10-12---|-12-11-12-13-12-10-12----|
|-------11----------11----|-----------------------|----------------------12-|
|----------10-10-13-------|-----------------------|-------------------------|
|-------------------------|-----------------------|-------------------------|
|-------------------------|-----------------------|-------------------------|


   PM-----------------------------------------------------------------------|
   E  E  E  E  E  E  E  E    E  E  E  E  E  E  E  E      E  E  E E  E  E  E E
|-------------------------|-------------------------||-------------------------|
|-------------------------|-------------------------||o------------------------|

|-------------------------|-------------------------||-------------------------|
|-------------------------|-------------------------||-------------------------|
|--2--2--2--2-------------|-------------------------||o------------------------|
|--------------1--1--1--1-|--2--2--2--2--2--2--2--2-||---3--3--3-3--3--3--3-3--|
|
|  E  E  E  E  E  E  E  E    E  E  E  E  E  E  E  E      E  E  Q    E  E  Q
|-14----------------------|-11----------------------||-------------------------|
|----15-------------15----|----12----------------10-||o------------------------|
|-------14----16-17----16-|-------11----------11----||-------------------------|
|----------16-------------|----------10-10-13-------||--17-16-17---20-19-20----|
|-------------------------|-------------------------||o------------------------|
|-------------------------|-------------------------||-------------------------|
|
|  E  E  E  E  E  E  E  E    E  E  E  E  E  E  E  E      E  E  Q    E  E  Q
|-11----------------------|-------------------------||-------------------------|
|----12-------------------|-19-16-------------16-19-||o-11-10-11---15-13-15----|
|-------11----10----10--9-|-------16-17----17-------||-------------------------|
|----------13----10-------|-------------16----------||-------------------------|
|-------------------------|-------------------------||o------------------------|
|-------------------------|-------------------------||-------------------------|


   PM------------------------------------------------
   E  E  E  E  E  E  E  E    E  E  E  E  E  E  E  E
|-------------------------|-------------------------|
|-------------------------|-------------------------|
|-------------------------|-------------------------|
|-------------------------|-------------------------|
|-------------------------|--5--5--5--5-------------|
|--3--3--3--3--3--3--3--3-|--------------4--4--4--4-|
|
|  E  E  E  E  E  E  E  E    E  E  E  E  E  E  E  E
|-------18----------18----|-17----------------------|
|-20-22----22-20-22----20-|----18-------------18----|
|-------------------------|-------17----19-20----19-|
|-------------------------|----------19-------------|
|-------------------------|-------------------------|
|-------------------------|-------------------------|
|
|  E  E  E  E  E  E  E  E    E  E  E  E  E  E  E  E
|-------------------------|-14----------------------|
|-15-14-15-16-15-13-15----|----15-------------------|
|----------------------15-|-------14----13----13-12-|
|-------------------------|----------16----13-------|
|-------------------------|-------------------------|
|-------------------------|-------------------------|


 ----------------------|
   E  E  E  E  E  E  E  E
|--------------------------||
|-------------------------o||
|--------------------------||
|--------------------------||
|-------------------------o||
|--5--5--5--5--5--5--5--5--||
|
|  E  E  E  E  E  E  E  E
|-14-----------------------||
|----15----------------13-o||
|-------14----------14-----||
|----------13-13-16--------||
|-------------------------o||
|--------------------------||
|
|  E  E  E  E  E  E  E  E
|--------------------------||
|-22-19-------------19-22-o||
|-------19-20----20--------||
|-------------19-----------||
|-------------------------o||
|--------------------------||


   W           W           W           W
|-----------|-----------|-----------|-------|
|-----------|-----------|-----------|-------|
|-----------|-----------|-----------|-------|
|--5--------|--4--------|--6--------|--7----|
|-----------|-----------|-----------|-------|
|--3--------|--2--------|--4--------|--5----|
|
|  ~~~~~~~~~~~~~~~~~~~~~~~~~~~~~~~~~~~~~~
|  W           W           W           W
|-----------|-----------|-----------|-------|
|-11--------|-10--------|-13--------|-15----|
|-----------|-----------|-----------|-------|
|-----------|-----------|-----------|-------|
|-----------|-----------|-----------|-------|
|-----------|-----------|-----------|-------|
|
|  ~~~~~~~~~~~~~~~~~~~~~~~~~~~~~~~~~~~~~~
|  W           W           W           W
|-----------|-----------|-----------|-------|
|-----------|-----------|-----------|-------|
|-12--------|-11--------|-13--------|-14----|
|-----------|-----------|-----------|-------|
|-----------|-----------|-----------|-------|
|-----------|-----------|-----------|-------|


   W           W           W           H      H
|-----------|-----------|-----------|---------------|
|-----------|-----------|-----------|---------------|
|-----------|-----------|-----------|---------------|
|--5--------|--4--------|--6--------|--7------------|
|-----------|-----------|-----------|---------------|
|--3--------|--2--------|--4--------|--5----/15\----|
|
|  ~~~~~~~~~~~~~~~~~~~~~~~~~~~~~~~~~~~~~~
|  W           W           W           W
|-----------|-----------|-15--------|-10------------|
|-15--------|-16--------|-----------|---------------|
|-----------|-----------|-----------|---------------|
|-----------|-----------|-----------|---------------|
|-----------|-----------|-----------|---------------|
|-----------|-----------|-----------|---------------|
|
|  ~~~~~~~~~~~~~~~~~~~~~~~~~~~~~~~~~~~~~~
|  W           W           W           W
|-----------|-----------|-----------|---------------|
|-----------|-----------|-----------|---------------|
|-12--------|-14--------|-15--------|-14------------|
|-----------|-----------|-----------|---------------|
|-----------|-----------|-----------|---------------|
|-----------|-----------|-----------|---------------|


  E5opN.C.     E5opN.C.     E5opN.C.     E5opN.C.
 3/4
  Gtr II
  Q   E E Q    Q   E E Q    Q   E E Q    Q   E E  Q
|------------|------------|------------|--------------|
|------------|------------|------------|--------------|
|------------|------------|------------|--------------|
|-----4-5----|-----7-4----|-----2-4-1--|-----4-1------|
|---------7--|---------5--|------------|----------2---|
|------------|------------|------------|--------------|
|
| Gtr IV
| PM           PM           PM           PM
| E E H        E E H        E E H        E E Q    Q
|------------|------------|------------|--------------|
|------------|------------|------------|--------------|
|------------|------------|------------|--------------|
|------------|------------|------------|--------------|
|-2----------|-2----------|-2----------|-2------------|
|-0----------|-0----------|-0----------|-0-------12\--|


           Breakdown
            Q=200
  D5/Bb5/F  E5oN.C.             E5N.C.
 2/4       4/4
  Gtrs II, IV
               PM------|          PM------------|
  Q  Q      Q  E E S S E Q    E E E E S S E S S E
|-------||------------------|---------------------|
|-------||o-----------------|---------------------|
|-------||------------------|---------------------|
|-0--3--||------------------|---------------------|
|-0--3--||o-2---------------|---2-----------------|
|-------||--0--0-0-0-0-0----|---0-0-0-0-0-0-0-0-0-|


                       G5/Bb5/F    E5oN.C.
                      2/4         4/4
  Gtrs II, IV
  PM------------|                     PM------|
  E E S S E S S E Q    E  E +Q     Q  E E S S E Q
|--------------------|-----------|----------------|
|--------------------|-----------|----------------|
|--------------------|-----------|----------------|
|--------------------|-----------|----------------|
|--------------------|-5S=8-(8)--|-2--------------|
|-0-0-0-0-0-0-0-0----|-5S=8-(8)--|-0--0-0-0-0-0---|


    E5N.C.
      PM------------------------------|
  E E E E S S E S S E   E E S S E S S E E E
|---------------------|----------------------||
|---------------------|---------------------o||
|---------------------|----------------------||
|---------------------|----------------------||
|---2-----------------|---------------------o||
|---0-0-0-0-0-0-0-0-0-|-0-0-0-0-0-0-0-0-5p3--||


 Guitar Solo
  Q=210
  E5open         N.C.             G5   N.C.C5/N.C.
  Gtrs II, IV
                   PM-|                PM|     PM|
   H        +Q     E    E          Q   E E Q   E  E
|-------------------------------|-------------------|
|-------------------------------|-------------------|
|-------------------------------|--7-------7--------|
|-------------------------------|--5-------4--------|
|--2--------(2)-----------------|-------------------|
|--0--------(0)----0----0-------|------0-0-----0--0-|
|
| Gtr V
|                                  ~~~
|  H.             +E   +S   +S     H.          E  E
|-17b19==========(17)-(17)r(17)-|-17----------17-15-|
|-------------------------------|-------------------|
|-------------------------------|-------------------|
|-------------------------------|-------------------|
|-------------------------------|-------------------|
|-------------------------------|-------------------|


  E5/B  D5/A                N.C.
                             PM---------------------------|
   E  E  Q    +H             E  E  E     E     E  E  E     E
|-------------------------|----------------------------------|
|-------------------------|----------------------------------|
|-------------------------|----------------------------------|
|--2-----0----(0)---------|--5-----5-----------4-----4-------|
|--2-----0----(0)---------|-----3--------3--------5--------5-|
|-------------------------|----------------------------------|
|
|  E  E  E  E  E  E  E  E    E  E  S  S  S  S  E  E  S  S  E
|-12h15-14----14p12----12-|-12h14-15p14-12h14-12-------------|
|----------15-------13----|----------------------15-12h13p12-|
|-------------------------|----------------------------------|
|-------------------------|----------------------------------|
|-------------------------|----------------------------------|
|-------------------------|----------------------------------|


  E5open                              N.C.       G5    N.C.   C5/G N.C.
                                       PM---|          PM---|      PM---|
   H                    +Q             E     E    Q    E    E  Q   E    E
|----------------------------------------------|--------------------------|
|----------------------------------------------|--------------------------|
|----------------------------------------------|--7------------7----------|
|----------------------------------------------|--5------------4----------|
|--2--------------------(2)--------------------|--------------------------|
|--0--------------------(0)------------0-----0-|-------0----0------0----0-|
|
|                                                              ~~~
|  E  E  E  S  +S       +E   +S   +S   S  S  E    E  E S  S E  Q.     a E
|----------------------------------------------|--------------------------|
|-12S10-10-12-(12)b13==(12)-(12)r(12)-10h12-10-|--------------------------|
|----------------------------------------------|-12-11-9h11-9-[7]----11S9-|
|----------------------------------------------|--------------------------|
|----------------------------------------------|--------------------------|
|----------------------------------------------|--------------------------|


  E5/B  D5/A                 N.C.
                             PM-------------------|
   E  E  Q   +H              E    E  E  E E E  E  E
|--------------------------|------------------------|
|--------------------------|------------------------|
|--------------------------|------------------------|
|--2-----0---(0)-----------|-5-------5----4----4----|
|--2-----0---(0)-----------|------3-----3---5-----5-|
|--------------------------|------------------------|
|
|                                    PM---|
|             |-3--|
|  E  E  E E  E E  E  E  E   S  S E  E  E E E +Q
|--------------------------|------------------------|
|--------------------------|------------------------|
|-11h12-11-9-11p9----------|------------------------|
|-----------------10-12-10-|-9h10-9-----------------|
|--------------------------|--------10----9-7-(7)---|
|--------------------------|-----------12-----------|


  E5open                  N.C.         G5    N.C.  C5/G  N.C.
  Gtrs II, IV
                           PM---|             PM|         PM-|
   H                 +Q    E    E       Q     E  E   Q    E   E
|------------------------------------|---------------------------|
|------------------------------------|---------------------------|
|------------------------------------|--7------------7-----------|
|------------------------------------|--5------------4-----------|
|--2-----------------(2)-------------|---------------------------|
|--0-----------------(0)---0----0----|--------0--0--------0---0--|
|
| Gtr V
|  |--3--|                 |---3---|
|  E  E  E  E  a  E  +Q    E  E    E    E  E  E  E  +Q    E   E
|-------------------------12h15p==12-|---------------------------|
|-12h15p12----10S12-(12)-------------|-13S=8-10S=7--(7)--<7>-<7>-|
|----------12------------------------|---------------------------|
|------------------------------------|---------------------------|
|------------------------------------|---------------------------|
|------------------------------------|---------------------------|
|
| Gtr VI
|  |--3--|                 |---3---|
|  E  E  E  E  a  E  +Q    E  E    E    E  E  E  E  +Q    E   E
|-------------------------15h19p==15-|---------------------------|
|-15h19p15----13S15-(15)-------------|-17S12-13S10-(10)--<7>-<7>-|
|----------16------------------------|---------------------------|
|------------------------------------|---------------------------|
|------------------------------------|---------------------------|
|------------------------------------|---------------------------|


  E5/B       D5/A                    N.C.
                                     PM-----------------|
   E    E     Q       +H             E  E E  E  E  E  E  E
|----------------------------------|-----------------------|
|----------------------------------|-----------------------|
|----------------------------------|-----------------------|
|--2----------0-------(0)----------|-5----5-----4-----4----|
|--2----------0-------(0)----------|----3----3-----5-----5-|
|----------------------------------|-----------------------|
|
|                                    PM-----------------|
|  |---3---|  |--3--|
|  E  E    E  E  E  E  E   E  E  E   E  E E  E  E  E  E  E
|----------------------------------|-----------------------|
|----------------------------------|-----------------------|
|-11h12h==14-12-11-12-11-----------|-9----9----11----11----|
|-------------------------14-12-14-|---10---10----12----12-|
|----------------------------------|-----------------------|
|----------------------------------|-----------------------|


  E5open                      N.C.         G5          N.C.     C5/GN.C.
                               PM---|                   PM|         PM|
   H                +Q         E    E       Q           E  E     Q  E E
|----------------------------------------|------------------------------|
|----------------------------------------|------------------------------|
|----------------------------------------|--7--------------------7------|
|----------------------------------------|--5--------------------4------|
|--2----------------(2)------------------|------------------------------|
|--0----------------(0)--------0----0----|--------------0--0--------0-0-|
|
|                                                                ~~
|  |--3--|  |--3--|  |--3---|  |---3---|
|  E  E  E  E  E  E  E   E  E  E  E    E    S  S  S  S  E  S  S  H
|-------------------12--14-15-14-15---17-|-------19-17------------------|
|----------12-13-15----------------------|-17-19-------19-17S15-17------|
|-11-12-14-------------------------------|------------------------------|
|----------------------------------------|------------------------------|
|----------------------------------------|------------------------------|
|----------------------------------------|------------------------------|


  E5/B     D5/A                          N.C.
                                          PM------------------------|
   E     E  Q       +H                    E     E  E  E  E  E  E     E
|--------------------------------------|-------------------------------||
|--------------------------------------|-------------------------------||
|--------------------------------------|-------------------------------||
|--2--------0-------(0)----------------|--5--------5-----4-----4-------||
|--2--------0-------(0)----------------|--------3-----3-----5--------5-||
|--------------------------------------|-------------------------------||
|
|  S  S  E  S  S  E  S   S  E  S  S  E    S  S  E  E  E  E  E  S  S  E
|--------------------------------------|-------------------------------||
|--------------------------------------|-12-13-15-13-12-10-------------||
|-------------------11--12-14-11-12-14-|-------------------12-11-12-11-||
|-10-12-14-10-12-14--------------------|-------------------------------||
|--------------------------------------|-------------------------------||
|--------------------------------------|-------------------------------||


 Outro
  Q=200
  E5opN.C.             E5N.C.
  Gtrs II, IV
      PM------|          PM------------------------------|
  Q   E E S S E Q    E E E E S S E S S E   E E S S E S S E Q
|------------------|---------------------|--------------------|
|------------------|---------------------|--------------------|
|------------------|---------------------|--------------------|
|------------------|---------------------|--------------------|
|-2----------------|---2-----------------|--------------------|
|-0---0-0-0-0-0----|---0-0-0-0-0-0-0-0-0-|-0-0-0-0-0-0-0-0----|
|
| W                  W                     W
|------------------|---------------------|--------------------|
|------------------|---------------------|--------------------|
|-9\---------------|---------------------|--------------------|
|------------------|---------------------|--------------------|
|------------------|---------------------|--------------------|
|------------------|---------------------|--------------------|


  G5/Bb5/FVIIIE5oN.C.             E5N.C.
 2/4         4/4
                 PM------|          PM------------------------------|
  E  E +Q     Q  E E S S E Q    E E E E S S E S S E   E E S S E S S E E E
|-----------|-----------------|---------------------|----------------------|
|-----------|-----------------|---------------------|----------------------|
|-----------|-----------------|---------------------|----------------------|
|-----------|-----------------|---------------------|----------------------|
|-5S=8-(8)--|-2---------------|---2-----------------|----------------------|
|-5S=8-(8)--|-0--0-0-0-0-0----|---0-0-0-0-0-0-0-0-0-|-0-0-0-0-0-0-0-0-5p3--|


  E5oN.C.             E5N.C.
     PM------|          PM------------------------------|
  Q  E E S S E Q    E E E E S S E S S E   E E S S E S S E Q
|-----------------|---------------------|--------------------|
|-----------------|---------------------|--------------------|
|-----------------|---------------------|--------------------|
|-----------------|---------------------|--------------------|
|-2---------------|---2-----------------|--------------------|
|-0--0-0-0-0-0----|---0-0-0-0-0-0-0-0-0-|-0-0-0-0-0-0-0-0----|


  G5/Bb5/FVIIIE5oN.C.             E5N.C.
 2/4         4/4
                 PM------|          PM------------------------------|
  E  E +Q     Q  E E S S E Q    E E E E S S E S S E   E E S S E S S E E E
|-----------|-----------------|---------------------|----------------------|
|-----------|-----------------|---------------------|----------------------|
|-----------|-----------------|---------------------|----------------------|
|-----------|-----------------|---------------------|----------------------|
|-5S=8-(8)--|-2---------------|---2-----------------|----------------------|
|-5S=8-(8)--|-0--0-0-0-0-0----|---0-0-0-0-0-0-0-0-0-|-0-0-0-0-0-0-0-0-5p3--|


    E5opN.C.              E5N.C.
        PM------|           PM------------------------------|
    Q   E E S S E Q     E E E E S S E S S E   E E S S E S S E Q
||--------------------|---------------------|----------------------|
||o-------------------|---------------------|----------------------|
||--------------------|---------------------|----------------------|
||--------------------|---------------------|----------------------|
||o-2-----------------|---2-----------------|----------------------|
||--0---0-0-0-0-0-----|---0-0-0-0-0-0-0-0-0-|-0-0-0-0-0-0-0-0------|
|
|   Gtr V
|   E E Q   Q     E E   E E E E Q     E   E   E E E   E Q     E E
||--------------------|---------------------|----------------------|
||o-------------------|---------------------|----------------------|
||--------------------|-4---2---------------|----------------------|
||--------------------|---5---4-------------|-5---4----------------|
||o-5h7-----------5h7-|---------------5h==7-|---7-----5-------5h7--|
||--------------------|---------------------|----------------------|


             E5opN.C.              E5N.C.
 2/4        4/4
                 PM------|           PM--------------------------------|
  E E +Q     Q   E E S S E Q     E E E E S S E S S E   E E S S E S S E E E
|----------|-------------------|---------------------|----------------------||
|----------|-------------------|---------------------|---------------------o||
|----------|-------------------|---------------------|----------------------||
|----------|-------------------|---------------------|----------------------||
|----------|-2-----------------|---2-----------------|---------------------o||
|-5S8-(8)--|-0---0-0-0-0-0-----|---0-0-0-0-0-0-0-0-0-|-0-0-0-0-0-0-0-0-5p3--||
|
| E E +Q     E E Q   Q     E E   E E E E Q     E   E   E E E   E Q     E E
|----------|-------------------|---------------------|----------------------||
|----------|-------------------|---------------------|---------------------o||
|----------|-------------------|-4---2---------------|----------------------||
|----------|-------------------|---5---4-------------|-5---4----------------||
|-5S8-(8)--|-5h7-----------5h7-|---------------5h==7-|---7-----5-------7p5-o||
|----------|-------------------|---------------------|----------------------||


    E5opN.C.              E5N.C.
        PM------|           PM------------------------------|
    Q   E E S S E Q     E E E E S S E S S E   E E S S E S S E Q
||--------------------|---------------------|----------------------|
||o-------------------|---------------------|----------------------|
||--------------------|---------------------|----------------------|
||--------------------|---------------------|----------------------|
||o-2-----------------|---2-----------------|----------------------|
||--0---0-0-0-0-0-----|---0-0-0-0-0-0-0-0-0-|-0-0-0-0-0-0-0-0------|
|
|   Gtr V
|   E E Q   Q     E E   E E E E Q     E   E   E E E   E Q     E E
||--------------------|---------------------|----------------------|
||o-------------------|---------------------|----------------------|
||--------------------|-4---2---------------|----------------------|
||--------------------|---5---4-------------|-5---4----------------|
||o-5h7-----------5h7-|---------------5h==7-|---7-----5-------5h7--|
||--------------------|---------------------|----------------------|


             E5opN.C.              E5N.C.
 2/4        4/4
                 PM------|           PM--------------------------------|
  E E +Q     Q   E E S S E Q     E E E E S S E S S E   E E S S E S S E E E  4x
|----------|-------------------|---------------------|----------------------||
|----------|-------------------|---------------------|---------------------o||
|----------|-------------------|---------------------|----------------------||
|----------|-------------------|---------------------|----------------------||
|----------|-2-----------------|---2-----------------|---------------------o||
|-5S8-(8)--|-0---0-0-0-0-0-----|---0-0-0-0-0-0-0-0-0-|-0-0-0-0-0-0-0-0-5p3--||
|
| E E +Q     E E Q   Q     E E   E E E E Q     E   E   E E E   E Q     E E  4x
|----------|-------------------|---------------------|----------------------||
|----------|-------------------|---------------------|---------------------o||
|----------|-------------------|-4---2---------------|----------------------||
|----------|-------------------|---5---4-------------|-5---4----------------||
|-5S8-(8)--|-5h7-----------5h7-|---------------5h==7-|---7-----5-------7p5-o||
|----------|-------------------|---------------------|----------------------||


Duration Legend
---------------
W - whole; H - half; Q - quarter; E - 8th; S - 16th; T - 32nd; X - 64th; a - acciaccatura
+ - note tied to previous; . - note dotted; .. - note double dotted
Uncapitalized letters represent notes that are staccato (1/2 duration)
Irregular groupings are notated above the duration line
Duration letters will always appear directly above the note/fret number it represents the
duration for.  Duration letters with no fret number below them represent rests.  Multi-
bar rests are notated in the form Wxn, where n is the number of bars to rest for.  Low
melody durations appear below the staff

Tablature Legend
----------------
 h   - hammer-on
 p   - pull-off
 b   - bend
 pb  - pre-bend
 r   - bend release (if no number after the r, then release immediately)
 /\  - slide into or out of (from/to "nowhere")
 s   - legato slide
 S   - shift slide
  - natural harmonic
[n]  - artificial harmonic
n(n) - tapped harmonic
 ~   - vibrato
 tr  - trill
 T   - tap
 TP  - trem. picking
 PM  - palm muting
\n/  - tremolo bar dip; n = amount to dip
 \n  - tremolo bar down
 n/  - tremolo bar up
/n\  - tremolo bar inverted dip
 =   - hold bend; also acts as connecting device for hammers/pulls
 <>  - volume swell (louder/softer)
 x   - on rhythm slash represents muted slash
 o   - on rhythm slash represents single note slash

Misc Legend
-----------
 |  - bar
||  - double bar
||o - repeat start
o|| - repeat end
*|  - double bar (ending)
 :  - bar (freetime)
 $  - Segno
 &  - Coda
Tempo markers -  = BPM(8/16=s8/s16), where s8 = swing 8ths, s16 = swing 16ths


***************************************************************************************
* Generated using Power Tab Editor by Brad Larsen - http://powertab.guitarnetwork.org *
***************************************************************************************


Downloaded from www.taborama.com

================================================================================
comments
print report bad tab
8 comments total. Showing first comments.
+1 reply
Tias wrote on November 5 2006, 09:12 am

its a bit big and verry anoying tab bit still good

-1 reply
EvilVampireX wrote on June 17 2007, 10:52 am

...Six guitars? What kind of a joke is this?

+1 reply
beetle123 wrote on August 23 2007, 03:17 pm

he describes what they mean, not six guitars more like 6 different sounds of guitars

I want to post or [tab]
guest
You may want to rate the tab now too:
select rating
Please do not post tabs as comments. Select "correction" instead!