Oops, an error
Loading. Please wait.

Become The Catalyst Tab

ver3
ver3

Intro

Solo

Whole song

More versions @911Tabs.com
4,762 views 3 this week
1 commentread comment
1 2 3 4 5
worth learning
x 3
Autoscroll
+/-
esc
set tempo
stop
Contributor
Tuning
D A D G B E
Hey! There's an official Ultimate Guitar app which is ideal
for learning songs when you're away from computer. Get the app
WARNING: You are trying to view
                                    content from Ultimate-Guitar.com
                                    in an unauthorized application,
                                    which is prohibited.

                                    Please use an official Ultimate
                                    Guitar Tabs application for iPhone,
                                    iPad or Android to access legitimate
                                    chords, guitar, bass, and drum tabs
                                    from Ultimate-Guitar.com database.

                                    Type "ultimate guitar tabs" in Apple
                                    App Store's or Android Market's
                                    search to find the application.
Become the Catalyst
All That Remains

This is the guitar pro version I corrected. I also added the solo (probably all 

wrong) and that's it. Enjoy. Guitar two will often play two or three notes higher 

(for example, guitar one does a C, guitar two will do an E), and there is no 

chorus rythm, but it should be easy to find. It looks like the second chorus I 

think. Anyway, enjoy.

Track 1
                      PM PM PM PM PM PM           
             S  S  E  S  S  E  S  S  E  S  S  E   
E||-------|--------------------------------------|
B||-------|--------------------------------------|
G||-------|--------------------------------------|
D||-------|--------------------------------------|
A||-------|--5h-8p-5--------------------5h-8p-5--|
D||-------|-----------0--0--0--0--0--0-----------|


           PM PM PM PM PM PM                      PM PM PM PM PM PM           
  S  S  E  S  S  E  S  S  E  S  S  E     S  S  E  S  S  E  S  S  E  S  S  E   
--------------------------------------|--------------------------------------|
--------------------------------------|--------------------------------------|
--------------------------------------|--------------------------------------|
--------------------------------------|--------------------------------------|
--4h-7p-4--------------------4h-7p-4--|--5h-8p-5--------------------5h-8p-5--|
-----------0--0--0--0--0--0-----------|-----------0--0--0--0--0--0-----------|


                    PM PM PM PM             PM PM PM PM PM PM           
  S  S  E  S  S  E  E  E  E  E     S  S  E  S  S  E  S  S  E  S  S  E   
--------------------------------|--------------------------------------|
--------------------------------|--------------------------------------|
--------------------------------|--------------------------------------|
--------------------------------|--------------------------------------|
--5h-8p-5--4h-7p-4--0--2--4--5--|--5h-8p-5--------------------5h-8p-5--|
--------------------------------|-----------0--0--0--0--0--0-----------|


           PM PM PM PM PM PM                      PM PM PM PM PM PM PM PM PM  
  S  S  E  S  S  E  S  S  E  S  S  E     S  S  E  S  S  E  S  S  E  S  S  E   
--------------------------------------|--------------------------------------|
--------------------------------------|--------------------------------------|
--------------------------------------|--------------------------------------|
--------------------------------------|--------------------------------------|
--4h-7p-4--------------------4h-7p-4--|--5h-8p-5-----------------------------|
-----------0--0--0--0--0--0-----------|-----------0--0--0--0--0--0--0--0--0--|


  PM PM PM PM                         PM PM PM PM PM PM           
  E  E  E  E  E  E  E  E     S  S  E  S  S  E  S  S  E  S  S  E   
--------------------------|--------------------------------------|
--------------------------|--------------------------------------|
--------------------------|--------------------------------------|
--------------7--5--------|--------------------------------------|
--5--1--4--0--------8--7--|--5h-8p-5--------------------5h-8p-5--|
--------------------------|-----------0--0--0--0--0--0-----------|


           PM PM PM PM PM PM                      PM PM PM PM PM PM           
  S  S  E  S  S  E  S  S  E  S  S  E     S  S  E  S  S  E  S  S  E  S  S  E   
--------------------------------------|--------------------------------------|
--------------------------------------|--------------------------------------|
--------------------------------------|--------------------------------------|
--------------------------------------|--------------------------------------|
--4h-7p-4--------------------4h-7p-4--|--5h-8p-5--------------------5h-8p-5--|
-----------0--0--0--0--0--0-----------|-----------0--0--0--0--0--0-----------|


                    PM PM PM PM             PM PM PM PM PM PM           
  S  S  E  S  S  E  E  E  E  E     S  S  E  S  S  E  S  S  E  S  S  E   
--------------------------------|--------------------------------------|
--------------------------------|--------------------------------------|
--------------------------------|--------------------------------------|
--------------------------------|--------------------------------------|
--5h-8p-5--4h-7p-4--0--2--4--5--|--5h-8p-5--------------------5h-8p-5--|
--------------------------------|-----------0--0--0--0--0--0-----------|


           PM PM PM PM PM PM                      PM PM PM PM PM PM           
  S  S  E  S  S  E  S  S  E  S  S  E     S  S  E  S  S  E  S  S  E  S  S  E   
--------------------------------------|--------------------------------------|
--------------------------------------|--------------------------------------|
--------------------------------------|--------------------------------------|
--------------------------------------|--------------------------------------|
--4h-7p-4--------------------4h-7p-4--|--5h-8p-5--------------------5h-8p-5--|
-----------0--0--0--0--0--0-----------|-----------0--0--0--0--0--0-----------|


  PM PM PM PM                   PM PM PM PM    PM PM PM PM  
  E  E  E  E  E  E  E  E     E  E  S  S  E  E  E  S  S  E   
--------------------------|--------------------------------|
--------------------------|--------------------------------|
--------------------------|--------------------------------|
--------------7--5--------|--------------------------------|
--5--1--4--0--------8--7--|--5--------------5--------------|
--------------------------|-----0--0--0--0-----0--0--0--0--|


     PM PM PM PM                    PM PM PM PM    PM PM PM PM  
  E  E  S  S  E  S S E  E  E     E  E  S  S  E  E  E  S  S  E   
------------------------------|--------------------------------|
------------------------------|--------------------------------|
------------------------------|--------------------------------|
------------------------------|--------------------------------|
--4--------------4-5-4--1--0--|--8--------------8--------------|
-----0--0--0--0---------------|-----0--0--0--0-----0--0--0--0--|


     PM PM PM PM                   PM PM PM PM    PM PM PM PM  
  E  E  S  S  E  E  E  E  E     E  E  S  S  E  E  E  S  S  E   
-----------------------------|--------------------------------|
-----------------------------|--------------------------------|
-----------------------------|--------------------------------|
-----------------7--5--------|--------------------------------|
--7--------------------8--7--|--5--------------5--------------|
-----0--0--0--0--------------|-----0--0--0--0-----0--0--0--0--|


     PM PM PM PM                    PM PM PM PM    PM PM PM PM  
  E  E  S  S  E  S S E  E  E     E  E  S  S  E  E  E  S  S  E   
------------------------------|--------------------------------|
------------------------------|--------------------------------|
------------------------------|--------------------------------|
------------------------------|--------------------------------|
--4--------------4-5-4--1--0--|--8--------------8--------------|
-----0--0--0--0---------------|-----0--0--0--0-----0--0--0--0--|


     PM PM PM PM    PM    PM       PM PM PM PM    PM PM PM PM  
  E  E  S  S  E  E  E  E  E     E  E  S  S  E  E  E  S  S  E   
-----------------------------|--------------------------------|
-----------------------------|--------------------------------|
-----------------------------|--------------------------------|
-----------------------------|--------------------------------|
--7--------------8-----7-----|--5--------------5--------------|
-----0--0--0--0-----0-----0--|-----0--0--0--0-----0--0--0--0--|


     PM PM PM PM                    PM PM PM PM    PM PM PM PM  
  E  E  S  S  E  S S E  E  E     E  E  S  S  E  E  E  S  S  E   
------------------------------|--------------------------------|
------------------------------|--------------------------------|
------------------------------|--------------------------------|
------------------------------|--------------------------------|
--4--------------4-5-4--1--0--|--8--------------8--------------|
-----0--0--0--0---------------|-----0--0--0--0-----0--0--0--0--|


     PM PM PM PM                   PM PM PM PM    PM PM PM PM  
  E  E  S  S  E  E  E  E  E     E  E  S  S  E  E  E  S  S  E   
-----------------------------|--------------------------------|
-----------------------------|--------------------------------|
-----------------------------|--------------------------------|
-----------------7--5--------|--------------------------------|
--7--------------------8--7--|--5--------------5--------------|
-----0--0--0--0--------------|-----0--0--0--0-----0--0--0--0--|


     PM PM PM PM                    PM PM PM PM    PM PM PM PM  
  E  E  S  S  E  S S E  E  E     E  E  S  S  E  E  E  S  S  E   
------------------------------|--------------------------------|
------------------------------|--------------------------------|
------------------------------|--------------------------------|
------------------------------|--------------------------------|
--4--------------4-5-4--1--0--|--8--------------8--------------|
-----0--0--0--0---------------|-----0--0--0--0-----0--0--0--0--|


     PM PM PM PM    PM    PM         PM PM PM PM PM     
  E  E  S  S  E  E  E  E  E     Q    E  E  E  E  E  E   
-----------------------------|-------------------------|
-----------------------------|-------------------------|
-----------------------------|-------------------------|
-----------------------------|--7-------------------5--|
--7--------------8-----7-----|--5----------------------|
-----0--0--0--0-----0-----0--|-------0--0--0--0--0-----|


     PM    PM PM PM PM          PM PM PM PM           
  E  E  E  E  E  E  E  E     E  E  E  E  E  E  E  E   
--------------------------|--------------------------|
--------------------------|--------------------------|
--------------------0-----|--------------------------|
--L-----3-----2--3-----3--|--L--------------3-----2--|
-----------------------1--|--L--------------1-----0--|
-----0-----0--------------|-----0--0--0--0-----------|


     PM PM PM PM                PM PM PM PM PM PM     
  E  E  E  E  E  E  E  E     E  E  E  E  E  E  E  E   
--------------------------|--------------------------|
--------------------------|--------------------------|
--------------------------|--------------------------|
--L--------------2-----7--|--L--------------------5--|
--L--------------0-----5--|--L-----------------------|
-----0--0--0--0-----------|-----0--0--0--0--0--0-----|


     PM    PM PM PM PM          PM PM PM PM           
  E  E  E  E  E  E  E  E     E  E  E  E  E  E  E  E   
--------------------------|--------------------------|
--------------------------|--------------------------|
--------------------0-----|--------------------------|
--L-----3-----2--3-----3--|--L--------------3-----5--|
-----------------------1--|--L--------------1-----3--|
-----0-----0--------------|-----0--0--0--0-----------|


     PM PM PM PM                PM PM PM PM PM PM     
  E  E  E  E  E  E  E  E     E  E  E  E  E  E  E  E   
--------------------------|--------------------------|
--------------------------|--------------------------|
--------------------------|--------------------------|
--L--------------5-----7--|--L--------------------5--|
--L--------------3-----5--|--L-----------------------|
-----0--0--0--0-----------|-----0--0--0--0--0--0-----|


     PM    PM PM PM PM          PM PM PM PM           
  E  E  E  E  E  E  E  E     E  E  E  E  E  E  E  E   
--------------------------|--------------------------|
--------------------------|--------------------------|
--------------------0-----|--------------------------|
--L-----3-----2--3-----3--|--L--------------3-----2--|
-----------------------1--|--L--------------1-----0--|
-----0-----0--------------|-----0--0--0--0-----------|


     PM PM PM PM                PM PM PM PM PM PM     
  E  E  E  E  E  E  E  E     E  E  E  E  E  E  E  E   
--------------------------|--------------------------|
--------------------------|--------------------------|
--------------------------|--L-----------------------|
--L--------------2-----7--|--L--------------------5--|
--L--------------0-----5--|--------------------------|
-----0--0--0--0-----------|-----0--0--0--0--0--0-----|


     PM    PM PM PM PM          PM PM PM PM                PM PM PM PM          
  E  E  E  E  E  E  E  E     E  E  E  E  E  E  E  E     E  E  E  E  E  E  Q     
--------------------------|--------------------------|-------------------------|
--------------------------|--------------------------|-------------------------|
--------------------0-----|--------------------------|-------------------------|
--L-----3-----2--3-----3--|--L--------------3-----5--|--L--------------5-------|
-----------------------1--|--L--------------1-----3--|--L--------------3-------|
-----0-----0--------------|-----0--0--0--0-----------|-----0--0--0--0----------|


  PM PM PM PM PM PM PM PM PM   PM   PM                        
                          |----3----|                         
  S  S  S  S  S  S  S  S  Q    Q    Q       W                 
-----------------------------------------|-------------------|
-----------------------------------------|-------------------|
-----------------------------------------|-------------------|
-----------------------------------------|-------------------|
--0--0--0--0--0--0--0--0--0----0----0----|--L----------------|
--0--0--0--0--0--0--0--0--0----0----0----|--L----------------|


  PM PM PM PM PM PM PM PM PM   PM   PM                        
                          |----3----|                         
  S  S  S  S  S  S  S  S  Q    Q    Q       W                 
-----------------------------------------|-------------------|
-----------------------------------------|-------------------|
-----------------------------------------|-------------------|
-----------------------------------------|-------------------|
--0--0--0--0--0--0--0--0--0----0----0----|--L----------------|
--0--0--0--0--0--0--0--0--0----0----0----|--L----------------|


  PM PM PM PM PM PM PM PM PM   PM   PM                        
                          |----3----|                         
  S  S  S  S  S  S  S  S  Q    Q    Q       W                 
-----------------------------------------|-------------------|
-----------------------------------------|-------------------|
-----------------------------------------|-------------------|
-----------------------------------------|-------------------|
--0--0--0--0--0--0--0--0--0----0----0----|--L----------------|
--0--0--0--0--0--0--0--0--0----0----0----|--L----------------|


  PM PM PM PM PM PM PM PM PM   PM   PM                               
                          |----3----|                                
  S  S  S  S  S  S  S  S  Q    Q    Q       E  E  E  E  E  E  E  E   
-----------------------------------------|--------------------------|
-----------------------------------------|--------------------------|
-----------------------------------------|--------------------------|
-----------------------------------------|--------------------------|
--0--0--0--0--0--0--0--0--0----0----0----|--0-----------0-----------|
--0--0--0--0--0--0--0--0--0----0----0----|--0-----------0-----------|


           PM PM PM PM PM PM                      PM PM PM PM PM PM           
  S  S  E  S  S  E  S  S  E  S  S  E     S  S  E  S  S  E  S  S  E  S  S  E   
--------------------------------------|--------------------------------------|
--------------------------------------|--------------------------------------|
--------------------------------------|--------------------------------------|
--------------------------------------|--------------------------------------|
--5h-8p-5--------------------5h-8p-5--|--4h-7p-4--------------------4h-7p-4--|
-----------0--0--0--0--0--0-----------|-----------0--0--0--0--0--0-----------|


           PM PM PM PM PM PM                               PM PM PM PM  
  S  S  E  S  S  E  S  S  E  S  S  E     S  S  E  S  S  E  E  E  E  E   
--------------------------------------|--------------------------------|
--------------------------------------|--------------------------------|
--------------------------------------|--------------------------------|
--------------------------------------|--------------------------------|
--5h-8p-5--------------------5h-8p-5--|--5h-8p-5--4h-7p-4--0--2--4--5--|
-----------0--0--0--0--0--0-----------|--------------------------------|


           PM PM PM PM PM PM                      PM PM PM PM PM PM           
  S  S  E  S  S  E  S  S  E  S  S  E     S  S  E  S  S  E  S  S  E  S  S  E   
--------------------------------------|--------------------------------------|
--------------------------------------|--------------------------------------|
--------------------------------------|--------------------------------------|
--------------------------------------|--------------------------------------|
--5h-8p-5--------------------5h-8p-5--|--4h-7p-4--------------------4h-7p-4--|
-----------0--0--0--0--0--0-----------|-----------0--0--0--0--0--0-----------|


           PM PM PM PM PM PM PM PM PM    PM PM PM PM              
  S  S  E  S  S  E  S  S  E  S  S  E     E  E  E  E  E  E  E  E   
--------------------------------------|--------------------------|
--------------------------------------|--------------------------|
--------------------------------------|--------------------------|
--------------------------------------|--------------7--5--------|
--5h-8p-5-----------------------------|--5--1--4--0--------8--7--|
-----------0--0--0--0--0--0--0--0--0--|--------------------------|


     PM PM PM PM    PM PM PM PM       PM PM PM PM               
  E  E  S  S  E  E  E  S  S  E     E  E  S  S  E  S S E  E  E   
--------------------------------|------------------------------|
--------------------------------|------------------------------|
--------------------------------|------------------------------|
--------------------------------|------------------------------|
--5--------------5--------------|--4--------------4-5-4--1--0--|
-----0--0--0--0-----0--0--0--0--|-----0--0--0--0---------------|


     PM PM PM PM    PM PM PM PM       PM PM PM PM              
  E  E  S  S  E  E  E  S  S  E     E  E  S  S  E  E  E  E  E   
--------------------------------|-----------------------------|
--------------------------------|-----------------------------|
--------------------------------|-----------------------------|
--------------------------------|-----------------7--5--------|
--8--------------8--------------|--7--------------------8--7--|
-----0--0--0--0-----0--0--0--0--|-----0--0--0--0--------------|


     PM PM PM PM    PM PM PM PM       PM PM PM PM               
  E  E  S  S  E  E  E  S  S  E     E  E  S  S  E  S S E  E  E   
--------------------------------|------------------------------|
--------------------------------|------------------------------|
--------------------------------|------------------------------|
--------------------------------|------------------------------|
--5--------------5--------------|--4--------------4-5-4--1--0--|
-----0--0--0--0-----0--0--0--0--|-----0--0--0--0---------------|


     PM PM PM PM    PM PM PM PM       PM PM PM PM    PM    PM  
  E  E  S  S  E  E  E  S  S  E     E  E  S  S  E  E  E  E  E   
--------------------------------|-----------------------------|
--------------------------------|-----------------------------|
--------------------------------|-----------------------------|
--------------------------------|-----------------------------|
--8--------------8--------------|--7--------------8-----7-----|
-----0--0--0--0-----0--0--0--0--|-----0--0--0--0-----0-----0--|


     PM PM PM PM    PM PM PM PM       PM PM PM PM               
  E  E  S  S  E  E  E  S  S  E     E  E  S  S  E  S S E  E  E   
--------------------------------|------------------------------|
--------------------------------|------------------------------|
--------------------------------|------------------------------|
--------------------------------|------------------------------|
--5--------------5--------------|--4--------------4-5-4--1--0--|
-----0--0--0--0-----0--0--0--0--|-----0--0--0--0---------------|


     PM PM PM PM    PM PM PM PM       PM PM PM PM              
  E  E  S  S  E  E  E  S  S  E     E  E  S  S  E  E  E  E  E   
--------------------------------|-----------------------------|
--------------------------------|-----------------------------|
--------------------------------|-----------------------------|
--------------------------------|-----------------7--5--------|
--8--------------8--------------|--7--------------------8--7--|
-----0--0--0--0-----0--0--0--0--|-----0--0--0--0--------------|


     PM PM PM PM    PM PM PM PM       PM PM PM PM               
  E  E  S  S  E  E  E  S  S  E     E  E  S  S  E  S S E  E  E   
--------------------------------|------------------------------|
--------------------------------|------------------------------|
--------------------------------|------------------------------|
--------------------------------|------------------------------|
--5--------------5--------------|--4--------------4-5-4--1--0--|
-----0--0--0--0-----0--0--0--0--|-----0--0--0--0---------------|


     PM PM PM PM    PM PM PM PM       PM PM PM PM    PM    PM  
  E  E  S  S  E  E  E  S  S  E     E  E  S  S  E  E  E  E  E   
--------------------------------|-----------------------------|
--------------------------------|-----------------------------|
--------------------------------|-----------------------------|
--------------------------------|-----------------------------|
--8--------------8--------------|--7--------------8-----7-----|
-----0--0--0--0-----0--0--0--0--|-----0--0--0--0-----0-----0--|


       PM PM PM PM PM PM    PM PM PM PM                      PM PM PM PM PM PM  
  Q    E  E  E  E  E  E     E  E  E  E  E  E  E  E      Q    E  E  E  E  E  E   
-------------------------|--------------------------|--------------------------|
-------------------------|--------------------------|--------------------------|
-------------------------|--------------------------|--------------------------|
--7----------------------|--------------7--5--------|--10----------------------|
--5----5--5--5--5--5--5--|--5--5--5--5--------8--7--|---8----8--8--8--8--8--8--|
-------------------------|--------------------------|--------------------------|


  PM PM PM PM PM PM PM PM         PM PM PM PM PM PM    PM PM PM PM              
  E  E  E  E  E  E  E  E     Q    E  E  E  E  E  E     E  E  E  E  E  E  E  E   
--------------------------|-------------------------|--------------------------|
--------------------------|-------------------------|--------------------------|
--------------------------|-------------------------|--------------------------|
--------------------------|--5----------------------|--------------5-----------|
--8--8--8--8--8--8--8--8--|--3----3--3--3--3--3--3--|--3--3--3--3-----8--7--8--|
--------------------------|-------------------------|--------------------------|


  PM    PM                    PM    PM                 
  E  E  E  E   E  E  E  E     E  E  E  E  E  E  E  E   
---------------------------|--------------------------|
---------------------------|--------------------------|
---------------------------|--------------------------|
---------------------------|--------------7--5--------|
--7--8--7--8--10--8--7--8--|--7--8--7--8--------8--7--|
---------------------------|--------------------------|


       PM PM PM PM PM PM    PM PM PM PM                      PM PM PM PM PM PM  
  Q    E  E  E  E  E  E     E  E  E  E  E  E  E  E      Q    E  E  E  E  E  E   
-------------------------|--------------------------|--------------------------|
-------------------------|--------------------------|--------------------------|
-------------------------|--------------------------|--------------------------|
--7----------------------|--------------7--5--------|--10----------------------|
--5----5--5--5--5--5--5--|--5--5--5--5--------8--7--|---8----8--8--8--8--8--8--|
-------------------------|--------------------------|--------------------------|


  PM PM PM PM PM PM PM PM         PM PM PM PM PM PM    PM PM PM PM              
  E  E  E  E  E  E  E  E     Q    E  E  E  E  E  E     E  E  E  E  E  E  E  E   
--------------------------|-------------------------|--------------------------|
--------------------------|-------------------------|--------------------------|
--------------------------|-------------------------|--------------------------|
--------------------------|--5----------------------|--------------5-----------|
--8--8--8--8--8--8--8--8--|--3----3--3--3--3--3--3--|--3--3--3--3-----8--7--8--|
--------------------------|-------------------------|--------------------------|


  PM    PM                    PM    PM                 
  E  E  E  E   E  E  E  E     E  E  E  E  E  E  E  E   
---------------------------|--------------------------|
---------------------------|--------------------------|
---------------------------|--------------------------|
---------------------------|--------------7--5--------|
--7--8--7--8--10--8--7--8--|--7--8--7--8--------8--7--|
---------------------------|--------------------------|


       PM PM PM PM PM          PM    PM PM PM PM          PM PM PM PM           
  Q    E  E  E  E  E  E     E  E  E  E  E  E  E  E     E  E  E  E  E  E  E  E   
-------------------------|--------------------------|--------------------------|
-------------------------|--------------------------|--------------------------|
-------------------------|--------------------0-----|--------------------------|
--7-------------------5--|--L-----3-----2--3-----3--|--L--------------3-----2--|
--5----------------------|-----------------------1--|--L--------------1-----0--|
-------0--0--0--0--0-----|-----0-----0--------------|-----0--0--0--0-----------|


     PM PM PM PM                  PM PM PM PM PM          PM    PM PM PM PM     
  E  E  E  E  E  E  E  E     Q    E  E  E  E  E  E     E  E  E  E  E  E  E  E   
--------------------------|-------------------------|--------------------------|
--------------------------|-------------------------|--------------------------|
--------------------------|-------------------------|--------------------0-----|
--L--------------2-----7--|--L-------------------5--|--L-----3-----2--3-----3--|
--L--------------0-----5--|--L----------------------|-----------------------1--|
-----0--0--0--0-----------|-------0--0--0--0--0-----|-----0-----0--------------|


     PM PM PM PM                PM PM PM PM           
  E  E  E  E  E  E  E  E     E  E  E  E  E  E  E  E   
--------------------------|--------------------------|
--------------------------|--------------------------|
--------------------------|--------------------------|
--L--------------3-----5--|--L--------------5-----7--|
--L--------------1-----3--|--L--------------3-----5--|
-----0--0--0--0-----------|-----0--0--0--0-----------|


     PM PM PM PM PM PM          PM    PM PM PM PM     
  E  E  E  E  E  E  E  E     E  E  E  E  E  E  E  E   
--------------------------|--------------------------|
--------------------------|--------------------------|
--------------------------|--------------------0-----|
--L--------------------5--|--L-----3-----2--3-----3--|
--L-----------------------|-----------------------1--|
-----0--0--0--0--0--0-----|-----0-----0--------------|


     PM PM PM PM                PM PM PM PM           
  E  E  E  E  E  E  E  E     E  E  E  E  E  E  E  E   
--------------------------|--------------------------|
--------------------------|--------------------------|
--------------------------|--------------------------|
--L--------------3-----2--|--L--------------2-----7--|
--L--------------1-----0--|--L--------------0-----5--|
-----0--0--0--0-----------|-----0--0--0--0-----------|


     PM PM PM PM PM PM          PM    PM PM PM PM     
  E  E  E  E  E  E  E  E     E  E  E  E  E  E  E  E   
--------------------------|--------------------------|
--------------------------|--------------------------|
--L-----------------------|--------------------0-----|
--L--------------------5--|--L-----3-----2--3-----3--|
--------------------------|-----------------------1--|
-----0--0--0--0--0--0-----|-----0-----0--------------|


     PM PM PM PM                PM PM PM PM           
  E  E  E  E  E  E  E  E     E  E  E  E  E  E  E  E   
--------------------------|--------------------------|
--------------------------|--------------------------|
--------------------------|--------------------------|
--L--------------3-----5--|--L--------------5-----7--|
--L--------------1-----3--|--L--------------3-----5--|
-----0--0--0--0-----------|-----0--0--0--0-----------|


   |---3--|   |---3--|   |---3--|   |---3--|   
   E   E  E   E   E  E   E  E   E   E  E   E   
--11--10--8----------------------------8------|
-------------11--10--8------8--10--11-----11--|
------------------------10--------------------|
----------------------------------------------|
----------------------------------------------|
----------------------------------------------|


   |---3--|  |---3--|   |---3--|  |---3--|   
   E  E   E  E   E  E   E  E   E  E   E  E   
--------------------------------------------|
--10--8--------------------8--10--8---------|
---------10--8------8--10------------10--8--|
----------------12--------------------------|
--------------------------------------------|
--------------------------------------------|


   |---3--|   |---3--|   |---3--|   |---3--|   
   E   E  E   E   E  E   E  E   E   E  E   E   
----------------------------------------------|
----------------------------------------------|
---------------------8--10--8-----------------|
--12--10--8--10--12------------12--10--8------|
------------------------------------------12--|
----------------------------------------------|


   |---3--|   |---3--|  |---3--|  |--3--|   
   E   E  E   E  E   E  E  E   E  E  E  E   
-------------------------------------------|
-------------------------------------------|
-----------------7-------------------------|
----------8--10-----10--8--6---------------|
--10--12----------------------10--8--6--8--|
-------------------------------------------|


      PM PM PM PM PM  PM PM PM PM  PM  PM                  PM  PM    PH  
   |--3--|  |--3--|   |--3--|  |---3---|                                 
   E  E  E  E  E  E   E  E  E  E   E   E     E.  S E  E  S E.  E.    S   
------------------------------------------|-----------------------------|
------------------------------------------|-----------------------------|
------------------------------------------|------------------------<>9b-|
------6--5--------------------------------|-----------------------------|
--10--------8--6--4-----------------------|--7---8-L--7--L-5---7--------|
---------------------10--8--7--8--10--11--|-----------------------------|


                      |---3---|   |---3--|   |---3---|  |---3---|   
  W                   E   E   E   E   E  E   E   E   E  E   E   E   
-------------------|-----------------------------------------------|
-------------------|-----------------------------------------------|
--L----------------|---------------------8----------10--8--10--12--|
-------------------|--8--10--12--10--12-----10--12-----------------|
-------------------|-----------------------------------------------|
-------------------|-----------------------------------------------|


  |---3--|  |---3---|  |---3---|   |---3---|   
  E  E   E  E   E   E  E   E   E   E   E   E   
----------------------------------------------|
----------------------------------------------|
--7--8--10--8--10--12--8--10--12--10--12--14--|
----------------------------------------------|
----------------------------------------------|
----------------------------------------------|


   |---3---|   |---3---|   |---3---|   |---3---|   
   E   E   E   E   E   E   E   E   E   E   E   E   
--------------------------------------------------|
----------------------------------13--------------|
--10--12--14--12--14--16--14--16------------------|
--------------------------------------15--17--15--|
--------------------------------------------------|
--------------------------------------------------|


   |---3---|   |---3---|   |---3---|   |---3---|   
   E   E   E   E   E   E   E   E   E   E   E   E   
--------------------------------------------------|
----------15----------13----------------------13--|
--12--14------------------------------12--14------|
--------------15--17------13--15--13--------------|
--------------------------------------------------|
--------------------------------------------------|


   |---3---|   |---3---|   |---3---|   |---3---|   
   E   E   E   E   E   E   E   E   E   E   E   E   
--------------------------------------------------|
----------15--13----------------------13--15--17--|
--12--14----------16--14--12--14--16--------------|
--------------------------------------------------|
--------------------------------------------------|
--------------------------------------------------|


   |---3---|   |---3---|   |-3-|                                             
   E   E   E   E   E   E   E   Q    Q        E   E   E   E   E   E   E   E   
-----------------------------------------|----------------------------------|
--15--13---------------------------------|----------------------------------|
----------16--14--12---------------------|--17--13--15------13--------------|
----------------------15--13--12----L----|--------------17------15--17--13--|
-----------------------------------------|----------------------------------|
-----------------------------------------|----------------------------------|


                           PM  PM                            
   E   E   E   E   E   E   E   E      E   E    H.            
----------------------------------|-------------------------|
----------------------------------|-------------------------|
----------------------------------|--17--13--/15------------|
--15------13----------------------|-------------------------|
------17------15--17--13--12--13--|-------------------------|
----------------------------------|-------------------------|


       PM PM PM PM PM PM    PM PM PM PM                      PM PM PM PM PM PM  
  Q    E  E  E  E  E  E     E  E  E  E  E  E  E  E      Q    E  E  E  E  E  E   
-------------------------|--------------------------|--------------------------|
-------------------------|--------------------------|--------------------------|
-------------------------|--------------------------|--------------------------|
--7----------------------|--------------7--5--------|--10----------------------|
--5----5--5--5--5--5--5--|--5--5--5--5--------8--7--|---8----8--8--8--8--8--8--|
-------------------------|--------------------------|--------------------------|


  PM PM PM PM PM PM PM PM         PM PM PM PM PM PM    PM PM PM PM              
  E  E  E  E  E  E  E  E     Q    E  E  E  E  E  E     E  E  E  E  E  E  E  E   
--------------------------|-------------------------|--------------------------|
--------------------------|-------------------------|--------------------------|
--------------------------|-------------------------|--------------------------|
--------------------------|--5----------------------|--------------5-----------|
--8--8--8--8--8--8--8--8--|--3----3--3--3--3--3--3--|--3--3--3--3-----8--7--8--|
--------------------------|-------------------------|--------------------------|


  PM    PM                    PM    PM                 
  E  E  E  E   E  E  E  E     E  E  E  E  E  E  E  E   
---------------------------|--------------------------|
---------------------------|--------------------------|
---------------------------|--------------------------|
---------------------------|--------------7--5--------|
--7--8--7--8--10--8--7--8--|--7--8--7--8--------8--7--|
---------------------------|--------------------------|


       PM PM PM PM PM PM    PM PM PM PM                      PM PM PM PM PM PM  
  Q    E  E  E  E  E  E     E  E  E  E  E  E  E  E      Q    E  E  E  E  E  E   
-------------------------|--------------------------|--------------------------|
-------------------------|--------------------------|--------------------------|
-------------------------|--------------------------|--------------------------|
--7----------------------|--------------7--5--------|--10----------------------|
--5----5--5--5--5--5--5--|--5--5--5--5--------8--7--|---8----8--8--8--8--8--8--|
-------------------------|--------------------------|--------------------------|


  PM PM PM PM PM PM PM PM         PM PM PM PM PM PM    PM PM PM PM              
  E  E  E  E  E  E  E  E     Q    E  E  E  E  E  E     E  E  E  E  E  E  E  E   
--------------------------|-------------------------|--------------------------|
--------------------------|-------------------------|--------------------------|
--------------------------|-------------------------|--------------------------|
--------------------------|--5----------------------|--------------5-----------|
--8--8--8--8--8--8--8--8--|--3----3--3--3--3--3--3--|--3--3--3--3-----8--7--8--|
--------------------------|-------------------------|--------------------------|


  PM    PM                    PM    PM                 
  E  E  E  E   E  E  E  E     E  E  E  E  E  E  E  E   
---------------------------|--------------------------|
---------------------------|--------------------------|
---------------------------|--------------------------|
---------------------------|--------------7--5--------|
--7--8--7--8--10--8--7--8--|--7--8--7--8--------8--7--|
---------------------------|--------------------------|


  PM PM PM PM PM PM PM PM PM   PM   PM      PM                       
                          |----3----|                                
  S  S  S  S  S  S  S  S  Q    Q    Q       E  E  E  E  E  E  E  E   
-----------------------------------------|--------------------------|
-----------------------------------------|--------------------------|
-----------------------------------------|--------------------------|
-----------------------------------------|--------------------------|
--0--0--0--0--0--0--0--0--0----0----0----|--0-----------------------|
--0--0--0--0--0--0--0--0--0----0----0----|--0-----------------------|


  PM PM PM PM PM PM PM PM PM   PM   PM      PM                       
                          |----3----|                                
  S  S  S  S  S  S  S  S  Q    Q    Q       E  E  E  E  E  E  E  E   
-----------------------------------------|--------------------------|
-----------------------------------------|--------------------------|
-----------------------------------------|--------------------------|
-----------------------------------------|--------------------------|
--0--0--0--0--0--0--0--0--0----0----0----|--0-----------------------|
--0--0--0--0--0--0--0--0--0----0----0----|--0-----------------------|


  PM PM PM PM PM PM PM PM PM   PM   PM      PM                       
                          |----3----|                                
  S  S  S  S  S  S  S  S  Q    Q    Q       E  E  E  E  E  E  E  E   
-----------------------------------------|--------------------------|
-----------------------------------------|--------------------------|
-----------------------------------------|--------------------------|
-----------------------------------------|--------------------------|
--0--0--0--0--0--0--0--0--0----0----0----|--0-----------------------|
--0--0--0--0--0--0--0--0--0----0----0----|--0-----------------------|


  PM PM PM PM PM PM PM PM PM   PM   PM      PM                       
                          |----3----|                                
  S  S  S  S  S  S  S  S  Q    Q    Q       E  E  E  E  E  E  E  E   
-----------------------------------------|--------------------------|
-----------------------------------------|--------------------------|
-----------------------------------------|--------------------------|
-----------------------------------------|--------------------------|
--0--0--0--0--0--0--0--0--0----0----0----|--0-----------------------|
--0--0--0--0--0--0--0--0--0----0----0----|--0-----------------------|


  S  S  E  S S S S S S S S S  S  E     S  S  E  S S S S S S S S S  S  E   
------------------------------------|------------------------------------|
------------------------------------|------------------------------------|
------------------------------------|------------------------------------|
------------------------------------|------------------------------------|
--5h-8p-5------------------5h-8p-5--|--4h-7p-4------------------4h-7p-4--|
------------------------------------|------------------------------------|


                                       PM PM PM PM              
  S  S  E  S S S S S S S S S  S  E     E  E  E  E  E  E  E  E   
------------------------------------|--------------------------|
------------------------------------|--------------------------|
------------------------------------|--------------2--0--------|
------------------------------------|--0-----------------3--2--|
--5h-8p-5------------------5h-8p-5--|-----1--4--0--------------|
------------------------------------|--------------------------|


  Q    E  E  E  E  E  E                
-------------------------|-----|-----||
-------------------------|-----|-----||
-------------------------|-----|-----||
-------------------------|-----|-----||
--0----------------------|-----|-----||
--0----------------------|-----|-----||




Duration Legend
---------------
W - whole
H - half
Q - quarter
E - 8th
S - 16th
T - 32nd
X - 64th
. - note dotted
|-n-|  - n-tuplets


Tablature Legend
----------------
L - tied note
x - dead note
g - grace note
(n) - ghost note
> - accentuded note
NH - natural harmonic
AH - artificial harmonic
TH - tapped harmonic
SH - semi harmonic
PH - pitch harmonic
h - hammer on
p - pull off
b - bend
br - bendRelease
pb - preBend
pbr - preBendRelease
brb - bendReleaseBend
\n/ - tremolo bar dip
\n - tremolo bar dive
-/n - tremolo bar Release up
/n\ - tremolo bar inverted dip
/n - tremolo bar return
-\n - tremolo bar Release down
S - shift slide
s - legato slide
/ -  slide into from below or out of upwards
\ -  slide into from above or out of downwards
~ - vibrato
W - wide vibrato
tr - trill
TP - tremolo picking
T - tapping
S - slap
P - pop
< - fade in
^ - brush up
v - brush down
comments
We did not receive enough feedback on this tab! Please rate:
print report bad tab
1 2 3 4 5
1 comment total.
0 reply
Punkbeezy wrote on September 23 2009, 05:54 pm

this tab sucks ass

I want to post or [tab]
guest
You may want to rate the tab now too:
select rating
Please do not post tabs as comments. Select "correction" instead!