Oops, an error
Loading. Please wait.

Become The Catalyst Tab

ver4
ver4

Intro

Solo

Whole song

More versions @911Tabs.com
6,159 views 6 this week
5 commentsread comments
1 2 3 4 5
excellent!
x 8
add to favorites launch autoscroll
font size
0
reset
Autoscroll
+/-
esc
set tempo
stop
Contributor
Difficulty
Tuning
advanced
D G C F A D
WARNING: You are trying to view
                                    content from Ultimate-Guitar.com
                                    in an unauthorized application,
                                    which is prohibited.

                                    Please use an official Ultimate
                                    Guitar Tabs application for iPhone,
                                    iPad or Android to access legitimate
                                    chords, guitar, bass, and drum tabs
                                    from Ultimate-Guitar.com database.

                                    Type "ultimate guitar tabs" in Apple
                                    App Store's or Android Market's
                                    search to find the application.
-------------------------------------------------------------------------------
                        "Become the Catalyst" --- All That Remains
-------------------------------------------------------------------------------

Tabbed by: [travis]



Tuning: D G C F A D [low to high]


Key: G Major == G A B C D E F#


Legend:

... = palm mute
h = hammer on
p = pull off
b = bend
* = pinch harmonic
x = muffled string
! = tremelo pick
.5 = half step bend
1 = whole step bend
1.5 = whole step and half bend
/ = slide up
\ = slide down
h/ = pick once
p\ = pick once
~ = vibrato / ring
() = note not picked / bent note back to normal


============================
Intro:

Guitar 1:
D|-------------------------------------------------------------------------------------------|
A|-------------------------------------------------------------------------------------------|
D|-------------------------------------------------------------------------------------------|
C|-------------------------------------------------------------------------------------------|
G|-7h10p7-----------7h10p7-6h9p6-----------6h9p6-7h10p7-----------7h10p7-7h9p7-6h7p6-----6-7-|
D|--------00-0-00-0--------------00-0-00-0--------------00-0-00-0--------------------8-7-----|
          .........              .........              .........                    .......

Guitar 2:
D|-------------------------------------------------------------------------------------------|
A|-------------------------------------------------------------------------------------------|
D|-------------------------------------------------------------------------------------------|
C|-9----------------9------9---------------9-------------------------------------------------|
G|-7----------------7------6---------------6-----7----------------7h10p7-7h9p7-6h7p6-----6-7-|
D|-----------------------------------------------7-----------------------------------8-7-----|
                                                                                     .......

============================
Guitars 1 and 2:
D|------------------------------------------------------------------------------------------|
A|------------------------------------------------------------------------------------------|
D|------------------------------------------------------------------------------------------|
C|--------------------------------------------------------------------------------9---------|
G|-7h10p7-----------7h10p7-6h9p6-----------6h9p6-7h10p7----------------10----9------12-10-9-|
D|--------00-0-00-0--------------00-0-00-0--------------00-0-00-0-00-0----11---11-----------|
          .........              .........              .........................

============================
Guitar 1:
D|-------------------------------------------------------------------------------------------|
A|-------------------------------------------------------------------------------------------|
D|-------------------------------------------------------------------------------------------|
C|-------------------------------------------------------------------------------------------|
G|-7h10p7-----------7h10p7-6h9p6-----------6h9p6-7h10p7-----------7h10p7-7h9p7-6h7p6-----6-7-|
D|--------00-0-00-0--------------00-0-00-0--------------00-0-00-0--------------------8-7-----|
          .........              .........              .........                    .......


Guitar 2:
D|---------------------------------------------------------------------------------------|
A|---------------------------------------------------------------------------------------|
D|---------------------------------------------------------------------------------------|
C|-5h9p5-----------5h9p5-4h7p4-----------4h7p4-5h9p5-----------5h9p5-5h7p5-4h5p4-----4-5-|
G|-------------------------------------------------------------------------------7-6-----|
D|-------00-0-00-0-------------00-0-00-0-------------00-0-00-0---------------------------|
         .........             .........             .........                   .......

==============================
Guitar 1:
D|------------------------------------------------------------------------------------------|
A|------------------------------------------------------------------------------------------|
D|------------------------------------------------------------------------------------------|
C|--------------------------------------------------------------------------------9---------|
G|-7h10p7-----------7h10p7-6h9p6-----------6h9p6-7h10p7----------------10----9------12-10-9-|
D|--------00-0-00-0--------------00-0-00-0--------------00-0-00-0-00-0----11---11-----------|
          .........              .........              .........................


Guitar 2:
D|-----------------------------------------------------------------------------------|
A|-----------------------------------------------------------------------------------|
D|--------------------------------------------------------------------------8--------|
C|-5h9p5-----------5h9p5-4h7p4-----------4h7p4-5h9p5----------------9---7-----10-9-7-|
G|--------------------------------------------------------------------9---9----------|
D|-------00-0-00-0-------------00-0-00-0-------------00-0-00-0-00-0------------------|
         .........             .........             ......................

End of Intro.
===============================
Verse 1:

Guitars 1 and 2:
D|----------------------------------------------------------------------------|
A|----------------------------------------------------------------------------|
D|----------------------------------------------------------------------------|
C|-------------------------------------------------------------------9-7------|
G|-7--------7--------6--------6h7p6-----10--------10--------9------------10-9-|
D|---0-00-0---0-00-0---0-00-0-------8-7----0-00-0----0-00-0---0-00-0----------|
     ......   ......   ......              ......    ......   ......

================================
Guitars 1 and 2:
D|----------------------------------------------------------------------------|
A|----------------------------------------------------------------------------|
D|----------------------------------------------------------------------------|
C|----------------------------------------------------------------------------|
G|-7--------7--------6--------6h7p6-----10--------10--------9--------10-7-9-6-|
D|---0-00-0---0-00-0---0-00-0-------8-7----0-00-0----0-00-0---0-00-0----------|
     ......   ......   ......              ......    ......   ...............

================================
Guitar 1:
D|----------------------------------------------------------------------------|
A|----------------------------------------------------------------------------|
D|----------------------------------------------------------------------------|
C|-5--------5--------4--------4h5p4-----9--------9--------7--------13-10-9----|
G|----------------------------------7-6------------------------------------12-|
D|---0-00-0---0-00-0---0-00-0-------------0-00-0---0-00-0---0-00-0------------|
     ......   ......   ......             ......   ......   ......

Guitar 2:
D|----------------------------------------------------------------------------|
A|----------------------------------------------------------------------------|
D|----------------------------------------------------------------------------|
C|-------------------------------------------------------------------9-7------|
G|-7--------7--------6--------6h7p6-----10--------10--------9------------10-9-|
D|---0-00-0---0-00-0---0-00-0-------8-7----0-00-0----0-00-0---0-00-0----------|
     ......   ......   ......              ......    ......   ......

=================================
Guitar 1:
D|-------------------------------------------------------------------------|
A|-------------------------------------------------------------------------|
D|-------------------------------------------------------------------------|
C|-5--------5--------4--------4h5p4-----9--------9--------7--------9---7---|
G|----------------------------------7-6------------------------------9---9-|
D|---0-00-0---0-00-0---0-00-0-------------0-00-0---0-00-0---0-00-0---------|
     ......   ......   ......             ......   ......   ..............

Guitar 2:
D|------------------------------------------------------------------------------|
A|------------------------------------------------------------------------------|
D|------------------------------------------------------------------------------|
C|------------------------------------------------------------------------------|
G|-7--------7--------6--------6h7p6-----10--------10--------9--------10----9----|
D|---0-00-0---0-00-0---0-00-0-------8-7----0-00-0----0-00-0---0-00-0----11---11-|
     ......   ......   ......              ......    ......   .................

End of Verse 1.
==================================
Chorus 1:

Guitar 1:
D|------------------------------------------------------------------------------------------------|
A|------------------------------------------------------------------------------------------------|
D|------------------------------------------------------------------------------------------------|
C|-9-----------7~~~~--5---4-5-7--5~~~~-------5---4~~~~------4---9~~~----------7~~--5---4-5-7--5~~~|
G|-7----------------6---6--------3~~~~-------3---2~~~~------2---7~~~-------------6---6--------3~~~|
D|---0-0-0-0-0-------------------------0-0-0---0------0-0-0---0-----0-0-0-0-0---------------------|
     .........      ...........        .....   .      .....   .     .........    ...........

Guitar 2:
D|--------------|
A|--------------|
D|-9------------|
C|-9------------|
G|-7------------|
D|--------------|

=================================
Guitar 1:
D|---------------------------------------------------------------------------|
A|---------------------------------------------------------------------------|
D|---------------------------------------------------------------------------|
C|-------5---7~~~------7---9~~~----------7~~--5---4-5-7--5~~~------5---4~~~~-|
G|-------3---5~~~------5---7~~~-------------6---6--------3~~~------3---2~~~~-|
D|-0-0-0---0-----0-0-0---0-----0-0-0-0-0---------------------0-0-0---0-------|
   .....   .     .....   .     .........    ...........      .....   .

Guitar 2:
D|------------------------------------------------------------------------------|
A|------------------------------------------------------------------------------|
D|------------------------------------------------------------------------------|
C|-------------------------9~~~----------10~~--9---7-9-10--10~~------10---9~~~~-|
G|--------------------10\--7~~~--------------9---9----------7~~-------7---5~~~~-|
D|--------------------10\------0-0-0-0-0-----------------------0-0-0----0-------|
                               .........     ............      .....    .

==================================
Guitar 1:
D|----------------------------------------------------------------------|
A|----------------------------------------------------------------------|
D|----------------------------------------------------------------------|
C|-------4---9~~~----------7~~--5---4-5-7------------5---7~~------7---7-|
G|-------2---7~~~-------------6---6-------10~~~------3---5~~------5---5-|
D|-0-0-0---0-----0-0-0-0-0-----------------8~~~0-0-0---0----0-0-0---0---|
   .....   .     .........    ...........      .....   .    .....   .

Guitar 2:
D|----------------------------------------------------------------------------|
A|----------------------------------------------------------------------------|
D|----------------------------------------------------------------------------|
C|-------9---9~~~----------10~~--9---7-9-10--10~~------10---12~~------12---12-|
G|-------5---7~~~--------------9---9----------7~~-------7----8~~-------9----9-|
D|-0-0-0---0-----0-0-0-0-0-----------------------0-0-0----0-----0-0-0----0----|
   .....   .     .........     ............      .....    .     .....    .

End of Chorus 1.
==================================
Break:

Guitars 1 and 2:
D|---------------------------|
A|---------------------------|
D|---------------------------|
C|----------2--2~~~~2~~~~~~~~| x3
G|----------2--2~~~~2~~~~~~~~|
D|-00000000-0--0~~~~0~~~~~~~~|
   ........

==================================
Guitars 1 and 2:
D|---------------------------------------|
A|---------------------------------------|
D|---------------------------------------|
C|----------2--2----2--2------2----------|
G|----------2--2----2--2------2----------|
D|-00000000-0--0----0--0------0----------|
   ........

==================================
Guitar 1:
D|-------------------------------------------------------------------------------------------|
A|-------------------------------------------------------------------------------------------|
D|-------------------------------------------------------------------------------------------|
C|-------------------------------------------------------------------------------------------|
G|-7h10p7-----------7h10p7-6h9p6-----------6h9p6-7h10p7-----------7h10p7-7h9p7-6h7p6-----6-7-|
D|--------00-0-00-0--------------00-0-00-0--------------00-0-00-0--------------------8-7-----|
          .........              .........              .........                    .......


Guitar 2:
D|---------------------------------------------------------------------------------------|
A|---------------------------------------------------------------------------------------|
D|---------------------------------------------------------------------------------------|
C|-5h9p5-----------5h9p5-4h7p4-----------4h7p4-5h9p5-----------5h9p5-5h7p5-4h5p4-----4-5-|
G|-------------------------------------------------------------------------------7-6-----|
D|-------00-0-00-0-------------00-0-00-0-------------00-0-00-0---------------------------|
         .........             .........             .........                   .......

==============================
Guitar 1:
D|------------------------------------------------------------------------------------------|
A|------------------------------------------------------------------------------------------|
D|------------------------------------------------------------------------------------------|
C|--------------------------------------------------------------------------------9---------|
G|-7h10p7-----------7h10p7-6h9p6-----------6h9p6-7h10p7----------------10----9------12-10-9-|
D|--------00-0-00-0--------------00-0-00-0--------------00-0-00-0-00-0----11---11-----------|
          .........              .........              .........................


Guitar 2:
D|-----------------------------------------------------------------------------------|
A|-----------------------------------------------------------------------------------|
D|--------------------------------------------------------------------------8--------|
C|-5h9p5-----------5h9p5-4h7p4-----------4h7p4-5h9p5----------------9---7-----10-9-7-|
G|--------------------------------------------------------------------9---9----------|
D|-------00-0-00-0-------------00-0-00-0-------------00-0-00-0-00-0------------------|
         .........             .........             ......................

End of Break.
===============================
Verse 2:

Guitars 1 and 2:
D|----------------------------------------------------------------------------|
A|----------------------------------------------------------------------------|
D|----------------------------------------------------------------------------|
C|-------------------------------------------------------------------9-7------|
G|-7--------7--------6--------6h7p6-----10--------10--------9------------10-9-|
D|---0-00-0---0-00-0---0-00-0-------8-7----0-00-0----0-00-0---0-00-0----------|
     ......   ......   ......              ......    ......   ......

================================
Guitars 1 and 2:
D|----------------------------------------------------------------------------|
A|----------------------------------------------------------------------------|
D|----------------------------------------------------------------------------|
C|----------------------------------------------------------------------------|
G|-7--------7--------6--------6h7p6-----10--------10--------9--------10-7-9-6-|
D|---0-00-0---0-00-0---0-00-0-------8-7----0-00-0----0-00-0---0-00-0----------|
     ......   ......   ......              ......    ......   ...............

================================
Guitar 1:
D|----------------------------------------------------------------------------|
A|----------------------------------------------------------------------------|
D|----------------------------------------------------------------------------|
C|-5--------5--------4--------4h5p4-----9--------9--------7--------13-10-9----|
G|----------------------------------7-6------------------------------------12-|
D|---0-00-0---0-00-0---0-00-0-------------0-00-0---0-00-0---0-00-0------------|
     ......   ......   ......             ......   ......   ......

Guitar 2:
D|----------------------------------------------------------------------------|
A|----------------------------------------------------------------------------|
D|----------------------------------------------------------------------------|
C|-------------------------------------------------------------------9-7------|
G|-7--------7--------6--------6h7p6-----10--------10--------9------------10-9-|
D|---0-00-0---0-00-0---0-00-0-------8-7----0-00-0----0-00-0---0-00-0----------|
     ......   ......   ......              ......    ......   ......

=================================
Guitar 1:
D|-------------------------------------------------------------------------|
A|-------------------------------------------------------------------------|
D|-------------------------------------------------------------------------|
C|-5--------5--------4--------4h5p4-----9--------9--------7--------9---7---|
G|----------------------------------7-6------------------------------9---9-|
D|---0-00-0---0-00-0---0-00-0-------------0-00-0---0-00-0---0-00-0---------|
     ......   ......   ......             ......   ......   ..............

Guitar 2:
D|------------------------------------------------------------------------------|
A|------------------------------------------------------------------------------|
D|------------------------------------------------------------------------------|
C|------------------------------------------------------------------------------|
G|-7--------7--------6--------6h7p6-----10--------10--------9--------10----9----|
D|---0-00-0---0-00-0---0-00-0-------8-7----0-00-0----0-00-0---0-00-0----11---11-|
     ......   ......   ......              ......    ......   .................

End of Verse 2.
==================================
Pre Chorus 1:

Guitars 1 and 2:
D|------------------------------------------------------------------------------------|
A|------------------------------------------------------------------------------------|
D|------------------------------------------------------------------------------------|
C|-----------------------5-4---4--------------------------------7---------------------|
G|-2-------------------------7----5-----------------------------5-5-5-5-5-5-5-5-5-5-5-|
D|-0-0-0-0-0-0-0-0-0-0-0----------3-3-3-3-3-3-3-3-3-3-3-3-3-3-3-----------------------|
     ...................            ...........................   ...................

===================================
Guitars 1 and 2:
D|-----------------------------------------|
A|-----------------------------------------|
D|---------------------------------4-------|
C|-7-5-4-5---5---4-7-5-4-5---5---4---7-5-4-|
G|-----------------------------------------|
D|---------0---0-----------0---0-----------|
           .   .           .   .

===================================
Guitars 1 and 2:
D|------------------------------------------------------------------------------------|
A|------------------------------------------------------------------------------------|
D|------------------------------------------------------------------------------------|
C|-----------------------5-4---4--------------------------------7---------------------|
G|-2-------------------------7----5-----------------------------5-5-5-5-5-5-5-5-5-5-5-|
D|-0-0-0-0-0-0-0-0-0-0-0----------3-3-3-3-3-3-3-3-3-3-3-3-3-3-3-----------------------|
     ...................            ...........................   ...................

===================================
Guitars 1 and 2:
D|-----------------------------------------|
A|-----------------------------------------|
D|---------------------------------4-------|
C|-7-5-4-5---5---4-7-5-4-5---5---4---7-5-4-|
G|-----------------------------------------|
D|---------0---0-----------0---0-----------|
           .   .           .   .

End of Pre Chorus 1.
====================================
Chorus 2:

Guitars 1 and 2:
D|------------------------------------------------------------------------------------------------|
A|------------------------------------------------------------------------------------------------|
D|------------------------------------------------------------------------------------------------|
C|-9-----------7~~~~--5---4-5-7--5~~~~-------5---4~~~~------4---9~~~----------7~~--5---4-5-7--5~~~|
G|-7----------------6---6--------3~~~~-------3---2~~~~------2---7~~~-------------6---6--------3~~~|
D|---0-0-0-0-0-------------------------0-0-0---0------0-0-0---0-----0-0-0-0-0---------------------|
     .........      ...........        .....   .      .....   .     .........    ...........


=====================================
Guitar 1:
D|-------------------------------------------------------------------------------------|
A|-------------------------------------------------------------------------------------|
D|-------------------------------------------------------------------------------------|
C|-------5---7~~~------7---9~~~----------7~~--5---4-5-7-----------5---4~~------4---9~~-|
G|-------3---5~~~------5---7~~~-------------6---6-------10~~------3---2~~------2---7~~-|
D|-0-0-0---0-----0-0-0---0-----0-0-0-0-0-----------------8~~0-0-0---0----0-0-0---0-----|
   .....   .     .....   .     .........    ...........     .....   .    .....   .

Guitar 2:
D|-----------------------------------------------------------------------------------------|
A|-----------------------------------------------------------------------------------------|
D|-----------------------------------------------------------------------------------------|
C|-------5---7~~~------7---9~~~----------10~~--9---7-9-10--10~~------10---9~~------9---9~~-|
G|-------3---5~~~------5---7~~~--------------9---9----------7~~-------7---5~~------5---7~~-|
D|-0-0-0---0-----0-0-0---0-----0-0-0-0-0-----------------------0-0-0----0----0-0-0---0-----|
   .....   .     .....   .     .........     ............      .....    .    .....   .

=====================================
Guitar 1:
D|----------------------------------------------------------------------|
A|----------------------------------------------------------------------|
D|----------------------------------------------------------------------|
C|-----------10~~--9---7-9-10--10~~------10---12----------------------9-|
G|---------------9---9----------7~~-------7----9-12-------------------7-|
D|-0-0-0-0-0-----------------------0-0-0----0----10-10-10-10-10-10-10---|
   .........     ............      .....    .       .................

Guitar 2:
D|-------------------------------------------------------------|
A|-------------------------------------------------------------|
D|-------------------------------------------------------------|
C|-----------7~~--5---4-5-7-----------5---5-7-------------9~~~-|
G|--------------6---6-------10~~------3---3-5-5-5-5-5-5-5-7~~~-|
D|-0-0-0-0-0-----------------8~~0-0-0---0----------------------|
   .........    ...........     .....   .     ...........

=======================================
Guitar Solo:

Guitar 1:
D|-12-11------------------------------------------------------------------------------|
A|------13-12-11--------10-12-10--11-10-----------------------------------------------|
D|--------------12-11-12--------12-----12-11-10-9\8---8-11p8--------------------------|
C|--------------------------------------------------9-------9-10-9-8------------------|
G|------------------------------------------------------------------10-9-8\6-7-8-9p6--|
D|----------------------------------------------------------------------------------7-|

Guitar 1:
                                                         1__   1__   1__   1__
D|--------------------------------------------------------------------------------|
A|--------------------------------------------------------------------------------|
D|-----------------------------------------------------9*b--(9)b--(9)b--(9)b--(9)-|
C|----------------------------10----9--10--9--8-----------------------------------|
G|-------9----9-10-12-10-9--------------------------10----------------------------|
D|-11-12---12--------------12----12--------------11-------------------------------|
   ................................              .....

Guitar 1:
D|-----------------------------------------------------------------------------------------------|
A|----------------------10---11-12-10----------------------------13\12p8----8---8----8h12p8----8-|
D|--------8---11-8-12-8----8----------11-------------12-13-14-15---------11---9---11--------11---|
C|------9---9---------------------------/13-14-15-16---------------------------------------------|
G|-7h10------------------------------------------------------------------------------------------|
D|-----------------------------------------------------------------------------------------------|
        ...                   

Guitar 1:
D|---------------------------------------------------------14-13-12--------------------------------|
A|-11p8----8---8----8h11p8----8/13-12-11-10-11-12-13-14/15----------16p12------------10------------|
D|------11---9---11--------11--------------------------------------------11--------11--13-12-11-10-|
C|-------------------------------------------------------------------------13p10h13----------------|
G|-------------------------------------------------------------------------------------------------|
D|-------------------------------------------------------------------------------------------------|

========
========
Guitar 1:
           1__    1__                                                             .5__   .5__
D|-------------------------------------------------------------------15----14~~(14)b--(14)b--(14)-|
A|-------------------------20-14-16---------------------------------------------------------------|
D|-/12~~~12b--(12)b--(12)~~---------17-18-15-17----15-14-13-12-11h12----12------------------------|
C|----------------------------------------------19------------------------------------------------|
G|------------------------------------------------------------------------------------------------|
D|------------------------------------------------------------------------------------------------|
                                                      ........          ..

Guitar 3:
           1__    1__                                                          .5__   .5__
D|---------------------------------------------------------------------------------------------|
A|-------------------------17-------------------------------------17----16~~(16)b--(16)b--(16)-|
D|----------------------------15-17-14-15----15------------------------------------------------|
C|-/14~~~14b--(14)b--(14)~~---------------17----17-16-15-14-13h14----14------------------------|
G|---------------------------------------------------------------------------------------------|
D|---------------------------------------------------------------------------------------------|
                                                   ........

=======
Rhythm For Solo:

Guitar 2:
D|-----------------------------------------------------------------------------------------------|
A|-----------------------------------------------------------------------------------------------|
D|-----------------------------------------------------------------------------------------------|
C|-9-------------9-9------9-9-----5--5----5---4~~~-4-----4---4-9-9-------------9-9-----9-9-----5-|
G|-7-------------7-7------7-7-----3--3----3---2~~~-2-----2---2-7-7-------------7-7-----7-7-----3-|
D|---0-0-0-0-0-0-----0-0------0-0-------0---0----------0---0-------0-0-0-0-0-0-----0-0-----0-0---|
     ...........     ...      ...       .   .          .   .       ...........     ...     ...

Guitar 2:
D|-----------------------------------------------------------------------------------------|
A|-----------------------------------------------------------------------------------------|
D|-----------------------------------------------------------------------------------------|
C|-5----5---4~~~~-4-----4---4/9-9-------------9-9-----9-9-----5--5----5---4~~~--4----4---4-|
G|-3----3---2~~~~-2-----2---2/7-7-------------7-7-----7-7-----3--3----3---2~~~--2----2---2-|
D|----0---0-----------0---0-------0-0-0-0-0-0-----0-0-----0-0-------0---0----------0---0---|
      .   .           .   .       ...........     ...     ...       .   .          .   .

Guitar 2:
D|--------------------------------------------------------------|
A|--------------------------------------------------------------|
D|--------------------------------------------------------------|
C|-9-9-------------9-9-----9-9-----5---5-----5---4~~~-4---4---4-|
G|-7-7-------------7-7-----7-7-----3---3-----3---2~~~-2---2---2-|
D|-----0-0-0-0-0-0-----0-0-----0-0---------0---0--------0---0---|
       ...........     ...     ...         .   .        .   .

End of Guitar Solo.
======================================
Pre Chorus 2:

Guitar 1:
D|-----------------------------------------------------------------|
A|-----------------------------------------------------------------|
D|-9-9-9-9-9-9-9-9-9-9-9-9-9-9-9-9-7-7-7-7-7-7-7-7-7-7-7-7-7-7-7-7-|
C|-x-x-x-x-x-x-x-x-x-x-x-x-x-x-x-x-x-x-x-x-x-x-x-x-x-x-x-x-x-x-x-x-|
G|-7-7-7-7-7-7-7-7-7-7-7-7-7-7-7-7-5-5-5-5-5-5-5-5-5-5-5-5-5-5-5-5-|
D|-----------------------------------------------------------------|

Guitar 2:
D|---------------------------------------------------------------------|
A|---------------------------------------------------------------------|
D|---------------------------------------------------------------------|
C|-2-------------------------------------------------------------------|
G|-2----------------------14-12-10-12--10------------------------------|
D|-0--0-0-0-0-0-0-0-0-0-0---------------7--7-7-7-7-7-7-7-7-7-7-7-7-7-7-|
      ...................                  ...........................

=======================================
Guitar 1:
D|-----------------------------------------------------------------|
A|-----------------------------------------------------------------|
D|-7-7-7-7-7-7-7-7-7-7-7-7-7-7-7-7-9-9-9-9-9-9-9-9-9-9-9-9-9-9-9-9-|
C|-x-x-x-x-x-x-x-x-x-x-x-x-x-x-x-x-x-x-x-x-x-x-x-x-x-x-x-x-x-x-x-x-|
G|-5-5-5-5-5-5-5-5-5-5-5-5-5-5-5-5-7-7-7-7-7-7-7-7-7-7-7-7-7-7-7-7-|
D|-----------------------------------------------------------------|

Guitar 2:
D|---------------------------------------------------------------------------------|
A|---------------------------------------------------------------------------------|
D|---------------------------------------------------------------------------------|
C|---------------------------------------------------------------------12----------|
G|-5----------------------14-12-10-12----14---12-15-14-12-14---14---12----15-14-12-|
D|-2--2-2-2-2-2-2-2-2-2-2--------------0----0----------------0----0----------------|
      ...................              .    .                .    .

=======================================
Guitar 1:
D|-----------------------------------------------------------------|
A|-----------------------------------------------------------------|
D|-9-9-9-9-9-9-9-9-9-9-9-9-9-9-9-9-7-7-7-7-7-7-7-7-7-7-7-7-7-7-7-7-|
C|-x-x-x-x-x-x-x-x-x-x-x-x-x-x-x-x-x-x-x-x-x-x-x-x-x-x-x-x-x-x-x-x-|
G|-7-7-7-7-7-7-7-7-7-7-7-7-7-7-7-7-5-5-5-5-5-5-5-5-5-5-5-5-5-5-5-5-|
D|-----------------------------------------------------------------|

Guitar 2:
D|---------------------------------------------------------------------|
A|---------------------------------------------------------------------|
D|---------------------------------------------------------------------|
C|-2-------------------------------------------------------------------|
G|-2----------------------14-12-10-12--10------------------------------|
D|-0--0-0-0-0-0-0-0-0-0-0---------------7--7-7-7-7-7-7-7-7-7-7-7-7-7-7-|
      ...................                  ...........................

=======================================
Guitar 1:
D|-----------------------------------------------------------------|
A|-----------------------------------------------------------------|
D|-7-7-7-7-7-7-7-7-7-7-7-7-7-7-7-7-9-9-9-9-9-9-9-9-9-9-9-9-9-9-9-9-|
C|-x-x-x-x-x-x-x-x-x-x-x-x-x-x-x-x-x-x-x-x-x-x-x-x-x-x-x-x-x-x-x-x-|
G|-5-5-5-5-5-5-5-5-5-5-5-5-5-5-5-5-7-7-7-7-7-7-7-7-7-7-7-7-7-7-7-7-|
D|-----------------------------------------------------------------|

Guitar 2:
D|---------------------------------------------------------------------------------|
A|---------------------------------------------------------------------------------|
D|---------------------------------------------------------------------------------|
C|---------------------------------------------------------------------12----------|
G|-5----------------------14-12-10-12----14---12-15-14-12-14---14---12----15-14-12-|
D|-2--2-2-2-2-2-2-2-2-2-2--------------0----0----------------0----0----------------|
      ...................              .    .                .    .

End of Pre Chorus 2.
=========================================
Break 2:

Guitar 1: Lightly palm mute the chords to let them have that thick ring to it.
D|-------------------------------------------------------------------------------|
A|-------------------------------------------------------------------------------|
D|-------------------------------------------------------------------------------|
C|----------2--2~~~~2~~~~~~~~---------2--2~~~~2~~~~~~~~---------2--2~~~~2~~~~~~~~|
G|----------2--2~~~~2~~~~~~~~---------2--2~~~~2~~~~~~~~---------2--2~~~~2~~~~~~~~|
D|-00000000-0--0~~~~0~~~~~~~~00000000-0--0~~~~0~~~~~~~~00000000-0--0~~~~0~~~~~~~~|
   ..............................................................................

==========================================
Guitar 1:
D|---------------------------|
A|---------------------------|
D|---------------------------|
C|----------2--2~~~~2~~~~~~~~|
G|----------2--2~~~~2~~~~~~~~|
D|-00000000-0--0~~~~0~~~~~~~~|
   ........

End of Break 2.
===========================================
Outro:

Guitar 1:
D|-----------------------------------------------------------------------------------------|
A|-----------------------------------------------------------------------------------------|
D|-----------------------------------------------------------------------------8-----------|
C|---------------------------------------------------------------------9---7-----10-9-7--2-|
G|-7h10p7-----------7h10p7-6h9p6-----------6h9p6-7h10p7------------------9---9-----------2-|
D|--------00-0-00-0--------------00-0-00-0--------------00-0-00-0-00-0-------------------0-|
          .........              .........              ......................

Guitar 2:
D|----------------------------------------------------------------------------------------|
A|----------------------------------------------------------------------------------------|
D|-----------------------------------------------------------------------------4----------|
C|-9----------------9------9---------------9---------------------------5---4-----7-5-4--2-|
G|-7----------------7------6---------------6-----7-----------------------6---6----------2-|
D|-----------------------------------------------7--------------------------------------0-|
                                                                       .......

That's It.

Please Rate and Comment My Tab.
Thanks.
[travis]


comments
print report bad tab
5 comments total. Showing first comments.
+1 reply
ATR-Dethklok wrote on July 21 2009, 02:12 pm

dude awsome tab thanks man

0 reply
[travis] wrote on July 21 2009, 04:55 pm

No problem.

+1 reply
Punkbeezy wrote on September 3 2009, 02:58 pm

dam.. this tab is perfect
you should do more.

I want to post or [tab]
guest
You may want to rate the tab now too:
select rating
Please do not post tabs as comments. Select "correction" instead!