Oops, an error
Loading. Please wait.

Before The Damned Tab

ver2
ver2

Whole song

Interactive

More versions @911Tabs.com
102 views 1 this week
no commentswrite comment
1 2 3 4 5
please rate
Autoscroll
+/-
esc
set tempo
stop
Contributor
Hey! There's an official Ultimate Guitar app which is ideal
for learning songs when you're away from computer. Get the app
WARNING: You are trying to view
                                    content from Ultimate-Guitar.com
                                    in an unauthorized application,
                                    which is prohibited.

                                    Please use an official Ultimate
                                    Guitar Tabs application for iPhone,
                                    iPad or Android to access legitimate
                                    chords, guitar, bass, and drum tabs
                                    from Ultimate-Guitar.com database.

                                    Type "ultimate guitar tabs" in Apple
                                    App Store's or Android Market's
                                    search to find the application.
                        !!!!!!!!!!PLEASE READ!!!!!!!!!!
                                     THIS
                                 
                This song is actually in C# standard tuning.
             I don't know why they don't have that as an option.
                
                                  ^^^^^^^^^^^
                                     THIS
                        !!!!!!!!!!PLEASE READ!!!!!!!!!!



                  

                              OPTIONAL RANT/INFO
                                               
                              vvvvvvvvvvvvvvvvvv

                               
I thought I would submit this because it appeared 
to be on top of the requested tabs list. 
So I really hope it gets approved.
I believe this to be the most accurate version of this
song ever created, even more so then the tab book.
Sorry if that comes across as arrogant but I have 
studied this song extensively, including all of the 
published material on this song. I believe he teaches
an updated and or live version of this song in his video/
tab book. This, however is what you will hear on the album.
If you don't believe me, feel free to learn his version of the
solo. Then play it over this song slowed down, then play mine.




                               ENJOY!!




Time signatures are displayed above their respective bars.
Note values are displayed under their respective notes.
All rests are sixteenth notes.




r = rest 
w = whole note
h = half note
q = quarter note
e = eight note
s = sixteenth note

> = hammer on/pull off
/ = slide up
\ = slide down
* = palm mute
()= tied note
= = let ring
+ = pinch harmonic
b = bend
[]= bend pitch 




   4/4                              4/4
e-|--------------------------------|--------------------------------|
b-|--------------------------------|--------------------------------|
g-|--------------------------------|--------------------------------|
d-|--------------------------------|--------------------------------| X4
a-|--------------------------------|--------------------------------|
e-|0-0-0-0-0---0-0-0-0-0---0-0-0-0-|0---0-0-0-0-0---0-0-0-0-0-0-0-0-|
   * * * * *   * * * * *   * * * *  *   * * * * *   * * * * * * * *
   s s s s s r s s s s s r s s s s  s r s s s s s r s s s s s s s s

   4/4                              2/4
e-|--------------------------------|----------------|
b-|--------------------------------|----------------|
g-|--------------------------------|----------------|
d-|--------------------------------|----------------|
a-|--------------------------------|----------------|
e-|0-0-0-0-0---0-0-0-0-0---0-0-0-0-|0---------------|
   * * * * *   * * * * *   * * * *  *
   s s s s s r s s s s s r s s s s  s r r r r r r r 

   4/4                              4/4
e-|--------------------------------|--------------------------------|
b-|--------------------------------|--------------------------------|
g-|--------------------------------|--------------------------------|
d-|9>5---------9-9-9>5-----8>5---5-|9---9-9-9>5-----8>5---5-10>5--5-| X4
a-|----7-7-7-----------7-------7---|------------7-------7-------7---|
e-|--------------------------------|--------------------------------|
       * * *   * *     *       *        * *             *       *
   s s s s s r s s s s s r s s s s  s r s s s s s r s s s s s s s s

   4/4                              4/4
e-|--------------------------------|--------------------------------|
b-|--------------------------------|--------------------------------|
g-|--------------------------------|--------------------------------|
d-|--------------------------------|--------------------------------|
a-|2-------------------------------|--------------------------------|
e-|0---0---0---0---0-0-0---0---0---|0-0-0---0---0---7-0-0-0-7-0-0-0-|
       *   *   *   * * *   *   *    * * *   *   *   * * * * * * * *
   e   e   e   e   s s e   e   e    s s e   e   e   s s s s s s s s 

   4/4                              4/4
e-|--------------------------------|--------------------------------|
b-|--------------------------------|--------------------------------|
g-|--------------------------------|--------------------------------|
d-|--------------------------------|--------------------------------|
a-|3-------------------------------|--------------------------------|
e-|0---0---0---0---0-0-0---0---0---|0-0-0---0---0---8-0-0-0-8-0-0-0-|
       *   *   *   * * *   *   *    * * *   *   *   * * * * * * * *
   e   e   e   e   s s e   e   e    s s e   e   e   s s s s s s s s 

   4/4                              4/4
e-|--------------------------------|--------------------------------|
b-|--------------------------------|--------------------------------|
g-|--------------------------------|--------------------------------| 
d-|8---8---------------------------|8---8---------------------------| 
a-|6---6---------------------------|6---6---------------------------|
e-|6---6---0---0---0-0-0---0---0---|6---6---0---0---0-0-0-0-0-0-0-0-|
           *   *   * * *   *   *            *   *   * * * * * * * *
   e   e   e   e   s s e   e   e    e   e   e   e   s s s s s s s s 

   4/4                              4/4
e-|--------------------------------|--------------------------------|
b-|--------------------------------|--------------------------------|
g-|--------------------------------|--------------------------------|
d-|9---9---------------------------|--------------------------------| end 1
a-|7---7---------------------------|----------------3---3---3---3---|
e-|7---7---0---0---0-0-0---0---0---|0-0-0---0---0---1---1---1---1---|
           *   *   * * *   *   *    * * *   *   *
   e   e   e   e   s s e   e   e    s s e   e   e   e   e   e   e

   4/4                              4/4
e-|--------------------------------|--------------------------------|
b-|--------------------------------|--------------------------------|
g-|--------------------------------|--------------------------------|
d-|9---9-------2-------------------|--------------------------------| end 2
a-|7---7-------2-------2---2---2---|2---2---2---3-----------3-------|
e-|7---7---0---0-------0---0---0---|0---0---0---1-------1---1-------|
           *           *   *   *    *   *   *           *
   e   e   e   q       e   e   e    e   e   e   q       e   q


   4/4                              4/4
e-|--------------------------------|--------------------------------|
b-|--------------------------------|----------------3-/-5-----------|
g-|--------------------7-----------|----------------2-/-4-----------|
d-|--------4-/-5--(5)----------5---(5)------4---5---------------2---|
a-|2---------------------------3---(3)--3-------------------0---0---|
e-|0-------------------------------|--------------------------------|
   =       =   =   =   =                *   *   *           *
   q       e   e   e   q       e    e   e   e   e   e   e   e   e

   4/4                              4/4
e-|--------------------------------|--------------------------------|
b-|--------------------------------|--------------------------------|
g-|--------------------------------|--------------------------------|
d-(0)--------------------------4---(4)----------------------7-------|
a-(2)------0---0---0---0---0---2---(2)----------5--(5)------5-------|
e-|--------------------------------|--------0---3--(3)--0-----------|
           *   *   *   *   *                *           *
   q       e   e   e   e   e   e    q       e   e   e   e   q

   4/4                              4/4
e-|--------------------------------|--------------------------------|
b-|--------------------------------|----------------3-/-5-----------|
g-|--------------------7-----------|----------------2-/-4-----------|
d-|--------4-/-5--(5)----------5---(5)------4---5---------------2---|
a-|2---------------------------3---(3)--3-------------------0---0---|
e-|0-------------------------------|--------------------------------|
   =       =   =   =   =                *   *   *           *
   q       e   e   e   q       e    e   e   e   e   e   e   e   e

   4/4                              4/4
e-|--------------------------------|--------------------------------|
b-|--------------------------------|--------------------------------|
g-|--------------------------------|--------------------------------|
d-(0)--------------------------4---(4)----------5--(5)--4-/-7-------|
a-(2)------0---0---0---0---0---2---(2)----------3--(3)--2-/-5-------|
e-|--------------------------------|--------0-----------------------|
           *   *   *   *   *                *
   q       e   e   e   e   e   e    q       e   e   e   e   q

   4/4                              4/4
e-|--------------------------------|--------------------------------|
b-|--------------------------------|--------------------------------|
g-|--------------------------------|--------------------------------|
d-|--------------------------------|--------------------------------|
a-|2-------------------------------|--------------------------------|
e-|0---0---0---0---0-0-0---0---0---|0-0-0---0---0---7-0-0-0-7-0-0-0-|
       *   *   *   * * *   *   *    * * *   *   *   * * * * * * * *
   e   e   e   e   s s e   e   e    s s e   e   e   s s s s s s s s 

   4/4                              4/4
e-|--------------------------------|--------------------------------|
b-|--------------------------------|--------------------------------|
g-|--------------------------------|--------------------------------|
d-|--------------------------------|--------------------------------|
a-|3-------------------------------|--------------------------------|
e-|0---0---0---0---0-0-0---0---0---|0-0-0---0---0---8-0-0-0-8-0-0-0-|
       *   *   *   * * *   *   *    * * *   *   *   * * * * * * * *
   e   e   e   e   s s e   e   e    s s e   e   e   s s s s s s s s 

   4/4                              4/4
e-|--------------------------------|--------------------------------|
b-|--------------------------------|--------------------------------|
g-|--------------------------------|--------------------------------| 
d-|8---8---------------------------|8---8---------------------------| 
a-|6---6---------------------------|6---6---------------------------|
e-|6---6---0---0---0-0-0---0---0---|6---6---0---0---0-0-0-0-0-0-0-0-|
           *   *   * * *   *   *            *   *   * * * * * * * *
   e   e   e   e   s s e   e   e    e   e   e   e   s s s s s s s s 

   4/4                              4/4
e-|--------------------------------|--------------------------------|
b-|--------------------------------|--------------------------------|
g-|--------------------------------|--------------------------------|
d-|9---9---------------------------|--------------------------------| end 1
a-|7---7---------------------------|--------------------------------|
e-|7---7---0---0---0-0-0---0---0---|0-0-0---0---0---3~--------------|
           *   *   * * *   *   *    * * *   *   *   +
   e   e   e   e   s s e   e   e    s s e   e   e   h

   4/4                              4/4
e-|--------------------------------|--------------------------------|
b-|--------------------------------|--------------------------------|
g-|--------------------------------|--------------------------------|
d-|9---9-------2-------------------|--------------------------------| end 2
a-|7---7-------2-------2---2---2---|2---2---2---3-----------3-------|
e-|7---7---0---0-------0---0---0---|0---0---0---1-------1---1-------|
           *           *   *   *    *   *   *           *
   e   e   e   q       e   e   e    e   e   e   q       e   q

   4/4                              4/4
e-|--------------------------------|--------------------------------|
b-|--------------------------------|----------------3-/-5-----------|
g-|--------------------7-----------|----------------2-/-4-----------|
d-|--------4-/-5--(5)----------5---(5)------4---5---------------2---|
a-|2---------------------------3---(3)--3-------------------0---0---|
e-|0-------------------------------|--------------------------------|
   =       =   =   =   =                *   *   *           *
   q       e   e   e   q       e    e   e   e   e   e   e   e   e

   4/4                              4/4
e-|--------------------------------|--------------------------------|
b-|--------------------------------|--------------------------------|
g-|--------------------------------|--------------------------------|
d-(0)--------------------------4---(4)----------------------7-------|
a-(2)------0---0---0---0---0---2---(2)----------5--(5)------5-------|
e-|--------------------------------|--------0---3--(3)--0-----------|
           *   *   *   *   *                *           *
   q       e   e   e   e   e   e    q       e   e   e   e   q

   4/4                              4/4
e-|--------------------------------|--------------------------------|
b-|--------------------------------|----------------3-/-5-----------|
g-|--------------------7-----------|----------------2-/-4-----------|
d-|--------4-/-5--(5)----------5---(5)------4---5---------------2---|
a-|2---------------------------3---(3)--3-------------------0---0---|
e-|0-------------------------------|--------------------------------|
   =       =   =   =   =                *   *   *           *
   q       e   e   e   q       e    e   e   e   e   e   e   e   e

   4/4                              4/4
e-|--------------------------------|--------------------------------|
b-|--------------------------------|--------------------------------|
g-|--------------------------------|--------------------------------|
d-(0)--------------------------4---(4)----------5--(5)--4-/-7-------|
a-(2)------0---0---0---0---0---2---(2)----------3--(3)--2-/-5-------|
e-|--------------------------------|--------0-----------------------|
           *   *   *   *   *                *
   q       e   e   e   e   e   e    q       e   e   e   e   q

   4/4                              4/4
e-|--------------------------------|--------------------------------|
b-|--------------------------------|----------------3-/-5-----------|
g-|--------------------7-----------|----------------2-/-4-----------|
d-|--------4-/-5--(5)----------5---(5)------4---5---------------2---|
a-|2---------------------------3---(3)--3-------------------0---0---|
e-|0-------------------------------|--------------------------------|
   =       =   =   =   =                *   *   *           *
   q       e   e   e   q       e    e   e   e   e   e   e   e   e

   4/4                              4/4
e-|--------------------------------|--------------------------------|
b-|--------------------------------|--------------------------------|
g-|--------------------------------|--------------------------------|
d-(0)--------------------------4---(4)----------------------7-------|
a-(2)------0---0---0---0---0---2---(2)----------5--(5)------5-------|
e-|--------------------------------|--------0---3--(3)--0-----------|
           *   *   *   *   *                *           *
   q       e   e   e   e   e   e    q       e   e   e   e   q

   4/4                              4/4
e-|--------------------------------|--------------------------------|
b-|--------------------------------|----------------3-/-5-----------|
g-|--------------------7-----------|----------------2-/-4-----------|
d-|--------4-/-5--(5)----------5---(5)------4---5---------------2---|
a-|2---------------------------3---(3)--3-------------------0---0---|
e-|0-------------------------------|--------------------------------|
   =       =   =   =   =                *   *   *           *
   q       e   e   e   q       e    e   e   e   e   e   e   e   e

   4/4                              4/4
e-|--------------------------------|--------------------------------|
b-|--------------------------------|--------------------------------|
g-|--------------------------------|--------------------------------|
d-(0)--------------------------4---(4)------------------------------|
a-(2)------0---0---0---0---0---2---(2)----------3-3-3-3-2-2-5-5-5-5-|
e-|--------------------------------|--------0-----------------------|
           *   *   *   *   *                *
   q       e   e   e   e   e   e    q       e   s s s s s s s s s s 

   4/4                              4/4
e-|--------------------------------|--------------------------------|
b-|--------------------------------|--------------------------------|
g-|--------------------------------|--------------------------------|
d-|9>5---------9-9-9>5-----8>5---5-|9---9-9-9>5-----8>5---5-10>5--5-| X2
a-|----7-7-7-----------7-------7---|------------7-------7-------7---|
e-|--------------------------------|--------------------------------|
       * * *   * *     *       *        * *             *       *
   s s s s s r s s s s s r s s s s  s r s s s s s r s s s s s s s s

   4/4                              
e-|10>6--------------10-10-10>6--------9->6-----6--|
b-|------8--8--8-----------------8-----------8-----|
g-|------------------------------------------------|
d-|------------------------------------------------|
a-|------------------------------------------------|
e-|------------------------------------------------|
         *  *  *     *  *  *                 *  *
   s  s  s  s  s  r  s  s  s  s  s  r  s  s  s  s

   4/4                              
e-|10----10-10-10>6--------9>-6-----6--10>6-----6--|
b-|------------------8-----------8-----------8-----|
g-|------------------------------------------------|
d-|------------------------------------------------|
a-|------------------------------------------------|
e-|------------------------------------------------|
         *  *                    *           * 
   s  r  s  s  s  s  s  r  s  s  s  s  s  s  s  s

   4/4                              
e-|10>6--------------10-10-10>6--------9->6-----6--|
b-|------8--8--8-----------------8-----------8-----|
g-|------------------------------------------------|
d-|------------------------------------------------|
a-|------------------------------------------------|
e-|------------------------------------------------|
         *  *  *     *  *  *                 *  *
   s  s  s  s  s  r  s  s  s  s  s  r  s  s  s  s

   4/4                              
e-|11>8-----8--------------------------------------|
b-|------10----10>7-----7--------------------------|
g-|------------------8-----8>-5-----5--------------|
d-|------------------------------7-----7>-4-----4--|
a-|------------------------------------------6-----|
e-|------------------------------------------------|
         *  *        *   *       *  *        *  *
   s  s  s  s  s  s  s  s  s  s  s  s  s  s  s  s

   4/4                              4/4
e-|--------------------------------|--------------------------------|
b-|--------------------------------|--------------------------------|
g-|--------------------------------|--------------------------------|
d-|--------------------------------|--------------------------------| X2
a-|--------------------------------|--------------------------------|
e-|0-0-0-0-0---0-0-0-0-0---0-0-0-0-|0---0-0-0-0-0---0-0-0-0-0-0-0-0-|
   * * * * *   * * * * *   * * * *  *   * * * * *   * * * * * * * *
   s s s s s r s s s s s r s s s s  s r s s s s s r s s s s s s s s

   4/4                              
e-|------------------------------------------------|
b-|------------------------------------------------|
g-|------------------------------------------------|
d-|---------------10----------------------13-9--10-|
a-|------10-14-13----13----------14-10-11----------|
e-|12-14----------------14-11-12-------------------|
   *  *  *  *  *     *  *  *  *  *  *  *  *  *  *
   s  s  s  s  s  s  s  s  s  s  s  s  s  s  s  s

   4/4                              
e-|------------------------------------------------|
b-|---------8-----------12-------13>17-------------|
g-|12----12----11----------11/15----------14-17/20-|
d-|---------------12-9-----------------15----------|
a-|------------------------------------------------|
e-|------------------------------------------------|
   e     s  s  s  s  s  s  s  s  s  s  s  s  s  s

   4/4                              
e-|------------------------------------------------|
b-|---------------------------------------13-------|
g-|16----------------15-17-16----------16----16----|
d-|---19-17-16-17-19-------------14>18----------18-|
a-|------------------------------------------------|
e-|------------------------------------------------|
   s  s  s  s  s  s  s  s  e     s  s  s  s  s  s

   4/4                              
e-|------------------------------------------------|
b-|---17-16-15-13/12-------------------------------|
g-|------------------15-14-13-12/9--9>-13>9--------|
d-|14----------------------------------------10----|
a-|---------------------------------------------11-|
e-|------------------------------------------------|
   s  s  s  s  s  s  s  s  s  s  s  s  s  s  s  s

   4/4                              
e-|------------------------------------------------|
b-|------------------------------------------------|
g-|------------------------------------------------|
d-|12>8-----------------------------------------10-|
a-|------9-----------7-----------------------11----|
e-|---------10----------11-10-9--8-----8>-12-------|
   s  s  s  s  r  r  s  s  s  s  s  r  s  s  s  s
                        *  *  *  *

   4/4                              
e-|------------------------------------------------|
b-|---------------------------------------------15-|
g-|---------------------13-------13-17-------17----|
d-|------10-14-------14-------14-------14>18-------|
a-|---11-------11>15-------15----------------------|
e-|12----------------------------------------------|
   *  *  *                 *  *  *
   s  s  s  s  s  s  s  s  s  s  s  s  s  s  s  s

   4/4                              
e-|------------17----------------15----------------|
b-|19>15----15-------17>13----13-------15>11----11-|
g-|------17----------------16----------------14----|
d-|------------------------------------------------|
a-|------------------------------------------------|
e-|------------------------------------------------|
   s  s  s  s  s  r  s  s  s  s  s  r  s  s  s  s  

   4/4                              
e-|14----------------11----11>7-----------------11-|
b-|------12>8-----8--------------8-----------8-----|
g-|------------11-------------------9--8/-9--------|
d-|------------------------------------------------|
a-|------------------------------------------------|
e-|------------------------------------------------|
   s  r  s  s  s  s  s  r  s  s  s  s  s  s  s  s

          This is played at the same time as the next bar
   4/4                              4/4
e-|14b[15]~~~~---------------------(15)~~~~-------------------------|
b-|--------------------------------|--------------------------------|
g-|-I usually don't hold this note-|--------------------------------|
d-|-for two bars and will come in--|--------------------------------| 
a-|--------on the last power-------|--------------------------------|
e-|--------chord of this bar-------|--------------------------------|
   w                                w

   4/4                              4/4
e-|--------------------------------|--------------------------------|
b-|--------------------------------|----------------3-/-5-----------|
g-|--------------------7-----------|----------------2-/-4-----------|
d-|--------4-/-5--(5)----------5---(5)------4---5---------------2---|
a-|2---------------------------3---(3)--3-------------------0---0---|
e-|0-------------------------------|--------------------------------|
   =       =   =   =   =                *   *   *           *
   q       e   e   e   q       e    e   e   e   e   e   e   e   e

   4/4                              4/4
e-|--------------------------------|--------------------------------|
b-|--------------------------------|--------------------------------|
g-|--------------------------------|--------------------------------|
d-(0)--------------------------4---(4)----------------------7-------|
a-(2)------0---0---0---0---0---2---(2)----------5--(5)------5-------|
e-|--------------------------------|--------0---3--(3)--0-----------|
           *   *   *   *   *                *           *
   q       e   e   e   e   e   e    q       e   e   e   e   q

   4/4                              4/4
e-|--------------------------------|--------------------------------|
b-|--------------------------------|----------------3-/-5-----------|
g-|--------------------7-----------|----------------2-/-4-----------|
d-|--------4-/-5--(5)----------5---(5)------4---5---------------2---|
a-|2---------------------------3---(3)--3-------------------0---0---|
e-|0-------------------------------|--------------------------------|
   =       =   =   =   =                *   *   *           *
   q       e   e   e   q       e    e   e   e   e   e   e   e   e

   4/4                              4/4
e-|--------------------------------|--------------------------------|
b-|--------------------------------|--------------------------------|
g-|--------------------------------|--------------------------------|
d-(0)--------------------------4---(4)----------5--(5)--4-/-7-------|
a-(2)------0---0---0---0---0---2---(2)----------3--(3)--2-/-5-------|
e-|--------------------------------|--------0-----------------------|
           *   *   *   *   *                *
   q       e   e   e   e   e   e    q       e   e   e   e   q

   4/4                              4/4
e-|--------------------------------|--------------------------------|
b-|--------------------------------|----------------3-/-5-----------|
g-|--------------------7-----------|----------------2-/-4-----------|
d-|--------4-/-5--(5)----------5---(5)------4---5---------------2---|
a-|2---------------------------3---(3)--3-------------------0---0---|
e-|0-------------------------------|--------------------------------|
   =       =   =   =   =                *   *   *           *
   q       e   e   e   q       e    e   e   e   e   e   e   e   e

   4/4                              4/4
e-|--------------------------------|--------------------------------|
b-|--------------------------------|--------------------------------|
g-|--------------------------------|--------------------------------|
d-(0)--------------------------4---(4)----------------------7-------|
a-(2)------0---0---0---0---0---2---(2)----------5--(5)------5-------|
e-|--------------------------------|--------0---3--(3)--0-----------|
           *   *   *   *   *                *           *
   q       e   e   e   e   e   e    q       e   e   e   e   q

   4/4                              4/4
e-|--------------------------------|--------------------------------|
b-|--------------------------------|----------------3-/-5-----------|
g-|--------------------7-----------|----------------2-/-4-----------|
d-|--------4-/-5--(5)----------5---(5)------4---5---------------2---|
a-|2---------------------------3---(3)--3-------------------0---0---|
e-|0-------------------------------|--------------------------------|
   =       =   =   =   =                *   *   *           *
   q       e   e   e   q       e    e   e   e   e   e   e   e   e

   4/4                              4/4
e-|--------------------------------|--------------------------------|
b-|--------------------------------|--------------------------------|
g-|--------------------------------|--------------------------------|
d-(0)--------------------------4---(4)------------------------------|
a-(2)------0---0---0---0---0---2---(2)----------3-3-3-3-2-2-5-5-5-5-|
e-|--------------------------------|--------0-----------------------|
           *   *   *   *   *                *
   q       e   e   e   e   e   e    q       e   s s s s s s s s s s 


   Apparently the third time this is played the two 9's in second bar
   aren't palm muted, I don't really hear much of a difference though.
    4/4                              4/4
e-|--------------------------------|--------------------------------|
b-|--------------------------------|--------------------------------|
g-|--------------------------------|--------------------------------|
d-|9>5---------9-9-9>5-----8>5---5-|9---9-9-9>5-----8>5---5-10>5--5-| X3
a-|----7-7-7-----------7-------7---|------------7-------7-------7---|
e-|--------------------------------|--------------------------------|
       * * *   * *     *       *        * *             *       *
   s s s s s r s s s s s r s s s s  s r s s s s s r s s s s s s s s

   4/4                              4/4
e-|--------------------------------|--------------------------------|
b-|--------------------------------|--------------------------------|
g-|--------------------------------|--------------------------------|
d-|--------------------------------|--------------------------------|
a-|--------------------------------|--------------------------------|
e-|0-0-0-0-0---0-0-0-0-0---0-0-0-0-|0-------------------------------|
   * * * * *   * * * * *   * * * *  *
   s s s s s r s s s s s r s s s s  s r r r r r r r r r r r r r r r 

comments
We did not receive enough feedback on this tab! Please rate:
print report bad tab
1 2 3 4 5
I want to post or [tab]
guest
You may want to rate the tab now too:
select rating
Please do not post tabs as comments. Select "correction" instead!