Oops, an error
Loading. Please wait.

Chiron Tab

ver2
ver2

Intro

Whole song

More versions @911Tabs.com
15,279 views 6 this week
11 commentsread comments
1 2 3 4 5
worth learning
x 5
Autoscroll
+/-
esc
set tempo
stop
Contributor
WARNING: You are trying to view
                                    content from Ultimate-Guitar.com
                                    in an unauthorized application,
                                    which is prohibited.

                                    Please use an official Ultimate
                                    Guitar Tabs application for iPhone,
                                    iPad or Android to access legitimate
                                    chords, guitar, bass, and drum tabs
                                    from Ultimate-Guitar.com database.

                                    Type "ultimate guitar tabs" in Apple
                                    App Store's or Android Market's
                                    search to find the application.
-------------------------------------------------------------------------------
                             Chiron by All That Remains
-------------------------------------------------------------------------------
Tabbed by: Ryan Kane.

Yo Yo YO!
So, no one has tabbed this song out, so I took the liberty in doing so.
Wasn’t that bad.
Give it a shot kiddos.
Shoot me a comment on this page, or email me about questions or comments.
Thanks :D
Email:PapaSeed52290@yahoo.com

Tuning:DGCFAD (Full Step Down, NOT Drop C)

Intro. (played Twice)

d|----------------------------------------------/11-10---------------------------|
A|------------------------11~-11-9p8h9---9-11-12-------12-11-9-------------------|
F|--8~-8-10h11p10(slowly)--------------------------------------11-10-------------|
C|-------------------------------------------------------------------------------|
G|-------------------------------------------------------------------------------|
D|-------------------------------------------------------------------------------|

Verse:
d|-------------------------------------------------------------------------------|
A|-------------------------------------------------------------------------------|
F|-----------------------------------------------------8-------------------------|
C|------------------------0-8-0-9-0-8-0-6-0-5--9/8-0-9---9-8-------9-------8-----|
G|-6-9-7----------------6----------------------7/6-----------------7-------6-----|
D|0-0----000-000-000-000------------------------------------000000---7-5-3--7-5-3|
   . .   ... ... ... ... . . . . . . . . . .       . . . . .        . . .   . . .

d|-------------------------------------------------------------------------------|
A|-------------------------------------------------------------------------------|
F|---------------------------------------------------8~9~8~9~--------------------|
C|--------------------------0-8-0-9-0-8-0-6-0-5--9/8-x-x-x-x--9------8-----------|
G|--6-9-7-----------------6----------------------7/6-6~6~6~6~-7------6-----------|
D|-0-0----000-000-000-000---------------------------------------7-5-3---7-5-3----|
   . .    ... ... ... ...  . . . . . . . . . .                  . . .   . . .


Chorus. (This part is pretty fast, but all picked and palm muted
(‘cept for 2nd string)
If your confused about this part, the easiest thing I can tell you
Is to Youtube a video of someone playing it on Rock Band..

d|------------------|--------------------|-------------------|--------------------------------|
A|-4------4-6-4-----|-----------4--------|--------------4----|-----4--------------------------|
F|---3--3-------3(x2|-6-3---3-6---6-3(x2)|--3-4-3---3-4--(x2)|---3---3--3---3---3---3-3-3-----|
C|------------------|--------------------|-------------------|-6------6---4---3---1-----------|
G|-----6------------|-----6--------------|--------6----------|--------------------------------|
D|------------------|--------------------|-------------------|--------------------------------|
    . . .      . . . . . .     . . . . . . . .   . .   . . . . . . . . . . .

Post Chorus (scratch the note directly before each note)
d|-------------------------------------------------------------------------------|
A|-x11--x10--x9--x11-x10-x9--x11--x10--x9--x11-x10-x11--x13--x11—x10--x13-x11-x13|
F|-------------------------------------------------------------------------------|
C|-------------------------------------------------------------------------------|
G|-------------------------------------------------------------------------------|
D|-------------------------------------------------------------------------------|

d|-------------------------------------------------------------------------------|
A|-x15-x13-x11-x10-x9/-----------------------------------------------------------|
F|-------------------------------------------------------------------------------|
C|-------------------------------------------------------------------------------|
G|-------------------------------------------------------------------------------|
D|-------------------------------------------------------------------------------|

Repeat Verse Again. Verse:
d|-------------------------------------------------------------------------------|
A|-------------------------------------------------------------------------------|
F|-----------------------------------------------------8-------------------------|
C|------------------------0-8-0-9-0-8-0-6-0-5--9/8-0-9---9-8-------9-------8-----|
G|-6-9-7----------------6----------------------7/6-----------------7-------6-----|
D|0-0----000-000-000-000------------------------------------000000---7-5-3--7-5-3|
   . .   ... ... ... ... . . . . . . . . . .       . . . . .        . . .   . . .

d|-------------------------------------------------------------------------------|
A|-------------------------------------------------------------------------------|
F|---------------------------------------------------8~9~8~9~--------------------|
C|--------------------------0-8-0-9-0-8-0-6-0-5--9/8-x-x-x-x--9------8-----------|
G|--6-9-7-----------------6----------------------7/6-6~6~6~6~-7------6-----------|
D|-0-0----000-000-000-000---------------------------------------7-5-3---7-5-3----|
   . .    ... ... ... ...  . . . . . . . . . .                  . . .   . . .

Chorus 2:

d|------------------|--------------------|-------------------|--------------------------------|
A|-4------4-6-4-----|-----------4--------|--------------4----|-----4--------------------------|
F|---3--3-------3(x2|-6-3---3-6---6-3(x2)|--3-4-3---3-4--(x2)|---3---3--3---3---3---3-3-3-----|
C|------------------|--------------------|-------------------|-6------6---4---3---1-----------|
G|-----6------------|-----6--------------|--------6----------|--------------------------------|
D|------------------|--------------------|-------------------|--------------------------------|
    . . .      . . . . . .     . . . . . . . .   . .   . . . . . . . . . . .

Post Chorus (scratch the note directly before each note)
d|-------------------------------------------------------------------------------|
A|-x11--x10--x9--x11-x10-x9--x11--x10--x9--x11-x10-x11--x13--x11—x10--x13-x11-x13|
F|-------------------------------------------------------------------------------|
C|-------------------------------------------------------------------------------|
G|-------------------------------------------------------------------------------|
D|-------------------------------------------------------------------------------|

d|-------------------------------------------------------------------------------|
A|-x15-x13-x11-x10-x9/-----------------------------------------------------------|
F|-------------------------------------------------------------------------------|
C|-------------------------------------------------------------------------------|
G|-------------------------------------------------------------------------------|
D|-------------------------------------------------------------------------------|


Acoustic/Clean Breakdown (repeat, three times I believe) Guitar One.
d|--------6~---------6~-----------6~---6----6------------------------------------|
A|--------6~---------6~-----------6~---6----6------------------------------------|
F|-----6--8~-----6---8~------6----8~---8----8------------------------------------|
C|--------8~---------8~-----------8~---8----8------------------------------------|
G|---9--9-6~---9---9-6~---9----9--6~---6----6------------------------------------|
D|-4------6~-6-------6~-7---------6~-4/6--6-6------------------------------------|

Acoustic Breakdown Guitar Two, Comes in on the second time. Listen for it. (x2)
d|------------------------/-7-6-4-----6~~~---------------------------------------|
A|-6-7-9-6~~~--6-7-8------/-7-----7-6--------------------------------------------|
F|-------------------8~~~--------------------------------------------------------|
C|-------------------------------------------------------------------------------|
G|-------------------------------------------------------------------------------|
D|-------------------------------------------------------------------------------|

Distorted Re-entry(x2)
d|-------------------------------------------------------------------------------|
A|-------------------------------------------------------------------------------|
F|-8~--------9~---------8~-------------------------------------------------------|
C|-8~--------9~---------8~-9-8-6---6--------------9------------9-8---------------|
G|-6~-6-8-9--6~-8-9-11--6~-------9---9-8-6--6-8-9---9-8-6--6-8-----9-8-----------|
D|-------------------------------------------------------------------------------|
      . . .    .  .  .

Solo!!!! Okay, so the entire like, beginning portion blows my mind. I have no idea, I 
even understand what is going on.
So approx, 2:56 the slow part of the solo comes in, that is as follows.
Sorry about the rest of the solo.
Comment me and tell me if you have it, or have ideas.
d|-14~--14-16-18-13~--13-14-16^-16p14p13/11--12-11-9-----------------------------|
A|---------------------------------------------------12-11-9---------12----------|
F|-----------------------------------------------------------8~-10-11--11-10-8---|
C|-------------------------------------------------------------------------------|
G|-------------------------------------------------------------------------------|
D|-------------------------------------------------------------------------------|

D|---------------------------------------------------/11-10----------------------|
A|------11-9---------------------11~—11-9p8h9-9-11-12----------------------------|
F|10-11------11-10—8~-8-10h11h10-------------------------------------------------|
C|-------------------------------------------------------------------------------|
G|-------------------------------------------------------------------------------|
D|-------------------------------------------------------------------------------|

d|-----------------9-11-12------------------12-14-15/16^-------------------------|
A|---------9-11-12-----------------12-14-15--------------------------------------|
F|-9-11-12----------------12-14-15-----------------------------------------------|
C|-------------------------------------------------------------------------------|
G|-------------------------------------------------------------------------------|
D|-------------------------------------------------------------------------------|

Then comes the chorus.

d|-------------------------------------------------------------------------------|
A|-4------4-6-4--------------4------------------4-----4--------------------------|
F|---3--3-------3--6-3---3-6---6-3--3-4-3---3-4-----3---3--3---3---3---3-3-3-----|
C|------------------------------------------------6------6---4---3---1-----------|
G|-----6---------------6------------------6--------------------------------------|
D|-------------------------------------------------------------------------------|
    . . .      . . . . . .     . . . . . . . .   . .   . . . . . . . . . . .

Post Chorus (scratch the note directly before each note)
d|-------------------------------------------------------------------------------|
A|-x11--x10--x9--x11-x10-x9--x11--x10--x9--x11-x10-x11--x13--x11—x10--x13-x11-x13|
F|-------------------------------------------------------------------------------|
C|-------------------------------------------------------------------------------|
G|-------------------------------------------------------------------------------|
D|-------------------------------------------------------------------------------|

d|-------------------------------------------------------------------------------|
A|-x15-x13-x11-x10-x9/-----------------------------------------------------------|
F|-------------------------------------------------------------------------------|
C|-------------------------------------------------------------------------------|
G|-------------------------------------------------------------------------------|
D|-------------------------------------------------------------------------------|

The Exit.
D|-------------------------------------------------------------------------------|
A|-------------------------------------------------------------------------------|
F|-------------------------------------------------------------------------------|
C|----------------------------8-6-4---8~~----------------------------------------|
G|--6~~-8-9-5~~--8-9-2~~--8-9-------8-6~~----------------------------------------|
D|-------------------------------------------------------------------------------|


| /  slide up
| \  slide down
| h  hammer-on
| p  pull-off
| ~  vibrato
| +  harmonic
| x  Mute note
===============================================================================
11 comments total. Showing first comments.
0 reply
6sic6_blank wrote on November 21 2008, 05:44 pm

Looks pretty solid to me! Good job.

0 reply
IFailedEnglish wrote on November 21 2008, 09:27 pm

im sorry, but this is pretty bad. there's a lot of mistakes in it.

0 reply
Papaseed52290 wrote on November 22 2008, 02:41 am

Ok, so for the chorus, there is a part i forgot to mention.
they do the chorus, repeated.
So the portion that says

Chorus 2:
d|-------------------------------------------------------------------------------|
A|-4------4-6-4--------------4------------------4-----4--------------------------|
F|---3--3-------3--6-3---3-6---6-3--3-4-3---3-4-----3---3--3---3---3---3-3-3-----|
C|------------------------------------------------6------6---4---3---1-----------|
G|-----6---------------6------------------6--------------------------------------|
D|-------------------------------------------------------------------------------|

It should be mentioned as

Chorus 2:
d|------------------|--------------------|-------------------|--------------------------------|
A|-4------4-6-4-----|-----------4--------|--------------4----|-----4--------------------------|
F|---3--3-------3(x2|-6-3---3-6---6-3(x2)|--3-4-3---3-4--(x2)|---3---3--3---3---3---3-3-3-----|
C|------------------|--------------------|-------------------|-6------6---4---3---1-----------|
G|-----6------------|-----6--------------|--------6----------|--------------------------------|
D|------------------|--------------------|-------------------|--------------------------------|

I'm uploading my cover of the song, so it should be easier for you to watch and see what i mean, i'll post the URL once it uploads thanks.

And I'm sorry that you feel that way about my tab sir,
But i think i did a rather good job.
And by the looks of it you failed English.
So, we both have something we need to work harder at.
Thumbs up Pal.

I want to post or [tab]
guest
You may want to rate the tab now too:
select rating
Please do not post tabs as comments. Select "correction" instead!