Oops, an error
Loading. Please wait.

Chiron Tab

ver3
ver3

Intro

Whole song

More versions @911Tabs.com
43,910 views 51 this week
4 commentsread comments
1 2 3 4 5
accurate
x 11
Autoscroll
+/-
esc
set tempo
stop
Contributor
WARNING: You are trying to view
                                    content from Ultimate-Guitar.com
                                    in an unauthorized application,
                                    which is prohibited.

                                    Please use an official Ultimate
                                    Guitar Tabs application for iPhone,
                                    iPad or Android to access legitimate
                                    chords, guitar, bass, and drum tabs
                                    from Ultimate-Guitar.com database.

                                    Type "ultimate guitar tabs" in Apple
                                    App Store's or Android Market's
                                    search to find the application.
There are two guitar parts, the top is always lead, and the is for rhythm
and harmony. The two parts are connected on the left hand side side (kind of
like a grand
staff.)
the rhythm parts aren't accurate for time, I just put them in the area they
show up.


-------------------------------------------------------------------------------
                             Chiron - All That Remains
-------------------------------------------------------------------------------
Tabbed by: cleptobismal
Email: cleptobismal@hotmail.com

Tuning:  Sorry, it's not Drop D, it's Db Standard

Db-Gb-B-E-Ab-Db

Intro:


|----------------------------------------------/12-11~----------------------|
|-----------------/12-12-12-10-8-10~-10-12-13~---------/13-12-10------------|
|--/9~-9-11b12r11------------------------------------------------12-11~-----|
|---------------------------------------------------------------------------|
|---------------------------------------------------------------------------|
|---------------------------------------------------------------------------|
|
|---------------------------------------------------------------------------|
|---------------------------------------------------------------------------|
|---------------------------------------------------------------------------|
|--2----------4-------4----------2--------2-----2--4-------9----------------|
|--2----------2-------2----------0----0-0-0-----0--2-------6----------------|
|--0---0-3-0----------------------------------------------------------------|

|-----------------------------------------------/12--11~--------------------|
|--/8~-8-10b12r10-/12-10b12r10-8-10~-10-12-13~------------/13-12-10---------|
|-------------------------------------------------------------------12-11~--|
|---------------------------------------------------------------------------|
|---------------------------------------------------------------------------|
|---------------------------------------------------------------------------|
|
|---------------------------------------------------------------------------|
|---------------------------------------------------------------------------|
|--/9~-9-11b12r12-/8-----------------------9~--11b12-11~--/9--8--9--9--8~---|
|---------------------10b12r10-9-10~-10-12----------------------------------|
|---------------------------------------------------------------------------|
|---------------------------------------------------------------------------|

Verse:

|---------------------------------------------------------------------------|
|---------------------------------------------------------------------------|
|---------------------------------------------------------------------------|
|-------------------------------------------9---10---9---7------------------|
|--7-----10-----9-7-------------------6------------------------10p9---------|
|----000----(0)-----0-000-000-000-000---0-0---0----0---0---0-0------0-0-----|
|
|---------------------------------------------------------------------------|
|---------------------------------------------------------------------------|
|---------------------------------------------------------------------------|
|---------------------------------------------------------------------------|
|---------------------------------------------------------------------------|
|---------------------------------------------------------------------------|

|---------------------------------------------------------------------------|
|---------------------------------------------------------------------------|
|---------------------------------------------------------------------------|
|--------10---9p7----------------10--10------9------------------------------|
|--------------------------------8---8--7----6------------------------------|
|--8-888----8-----8-888---8-8-8-----------8--7---7-3-2----------------------|
|
|---------------------------------------------------------------------------|
|---------------------------------------------------------------------------|
|--------9----7p5-----------------------------------------------------------|
|--7-777----------7-777----------5-----------1------------------------------|
|-------------------------3-3-3--3-----------2---2--------------------------|
|--------------------------------------------------3-2----------------------|

|---------------------------------------------------------------------------|
|---------------------------------------------------------------------------|
|---------------------------------------------------------------------------|
|-------------------------------------------9---10---9---7------------------|
|--------10-----9p7-------------------6------------------------10p9---------|
|--0-000----(0)-----0-000-000-000-000---0-0---0----0---0---0-0--------------|
|
|---------------------------------------------------------------------------|
|-------------------------------------------4---5----4----------------------|
|--0-000-4------2p0-0-000-000-000-000--------------------5------4\2---------|
|-------------------------------------4-444---4----4---4---4-4--------------|
|---------------------------------------------------------------------------|
|---------------------------------------------------------------------------|

|---------------------------------------------------------------------------|
|---------------------------------------------------------------------------|
|--2~-----------------------------------------------------------------------|
|--2~--10----------9--------------------------------------------------------|
|--0~--8---8--7----6--------------------------------------------------------|
|---------------8--7---7-3-2------------------------------------------------|
|
|---------------------------------------------------------------------------|
|---------------------------------------------------------------------------|
|--2~-----------------------------------------------------------------------|
|--2~--5-----------1--------------------------------------------------------|
|--0~--3-----------2---2----------------------------------------------------|
|------------------------3-2------------------------------------------------|

Chorus:

|---------------------------------------------------------------------------|
|---------------------------------------------------------------------------|
|---------------------------------------------------------------------------|
|--14-9-14-9-12-9-14-9-12-9-14-9-12-14-12-9---------------------------------|
|---------------------------------------------------------------------------|
|---------------------------------------------------------------------------|
|
|---------------------------------------------------------------------------|
|---------------------------------------------------------------------------|
|-----------------------------------------4---------------------------------|
|-----------------------------------------4---------------------------------|
|-----------------------------------------2---------------------------------|
|--000-0-0-0------------------0-0-0-0-0-------------------------------------|

|---------------------------------------------------------------------------|
|---------------------------------------------------------------------------|
|-------------------------12------------------------------------------------|
|--10-9-10-9-14-9-10-9-10----10-9-10-9----9---------------------------------|
|--------------------------------------12-----------------------------------|
|---------------------------------------------------------------------------|
|
|---------------------------------------------------------------------------|
|---------------------------------------------------------------------------|
|---------------------------------------5\4---------------------------------|
|---------------------------------------------------------------------------|
|---------------------------------------3\2---------------------------------|
|--000-0-0-0------------------0-0-0-----------------------------------------|

|---------------------------------------------------------------------------|
|---------------------------------------------------------------------------|
|------------9------------------9-------------------------------------------|
|-----9----9---9----9----9----9---9----9------------------------------------|
|--12---12-------12---12---12-------12--------------------------------------|
|---------------------------------------------------------------------------|
|
|---------------------------------------------------------------------------|
|---------------------------------------------------------------------------|
|---------------------------------------------------------------------------|
|-------------------------------------2~------------------------------------|
|--000-0-0-0--------------------0-0-0-0~------------------------------------|
|---------------------------------------------------------------------------|

|---------------------------------------------------------------------------|
|---------------------------------------------------------------------------|
|---------------------------------------------------------------------------|
|----9----9---9----9-----------9--------------------------------------------|
|--9--------9-----------9----9---9----9-------------------------------------|
|------11-------11---11---11-------11---------------------------------------|
|
|---------------------------------------------------------------------------|
|---------------------------------------------------------------------------|
|---------------------------------------------------------------------------|
|---------------------------------------------------------------------------|
|--222----222----222----222----2--2---2~------------------------------------|
|---------------------------------------------------------------------------|

|---------------------------------------------------------------------------|
|---------------------------------------------------------------------------|
|---------------------------------------------------------------------------|
|--14-9-14-9-12-9-14-9-12-9-14-9-12-14-12-9---------------------------------|
|---------------------------------------------------------------------------|
|---------------------------------------------------------------------------|
|
|---------------------------------------------------------------------------|
|---------------------------------------------------------------------------|
|-----------------------------------------4---------------------------------|
|-----------------------------------------4---------------------------------|
|-----------------------------------------2---------------------------------|
|--000-0-0-0------------------0-0-0-0-0-------------------------------------|

|---------------------------------------------------------------------------|
|---------------------------------------------------------------------------|
|-------------------------12------------------------------------------------|
|--10-9-10-9-14-9-10-9-10----10-9-10-9----9---------------------------------|
|--------------------------------------12-----------------------------------|
|---------------------------------------------------------------------------|
|
|---------------------------------------------------------------------------|
|---------------------------------------------------------------------------|
|---------------------------------------5\4---------------------------------|
|---------------------------------------------------------------------------|
|---------------------------------------3\2---------------------------------|
|--000-0-0-0------------------0-0-0-----------------------------------------|

|---------------------------------------------------------------------------|
|---------------------------------------------------------------------------|
|------------9------------------9-------------------------------------------|
|-----9----9---9----9----9----9---9----9------------------------------------|
|--12---12-------12---12---12-------12--------------------------------------|
|---------------------------------------------------------------------------|
|
|---------------------------------------------------------------------------|
|---------------------------------------------------------------------------|
|---------------------------------------------------------------------------|
|-------------------------------------2~------------------------------------|
|--000-0-0-0--------------------0-0-0-0~------------------------------------|
|---------------------------------------------------------------------------|

|---------------------------------------------------------------------------|
|---------------------------------------------------------------------------|
|---------------------------------------------------------------------------|
|----9----9---9----9-----------9--------------------------------------------|
|--9--------9-----------9----9---9----9-------------------------------------|
|------11-------11---11---11-------11---------------------------------------|
|
|---------------------------------------------------------------------------|
|---------------------------------------------------------------------------|
|---------------------------------------------------------------------------|
|------------------------------------4~-------------------------------------|
|--222-2-2-2---------------2-2-2-----2~-------------------------------------|
|---------------------------------------------------------------------------|

Verse Bridge 1:

|--15-0-0-14-0-0-12-0-0-15-0-0-14-0-12-0-15-0-0-14-0-0-12-0-0-15-0-0-14-0-12|
|---------------------------------------------------------------------------|
|---------------------------------------------------------------------------|
|---------------------------------------------------------------------------|
|---------------------------------------------------------------------------|
|---------------------------------------------------------------------------|
|
|---------------------------------------------------------------------------|
|---------------------------------------------------------------------------|
|---------------------------------------------------------------------------|
|--4-4---------------7-7---------------4-4------------------4/5------5/7----|
|--2-2--0-0-0-0-0-0--5-5---0-0-0-0-0-0-2-2---0-0-0-0-0-0----2/3--0-0-3/5-0-0|
|---------------------------------------------------------------------------|

|--17-0-0-15-0-0-14-0-0-17-0-0-15-0-17-0-19-0-0-17-0-0-15-0-14-0-0-15-0-0-17|
|---------------------------------------------------------------------------|
|---------------------------------------------------------------------------|
|---------------------------------------------------------------------------|
|---------------------------------------------------------------------------|
|---------------------------------------------------------------------------|
|
|---------------------------------------------------------------------------|
|---------------------------------------------------------------------------|
|---------------------------------------------------------------------------|
|-2---------------------2------------------4--------4--------4----------4~--|
|-0---0-0-0-0-0-0-------0---0-0-0-0-0-0----2-2-2-2--2-2-2-2--2-2-2-2----2~--|
|---------------------------------------------------------------------------|

Play Verse and Chorus again (one time each)

Verse Bridge 2:

|--15-0-0-14-0-0-12-0-0-15-0-0-14-0-12-0-15-0-0-14-0-0-12-0-0-15-0-0-14-0-12|
|---------------------------------------------------------------------------|
|---------------------------------------------------------------------------|
|---------------------------------------------------------------------------|
|---------------------------------------------------------------------------|
|---------------------------------------------------------------------------|
|
|---------------------------------------------------------------------------|
|---------------------------------------------------------------------------|
|---------------------------------------------------------------------------|
|--4-4---------------7-7---------------4-4------------------4/5------5/7----|
|--2-2--0-0-0-0-0-0--5-5---0-0-0-0-0-0-2-2---0-0-0-0-0-0----2/3--0-0-3/5-0-0|
|---------------------------------------------------------------------------|

|--17-0-0-15-0-0-14-0-0-17-0-0-15-0-17-0-19---------------------------------|
|---------------------------------------------------------------------------|
|---------------------------------------------------------------------------|
|-----------------------------------------------10-----4-----9------9---2~--|
|------------------------------------------------8-----2-----7------6---2~--|
|-----------------------------------------------------------------------0~--|
|
|---------------------------------------------------------------------------|
|---------------------------------------------------------------------------|
|---------------------------------------------------------------------------|
|-2---------------------2-----------------------10-----4-----9------9---2~--|
|-0---0-0-0-0-0-0-------0---0-0-0-0-0-0----------8-----2-----7------6---2~--|
|-----------------------------------------------------------------------0~--|

Acoustic Bridge:

|---------------------------------------------------------------------------|
|---------------------------------------------------------------------------|
|---------------------------------------------------------------------------|
|---------------------------------------------------------------------------|
|---------------------------------------------------------------------------|
|---------------------------------------------------------------------------|
|
|----------0~-------------------0~-------------------0~---------------------|
|------0--------------------0--------------------3-----------------5~-----4~|
|--------0--------------------0--------------------4---------------4~-----4~|
|----------------------------------------------5-------------------2~-----4~|
|----2--------------------2------------------3-------------------0------2---|
|--0--------------------2---------------------------------------------------|

|----------------------------------------------------8-7------7~-----8-7----|
|-------------7-8/10-7~------------7-8/10----------------8/10------------8-7|
|-----------------------------------------9~--------------------------------|
|---------------------------------------------------------------------------|
|---------------------------------------------------------------------------|
|---------------------------------------------------------------------------|
|
|----------0~-------------------0~-------------------0~---------------------|
|------0--------------------0--------------------3-----------------5~-----4~|
|--------0--------------------0--------------------4---------------4~-----4~|
|----------------------------------------------5-------------------2~-----4~|
|----2--------------------2------------------3-------------------0------2---|
|--0--------------------2---------------------------------------------------|

Distortion Bridge:

|---------------------------------------------------------------------------|
|---------------------------------------------------------------------------|
|------------------------9-7-5----------------5~----------------8-----------|
|-----5-7-9-------5-7-5~-------9-7-5------7-9---------------9-5---9---------|
|--7~-------9~--9--------------------9--7--------9-7-6--6-9-----------------|
|---------------------------------------------------------------------------|
|
|---------------------------------------------------------------------------|
|---------------------------------------------------------------------------|
|---------------------------------------------------------------8-----------|
|--5~-5-7-9-7~-----------10-9-7-----------------------------9-5---9---------|
|---------------5-7-9-7~--------10-9-7------------------6-9-----------------|
|--------------------------------------10-8~--------------------------------|

|---------------------------------------------------------------------------|
|---------------------------------------------------------------------------|
|------------------------9-7-5----------------5~----------------8-----------|
|-----5-7-9-------5-7-5~-------9-7-5------7-9---------------9-5---9---------|
|--7~-------9~--9--------------------9--7--------9-7-6--6-9-----------------|
|---------------------------------------------------------------------------|
|
|---------------------------------------------------------------------------|
|---------------------------------------------------------------------------|
|---------------------------------------------------------------8-----------|
|--5~-5-7-9-7~-----------10-9-7-----------------------------9-5---9---------|
|---------------5-7-9-7~--------10-9-7------------------6-9-----------------|
|--------------------------------------10-8~--------------------------------|

=====
Solo
=====

|-----------------------------------------------------14----14-15-14-15-17--|
|--------------------------------------17----17-16-17----17-----------------|
|-----------------14-16----16-14-16-17----17--------------------------------|
|--17-14-17-16-17-------17--------------------------------------------------|
|---------------------------------------------------------------------------|
|---------------------------------------------------------------------------|
|
|---------------------------------------------------------------------------|
|---------------------------------------------------------------------------|
|---------------------------------------------------------------------------|
|---------------------------------------------------------------------------|
|--2------------------2-----------------2--------------2--------------------|
|--0------------------0-----------------0--------------0---------0----------|

|--19p15--------------------15-17---19-17-15-17-15----15--------------------|
|-------17---------16-17-19------------------------19----19-17-19-17-15-----|
|---------16--16-17---------------------------------------------------------|
|-----------17--------------------------------------------------------------|
|---------------------------------------------------------------------------|
|---------------------------------------------------------------------------|
|
|---------------------------------------------------------------------------|
|---------------------------------------------------------------------------|
|---------------------------------------------------------------------------|
|---------------------------------------------------------------------------|
|--7\-----------------------------------------------------------------------|
|----------------0---0---0---0---0---0-----------------0---0---0---0---0----|

|--19-17-15-17-15----15---------------------------15-----17b19r17p15-17~----|
|-----------------19----19-17-19-17-16-17~--17-19----16~--------------------|
|---------------------------------------------------------------------------|
|---------------------------------------------------------------------------|
|---------------------------------------------------------------------------|
|---------------------------------------------------------------------------|
|
|---------------------------------------------------------------------------|
|---------------------------------------------------------------------------|
|---------------------------------------------------------------------------|
|---------------------------------------------------------------------5--4--|
|---------------------------------------------------------------------3--2--|
|-------------------------------8\-0-0-0-0-0-0-0-0-0-0-0-7\-0-0-0-0-0-------|

|--19-17-15-17-15----15-----------------------------------------------------|
|-----------------19----19-17-19-17-13-17-13-12-13-12----12-------16--------|
|-----------------------------------------------------14----14-12----12-11--|
|---------------------------------------------------------------------------|
|---------------------------------------------------------------------------|
|---------------------------------------------------------------------------|
|
|---------------------------------------------------------------------------|
|---------------------------------------------------------------------------|
|---------------------------------------------------------------------------|
|---------------------------------------------------------------------------|
|--7\-----------------------------------------------------------------------|
|----------------0---0---0---0---0---0-----------------0---0---0---0---0----|
|---------------------------------------------------------------------------|

|---------------------------------------------------------------------------|
|--12-11----11--------------------------------------------------------------|
|--------14----14-12-14-12-10-12-10-9-10-9----9---------------9-------------|
|------------------------------------------12---12-10----10-9---12-10-------|
|-----------------------------------------------------12--------------------|
|
|---------------------------------------------------------------------------|
|---------------------------------------------------------------------------|
|---------------------------------------------------------------------------|
|---------------------------------------------------------------------------|
|---------------------------------------------------------------------------|
|-------------------------------8\-0-0-0-0-0-0-0-0-0-0-0--------------------|

|---------------------------------------------------------------------------|
|-------12-10----12/16-13----------13-16b17r16~-----------------------------|
|--12-9-------12----------16-14-16------------------------------------------|
|---------------------------------------------------------------------------|
|---------------------------------------------------------------------------|
|---------------------------------------------------------------------------|
|
|---------------------------------------------------------------------------|
|---------------------------------------------------------------------------|
|---------------------------------------------------------------------------|
|----------------------------5---4------------------------------------------|
|----------------------------3---2------------------------------------------|
|--0--0--0--0--0------------------------------------------------------------|

|---------------------------------------------------------------------------|
|---------------------------------------------------------------------------|
|-----------9h11h12----------11h12h14----------12h14h16---------------------|
|---------------------------------------------------------------------------|
|--10h12h14---------12h14h15----------14h15h17------------------------------|
|---------------------------------------------------------------------------|
|
|---------------------------------------------------------------------------|
|------------8h10h12----------10h12h13----------12h13h15--------------------|
|---------------------------------------------------------------------------|
|---9h10h12----------10h12h14----------12h14h15-----------------------------|
|---------------------------------------------------------------------------|
|---------------------------------------------------------------------------|

|--/15~--------------15---17---19--14~-------------------------14-15--------|
|---------------------------------------------------------------------------|
|---------------------------------------------------------------------------|
|---------------------------------------------------------------------------|
|---------------------------------------------------------------------------|
|---------------------------------------------------------------------------|
|
|------------------------------------------------11-------------------------|
|----------------17----------------------------12--12--12--12--12-----------|
|--------------16--16--16------------11------11------11------11-------------|
|---------14-17------17--14-16-17-14---13--13------------13------13-9-------|
|-------14-------------------------------14---------------------------------|
|--12-15--------------------------------------------------------------------|

|--17--15b17r15p14----------15-14-12-----------------------12---------------|
|-------------------/17~-------------15-13-12--------13-15------------------|
|---------------------------------------------14-12-----------14-12-11------|
|---------------------------------------------------------------------------|
|---------------------------------------------------------------------------|
|---------------------------------------------------------------------------|
|
|----------------------10---------------------------------------------------|
|----------------------------17-15-13-----------------------13--------------|
|--12-9-------------------------------16-14-12--------14-16-----------------|
|--------10---------12-------------------------16-14----------16-14-13------|
|-----------10---10---------------------------------------------------------|
|--------------8------------------------------------------------------------|

|---------------------------------------------------------------------------|
|--------12-13-12-----------------------------------------------------------|
|--12-14----------14--------------------------------------------------------|
|---------------------------------------------------------------------------|
|---------------------------------------------------------------------------|
|---------------------------------------------------------------------------|
|
|--------10-12-10-----------------------------------------------------------|
|--12-13----------13--------------------------------------------------------|
|---------------------------------------------------------------------------|
|---------------------------------------------------------------------------|
|---------------------------------------------------------------------------|
|---------------------------------------------------------------------------|

|-----------------------------------------------/12--11~--------------------|
|--/8~-8-10b12r10-/12-10b12r10-8-10~-10-12-13~------------------------------|
|---------------------------------------------------------------------------|
|---------------------------------------------------------------------------|
|---------------------------------------------------------------------------|
|---------------------------------------------------------------------------|
|
|---------------------------------------------------------------------------|
|---------------------------------------------------------------------------|
|--/9~-9-11b12r12-/8-----------------------9~--11b12-11~--------------------|
|---------------------10b12r10-9-10~-10-12----------------------------------|
|---------------------------------------------------------------------------|
|---------------------------------------------------------------------------|

|--------------------------------------12-14-15-14-15-17/19~----------------|
|--------------------12-13-15-13-15-17--------------------------------------|
|--12-14-16-14-16-17--------------------------------------------------------|
|---------------------------------------------------------------------------|
|---------------------------------------------------------------------------|
|---------------------------------------------------------------------------|
|
|---------------------------------------8-10-12-10-12-14/15~----------------|
|---------------------8-10-12-10-12-13--------------------------------------|
|---9-11-12-11-12-14--------------------------------------------------------|
|---------------------------------------------------------------------------|
|---------------------------------------------------------------------------|
|---------------------------------------------------------------------------|


Play Verse Bridge 1

Chorus:

|---------------------------------------------------------------------------|
|---------------------------------------------------------------------------|
|---------------------------------------------------------------------------|
|--14-9-14-9-12-9-14-9-12-9-14-9-12-14-12-9---------------------------------|
|---------------------------------------------------------------------------|
|---------------------------------------------------------------------------|
|
|---------------------------------------------------------------------------|
|---------------------------------------------------------------------------|
|-----------------------------------------4---------------------------------|
|-----------------------------------------4---------------------------------|
|-----------------------------------------2---------------------------------|
|--000-0-0-0------------------0-0-0-0-0-------------------------------------|

|---------------------------------------------------------------------------|
|---------------------------------------------------------------------------|
|-------------------------12------------------------------------------------|
|--10-9-10-9-14-9-10-9-10----10-9-10-9----9---------------------------------|
|--------------------------------------12-----------------------------------|
|---------------------------------------------------------------------------|
|
|---------------------------------------------------------------------------|
|---------------------------------------------------------------------------|
|---------------------------------------5\4---------------------------------|
|---------------------------------------------------------------------------|
|---------------------------------------3\2---------------------------------|
|--000-0-0-0------------------0-0-0-----------------------------------------|

|---------------------------------------------------------------------------|
|---------------------------------------------------------------------------|
|------------9------------------9-------------------------------------------|
|-----9----9---9----9----9----9---9----9------------------------------------|
|--12---12-------12---12---12-------12--------------------------------------|
|---------------------------------------------------------------------------|
|
|---------------------------------------------------------------------------|
|---------------------------------------------------------------------------|
|---------------------------------------------------------------------------|
|-------------------------------------2~------------------------------------|
|--000-0-0-0--------------------0-0-0-0~------------------------------------|
|---------------------------------------------------------------------------|

|---------------------------------------------------------------------------|
|---------------------------------------------------------------------------|
|---------------------------------------------------------------------------|
|----9----9---9----9-----------9--------------------------------------------|
|--9--------9-----------9----9---9----9-------------------------------------|
|------11-------11---11---11-------11---------------------------------------|
|
|---------------------------------------------------------------------------|
|---------------------------------------------------------------------------|
|---------------------------------------------------------------------------|
|---------------------------------------------------------------------------|
|--222----222----222----222----2--2---2~------------------------------------|
|---------------------------------------------------------------------------|

Verse Bridge 1 played in background 4x

Outro: (after Verse Bridge 1 played once through)

|---------------------------------------------------------------------------|
|---------------------------------------------------------------------------|
|---------------------------------------------------------------------------|
|--5~--7-9------5-7----------5-/9-7-5---------------------------------------|
|-----------/9-------/7---9-----------9-------------------------------------|
|---------------------------------------------------------------------------|
|
|---------------------------------------------------------------------------|
|---------------------------------------------------------------------------|
|---------------------------------------------------------------------------|
|---------------------------------------------------------------------------|
|---------------------------------------------------------------------------|
|---------------------------------------------------------------------------|

|---------------------------------------------------------------------------|
|---------------------------------------------------------------------------|
|---------------------------------------------------------------------------|
|--5~--7-9------5-7----------5-/9-7-5------2~-------------------------------|
|-----------/9-------/7---9-----------9~---2~-------------------------------|
|------------------------------------------0~-------------------------------|
|
|---------------------------------------------------------------------------|
|---------------------------------------------------------------------------|
|--4~--5-7------4-5--4~------4-/7-5-4------2~-------------------------------|
|-----------/7------------7-----------7~---2~-------------------------------|
|------------------------------------------0~-------------------------------|
|---------------------------------------------------------------------------|

Turn gain on high and let it buzz for about 20 seconds then do a slide down
from a high note on the top string.


  b  bend to
  r  release from bend
| /  slide up
| \  slide down
| h  hammer-on
| p  pull-off
| ~  vibrato
| +  harmonic
| x  Mute note
===============================================================================
comments
print report bad tab
4 comments total. Showing first comments.
+2 reply
Mega-Tallica wrote on February 13 2009, 05:22 pm

You sent me a PM, here's some corrections for you:

---------------------------------------------------------------------
|--------------------------------------------------------------------
|--------------------------------------------------------------------
|-------------------------------------------9---10---9---7-----------
|--7-----10-----9-7-------------------6------------------------10-9-7
|----0-0----(0)-----0-000-000-000-000---7-7---7----7---7---7-7-----7

|--------------------------------------------
|--------------------------------------------
|--------9------------------------------------
|-10---------12-10---------------10--10-10-9-9-------------
|----0-0---0-------0-00000-0-0-0-8---8--8--7-6--9-9-5------------
|--------------------------------------------7--7-7-3----

and the acoustic bridge should go something like this:
|---------0--------0----------0----0-------------
|---------0--------0--------0------0-------------
|-------0--------0--------0--------4-----4--------
|-----9--------9--------4----------2-----1--------
|---7--------6--------2----------0-----2-2---------
|-0-------------------------------------------

There's other parts that need work, but overall you did a nice job.

0 reply
Leonio-man wrote on April 23 2009, 01:48 am

the solo looks hard.

0 reply
[travis] wrote on July 19 2009, 05:10 pm

I'm giving you 5 stars just for getting the solo man. Awesome tab.

I want to post or [tab]
guest
You may want to rate the tab now too:
select rating
Please do not post tabs as comments. Select "correction" instead!