Oops, an error
Loading. Please wait.

Do Not Obey Tab

4,113 views 12 this week
no commentswrite comment
1 2 3 4 5
excellent!
x 5
Autoscroll
+/-
esc
set tempo
stop
Contributor
Difficulty
intermediate
WARNING: You are trying to view
                                    content from Ultimate-Guitar.com
                                    in an unauthorized application,
                                    which is prohibited.

                                    Please use an official Ultimate
                                    Guitar Tabs application for iPhone,
                                    iPad or Android to access legitimate
                                    chords, guitar, bass, and drum tabs
                                    from Ultimate-Guitar.com database.

                                    Type "ultimate guitar tabs" in Apple
                                    App Store's or Android Market's
                                    search to find the application.
                 This is Do Not Obey tab by: All that remains
                  it is played in C sharp Standard tuning
                    Which is C#-F#-B-E-G#-C#,its like
                       Standard but tuned down a
                       Step and a half. Enjoy!
                          rate and comment!
                       
                      
                       

~ - let ring
/ - slide
b - bend

Intro

|------------------------------------------------|
|------------------------------------------------|
|--5-5---7--7------------------------------------|
|--5-5---7--7----------------------4-------------|
|--3-3-3-5--5-----5-2-5-2----------2-----5-------|
|--3-3-3-5--5--0--3-0-3-0---0-0-0-----0--3-------|

|-----------------------------------------------------------------|
|-----------------------------------------------------------------|
|-----------------------------------------------------------------|
|-----5-7-5----------------------4-----------------------9-12-9---|
|-----3-5-3-----5-7-5---2--------2-----5--------10----10----------|
|--0---------0--3-5-3---0-0-0-0-----0--3---0-12----12-------------|


play this and the one under
a few times
|--------------------------|
|--------------------------|
|--------------------------|
|------------4-------------|
|-2----------2-----5-------|
|-0---0-0-0-----0--3-------|

|-----------------------------------------------------------------|
|-----------------------------------------------------------------|
|-----------------------------------------------------------------|
|-----5-7-5----------------------4-----------------------9-12-9---|
|-----3-5-3-----5-7-5---2--------2-----5--------10----10----------|
|--0---------0--3-5-3---0-0-0-0-----0--3---0-12----12-------------|

then...

|----------------------------|
|----------------------------|
|--5-5-----7-7-----7-5-7-9---|
|--5-5-----7-7---------------|
|--3-3--3--5-5-----5-3-5-7---|
|--3-3--3--5-5--0------------|

|-------------------------------------------------|
|-------------------------------------------------|
|-------------------------------------------------|
|-------------------------------------------------|
|-------------------------------------------------|
|--0-0-0-0-0-0-0-0-0-0-0-0-2-3-5-3-2-3------------|

|-------------------------------------------------------|
|-------------------------------------------------------|
|--5-5-5--7-7-------------------------------------------|
|--5-5-5--7-7-------------------------------------------|
|--3-3-3--5-5-----5-2-5-2--2-2-2-2-2-2-2-2-2-2-2-2-2-2--|
|--3-3-3--5-5--0--3-0-3-0--0-0-0-0-0-0-0-0-0-0-0-0-0-0--|

|----------------------------------------------------|
|----------------------------------------------------|
|--5-4----5-4-5--4-4---4--2--4-5-5---7-7-------------|
|--5-4----5-5-5--4-4---4--2--4-5-5---7-7-------------|
|--3-2-2--3-2-3--2-2-2-2--0--2-3-3-3-5-5-----5-2-5---|
|--3-2-0---------2-2-2-2-----2-3-3-3-5-5--0--3-0-3---|

play this and the one under
twice...
|--------------------------|
|--------------------------|
|--------------------------|
|------------4-------------|
|-2----------2-----5-------|
|-0---0-0-0-----0--3-------|

|------------------------------------------------------------|
|------------------------------------------------------------|
|------------------------------------------------------------|
|-----5-7-5----------------------4---------------------------|
|-----3-5-3-----5-7-5---2--------2-----5---------3-5-3-5-----|
|--0---------0--3-5-3---0-0-0-0-----0--3--0-0-0--3-5-3-5-----|

then it changes some
|--------------------------|
|--------------------------|
|--------------------------|
|------------4-------------|
|-2----------2-----5-------|
|-0---0-0-0-----0--3-------|

|-----------------------------------------------------------------|
|-----------------------------------------------------------------|
|-----------------------------------------------------------------|
|-----5-7-5----------------------4-----------------------9-12-9---|
|-----3-5-3-----5-7-5---2--------2-----5--------10----10----------|
|--0---------0--3-5-3---0-0-0-0-----0--3---0-12----12-------------|

then little diff...
|--------------------------|
|--------------------------|
|--------------------------|
|------------4-------------|
|-2----------2-----5-------|
|-0---0-0-0-----0--3-------|

|-----------------------------------------------------------------|
|-----------------------------------------------------------------|
|-----------------------------------------------------------------|
|-----5-7-5----------------------4--------------------------------|
|-----3-5-3-----5-7-5---2--------2-----5--------10----12-10-9-----|
|--0---------0--3-5-3---0-0-0-0-----0--3---0-12----12---------8---|


sweet clean riff

|-----------0------------0------------0--------------------|
|-----0------------0------------0--------------------------|
|--------0------------0------------0-----11-11-11-11--9----|
|--2------------0------------3-----------------------------|
|-----------------------------------------9--9--9--9--7----|
|----------------------------------------------------------|

then...

|----------------------------|
|----------------------------|
|--5-5-----7-7-----7-5-7-9---|
|--5-5-----7-7---------------|
|--3-3--3--5-5-----5-3-5-7---|
|--3-3--3--5-5--0------------|

|-------------------------------------------------|
|-------------------------------------------------|
|-------------------------------------------------|
|-------------------------------------------------|
|-------------------------------------------------|
|--0-0-0-0-0-0-0-0-0-0-0-0-2-3-5-3-2-3------------|

|-------------------------------------------------------|
|-------------------------------------------------------|
|--5-5-5--7-7-------------------------------------------|
|--5-5-5--7-7-------------------------------------------|
|--3-3-3--5-5-----5-2-5-2--2-2-2-2-2-2-2-2-2-2-2-2-2-2--|
|--3-3-3--5-5--0--3-0-3-0--0-0-0-0-0-0-0-0-0-0-0-0-0-0--|

|----------------------------------------------------|
|----------------------------------------------------|
|--5-4----5-4-5--4-4---4--2--4-5-5---7-7-------------|
|--5-4----5-5-5--4-4---4--2--4-5-5---7-7-------------|
|--3-2-2--3-2-3--2-2-2-2--0--2-3-3-3-5-5-----5-2-5---|
|--3-2-0---------2-2-2-2-----2-3-3-3-5-5--0--3-0-3---|

then pre riff 

|--------------------------|
|--------------------------|
|-------------------99999--|
|--------------------------|
|--2--2-2-2-2-2-2---77777--|
|--0--0-0-0-0-0-0----------|

then the best riff

|-------------------------------------------------|
|--8------8------8------10------8-7-----7---------|
|----9------9------9-------9----------------------|
|------9------9------9-------9-------9------------|
|-------------------------------------------------|
|-------------------------------------------------|

|-------------------------------------------------|
|--7------7------7------10------8----7------------|
|----7------7------7-------7-----------7----------|
|------9------9------9-------9-----9--------------|
|-------------------------------------------------|
|-------------------------------------------------|

Breakdown riff

|-----------------------------------------------------|
|-----------------------------------------------------|
|-----------------------------------------------------|
|-----------------------9-----7--77-77-77-77-7--------|
|--2--------------2-----7-----5--55-55-55-55-5--2-5---|
|--0--000-000-000-0--0-----0-----00-00-00-00-0--0-3---|

|---------------------------------------------------------------------|
|---------------------------------------------------------------------|
|---------------------------------------------------------------------|
|-----------------------9-----7--77-77-77-77-7------------------------|
|--2--------------2-----7-----5--55-55-55-55-5--2---------------------|
|--0--000-000-000-0--0-----0-----00-00-00-00-0--0-00-33-55-33-22-00---|

after you play break down
a few times you go on
to the solo riff...

|---------------------------------------12-14-12-----15b---|
|-------------------15-15--------12-15-----------15--------|
|--9-11--12/16--14---------12-14---------------------------|
|----------------------------------------------------------|
|----------------------------------------------------------|
|----------------------------------------------------------|

|--15-14-15-12-15----15------------------------------------|
|-----------------12----13-12-13-13-12-10------------------|
|-----------------------------------------11-12-11---------|
|----------------------------------------------------------|
|----------------------------------------------------------|
|----------------------------------------------------------|

|-------------------------------15-14-15-17/19----17----14----15-12-14--|
|-------------------12----15-12----------------17----12----12-----------|
|----9---11---12-------12-----------------------------------------------|
|--9---9----9----12-----------------------------------------------------|
|-----------------------------------------------------------------------|
|-----------------------------------------------------------------------|

|--15-17b-14-15b-12-----------------------------12-----------------------|
|--------------------9b-9-11b-------------12-15--------------------------|
|---------------------------------------------------14b-14-16b-16-14-12--|
|------------------------------------9-10--------------------------------|
|-------------------------------7-10-------------------------------------|
|------------------------------------------------------------------------|

|-------------------------------------------------------10-12-10---|
|-------------------------------10-12-10-------10-12-13------------|
|-------9-11-12-11-9----9-11-12----------12-11---------------------|
|--9-12--------------12--------------------------------------------|
|------------------------------------------------------------------|
|------------------------------------------------------------------|

|--------------14-15-14-15-17-19-----------|
|--13-12-15-17--------------------17~------|
|------------------------------------------|
|------------------------------------------|
|------------------------------------------|
|------------------------------------------|

then...

|----------------------------|
|----------------------------|
|--5-5-----7-7-----7-5-7-9---|
|--5-5-----7-7---------------|
|--3-3--3--5-5-----5-3-5-7---|
|--3-3--3--5-5--0------------|


|-------------------------------------------------|
|-------------------------------------------------|
|-------------------------------------------------|
|-------------------------------------------------|
|-------------------------------------------------|
|--0-0-0-0-0-0-0-0-0-0-0-0-2-3-5-3-2-3------------|

|-------------------------------------------------------|
|-------------------------------------------------------|
|--5-5-5--7-7-------------------------------------------|
|--5-5-5--7-7-------------------------------------------|
|--3-3-3--5-5-----5-2-5-2--2-2-2-2-2-2-2-2-2-2-2-2-2-2--|
|--3-3-3--5-5--0--3-0-3-0--0-0-0-0-0-0-0-0-0-0-0-0-0-0--|

|----------------------------------------------------|
|----------------------------------------------------|
|--5-4----5-4-5--4-4---4--2--4-5-5---7-7-------------|
|--5-4----5-5-5--4-4---4--2--4-5-5---7-7-------------|
|--3-2-2--3-2-3--2-2-2-2--0--2-3-3-3-5-5-----5-2-5---|
|--3-2-0---------2-2-2-2-----2-3-3-3-5-5--0--3-0-3---|

then this... 

|----------------------------------|
|----------------------------------|
|-------------------999999999------|
|----------------------------------|
|--2--2-2-2-2-2-2---777777777------|
|--0--0-0-0-0-0-0------------------|

|----------------------------------------------|
|----------------------------------------------|
|--12-12-12--12-12-14-12--11-11-9--9-11-12-11--|
|----------------------------------------------|
|--10-10-10--10-10-12-10---9--9-7--7--9-10--9--|
|----------------------------------------------|

|----------------------------------------------|
|----------------------------------------------|
|--12-12-12--12-12-14-12---12--11---9---4------|
|---------------------------------------4------|
|--10-10-10--10-10-12-10---10---9---7---2------|
|----------------------------------------------|

then this again a few times
rythem is just under this
play this riff few times
then end part is below.

|-------------------------------------------------|
|--8------8------8------10------8-7-----7---------|
|----9------9------9-------9----------------------|
|------9------9------9-------9-------9------------|
|-------------------------------------------------|
|-------------------------------------------------|

|-------------------------------------------------|
|--7------7------7------10------8----7------------|
|----7------7------7-------7-----------7----------|
|------9------9------9-------9-----9--------------|
|-------------------------------------------------|
|-------------------------------------------------|

outro rythem

|-------------------------------------------------|
|-------------------------------------------------|
|-------------------------------------------------|
|--5-5-----5---------------7-7-----7--------------|
|--3-3-3-3-3-3-3-3-3-3-3---5-5-5-5-5-5-5-5-5-5-5--|
|-------------------------------------------------|

|----------------------------------------------------|
|----------------------------------------------------|
|----------------------------------------------------|
|--5-5-----5---------------7-7------7------7---2~----|
|--3-3-3-3-3-3-3-3-3-3-3---5-5-5-5--5--5-5-5---2~----|
|----------------------------------------------0~----|


outro lead

|-------------------------------------------------|
|--8------8------8------10------8-7-----7---------|
|----9------9------9-------9----------------------|
|------9------9------9-------9-------9------------|
|-------------------------------------------------|
|-------------------------------------------------|

|-------------------------------------------------|
|--7------7------7------10------8----7----8~------|
|----7------7------7-------7-----------7----------|
|------9------9------9-------9-----9--------------|
|-------------------------------------------------|
|-------------------------------------------------|

Higher harmony outro
if you like this better.
|-------------------------------------------------|
|--12-----12-----12-----13---------12-10----10----|
|----12-----12-----12------12---------------------|
|------12-----12-----12-------12---------12-------|
|-------------------------------------------------|
|-------------------------------------------------|

|--------------------------------------------------------12~---|
|--10-------10-------10------------13--------12----10----------|
|-----11-------11-------11------------11--------------11-------|
|--------12-------12-------12---12--------12----12-------------|
|--------------------------------------------------------------|
|--------------------------------------------------------------|


                         thanks for viewing my tab
                           dont forget to rate
                              and comment (:
I want to post or [tab]
guest
You may want to rate the tab now too:
select rating
Please do not post tabs as comments. Select "correction" instead!