Oops, an error
Loading. Please wait.

Empty Inside Tab

ver4
ver4
More versions @911Tabs.com
2,151 views 1 this week
6 commentsread comments
1 2 3 4 5
worth learning
x 2
Autoscroll
+/-
esc
set tempo
stop
Contributor
Tuning
D A D G B E
WARNING: You are trying to view
                                    content from Ultimate-Guitar.com
                                    in an unauthorized application,
                                    which is prohibited.

                                    Please use an official Ultimate
                                    Guitar Tabs application for iPhone,
                                    iPad or Android to access legitimate
                                    chords, guitar, bass, and drum tabs
                                    from Ultimate-Guitar.com database.

                                    Type "ultimate guitar tabs" in Apple
                                    App Store's or Android Market's
                                    search to find the application.
 Empty Inside                                   


                                                                All That Remains
Guitar #1



        PM PM PM    PM             PM PM PM    PM        
     E  E  E  E  E  E  E  E     E  E  E  E  E  E  E  E   
E||--------------------------|--------------------------|
B||--------------------------|--------------------------|
G||--------------------------|--------------------------|
D||--------------------------|--------------------------|
A||--5-----------5-----5--7--|--8-----------1-----8--7--|
D||-----0--0--0-----0--------|-----0--0--0-----0--------|


     PM PM PM    PM              PM    PM              
  E  E  E  E  E  E   E  E     E  E  E  E  E  E  E  E   
---------------------------|--------------------------|
---------------------------|--------------------------|
---------------------------|--------------------------|
---------------------------|--------------------------|
--3-----------3-----10--8--|--7-----7-----7--8--7--3--|
-----0--0--0-----0---------|-----0-----0--------------|


     PM PM PM    PM             PM PM PM    PM        
  E  E  E  E  E  E  E  E     E  E  E  E  E  E  E  E   
--------------------------|--------------------------|
--------------------------|--------------------------|
--------------------------|--------------------------|
--------------------------|--------------------------|
--5-----------5-----5--7--|--8-----------1-----8--7--|
-----0--0--0-----0--------|-----0--0--0-----0--------|


     PM PM PM    PM              PM    PM              
  E  E  E  E  E  E   E  E     E  E  E  E  E  E  E  E   
---------------------------|--------------------------|
---------------------------|--------------------------|
---------------------------|--------------------------|
---------------------------|--------------------------|
--3-----------3-----10--8--|--7-----7-----7--8--7--3--|
-----0--0--0-----0---------|-----0-----0--------------|


     PM PM PM    PM             PM PM PM    PM        
  E  E  E  E  E  E  E  E     E  E  E  E  E  E  E  E   
--------------------------|--------------------------|
--------------------------|--------------------------|
--------------------------|--------------------------|
--------------------------|--------------------------|
--5-----------5-----5--7--|--8-----------1-----8--7--|
-----0--0--0-----0--------|-----0--0--0-----0--------|


     PM PM PM    PM              PM    PM              
  E  E  E  E  E  E   E  E     E  E  E  E  E  E  E  E   
---------------------------|--------------------------|
---------------------------|--------------------------|
---------------------------|--------------------------|
---------------------------|--------------------------|
--3-----------3-----10--8--|--7-----7-----7--8--7--3--|
-----0--0--0-----0---------|-----0-----0--------------|


     PM PM PM    PM             PM PM PM    PM        
  E  E  E  E  E  E  E  E     E  E  E  E  E  E  E  E   
--------------------------|--------------------------|
--------------------------|--------------------------|
--------------------------|--------------------------|
--------------------------|--------------------------|
--5-----------5-----5--7--|--8-----------1-----8--7--|
-----0--0--0-----0--------|-----0--0--0-----0--------|


     PM PM PM    PM              PM    PM              
  E  E  E  E  E  E   E  E     E  E  E  E  E  E  E  E   
---------------------------|--------------------------|
---------------------------|--------------------------|
---------------------------|--------------------------|
---------------------------|--------------------------|
--3-----------3-----10--8--|--7-----7-----7--8--7--3--|
-----0--0--0-----0---------|-----0-----0--------------|


       PM PM    PM    PM    PM PM    PM    PM               PM PM    PM    PM  
  Q    E  E  E  E  E  E     E  E  E  E  E  E  E  E     Q    E  E  E  E  E  E   
-------------------------|--------------------------|-------------------------|
-------------------------|--------------------------|-------------------------|
-------------------------|--------------------------|-------------------------|
-------------------------|--------------------------|-------------3-----3-----|
--0----------5-----5-----|--------8-----7-----3--5--|--3----------------------|
--0----0--0-----0-----0--|--0--0-----0-----0--------|--3----3--3-----3-----3--|


  PM PM    PM    PM    PM         PM PM    PM    PM    PM PM    PM    PM        
  E  E  E  E  E  E  E  E     Q    E  E  E  E  E  E     E  E  E  E  E  E  E  E   
--------------------------|-------------------------|--------------------------|
--------------------------|-------------------------|--------------------------|
--------------------------|-------------------------|--------------------------|
--------5-----3-----------|-------------------------|--------------------------|
--------------------7-----|--0----------5-----5-----|--------8-----7-----3--5--|
--3--3-----3-----3-----3--|--0----0--0-----0-----0--|--0--0-----0-----0--------|


       PM PM              PM PM      PM PM PM PM         PM PM    PM    PM  
  Q    E  E  Q    Q       E  E  Q    E  E  E  E     Q    E  E  E  E  E  E   
-----------------------|-------------------------|-------------------------|
-----------------------|-------------------------|-------------------------|
-----------------------|-------------------------|-------------------------|
-----------------------|-------------------------|-------------------------|
--3----3--3-------3----|--3--3-------3--2--0--0--|--0----------5-----5-----|
--3----3--3-------3----|--3--3-------3--2--0--0--|--0----0--0-----0-----0--|


  PM PM    PM    PM               PM PM    PM    PM    PM PM    PM    PM    PM  
  E  E  E  E  E  E  E  E     Q    E  E  E  E  E  E     E  E  E  E  E  E  E  E   
--------------------------|-------------------------|--------------------------|
--------------------------|-------------------------|--------------------------|
--------------------------|-------------------------|--------------------------|
--------------------------|-------------3-----3-----|--------5-----3-----------|
--------8-----7-----3--5--|--3----------------------|--------------------7-----|
--0--0-----0-----0--------|--3----3--3-----3-----3--|--3--3-----3-----3-----3--|


       PM PM    PM    PM    PM PM    PM    PM               PM PM            
  Q    E  E  E  E  E  E     E  E  E  E  E  E  E  E     Q    E  E  Q    Q     
-------------------------|--------------------------|-----------------------|
-------------------------|--------------------------|-----------------------|
-------------------------|--------------------------|-----------------------|
-------------------------|--------------------------|-----------------------|
--0----------5-----5-----|--------8-----7-----3--5--|--3----3--3-------3----|
--0----0--0-----0-----0--|--0--0-----0-----0--------|--3----3--3-------3----|


  PM PM      PM PM PM PM    TP           TP      TP       TP   TP    
  E  E  Q    E  E  E  E     H.           Q       H        Q    Q     
-------------------------|--------------------|---------------------|
-------------------------|--------------------|---------------------|
-------------------------|--------------------|---------------------|
-------------------------|--------------------|-----------5---------|
--3--3-------3--2--0--0--|--5------------7----|--8-------------8----|
--3--3-------3--2--0--0--|--------------------|---------------------|


  TP                  TP       TP          TP           TP    
  W                   H        H           H.           Q     
-------------------|--------------------|--------------------|
-------------------|--------------------|--------------------|
-------------------|--------------------|--------------------|
-------------------|--------------------|--------------------|
--7----------------|--1--------3--------|--5------------7----|
-------------------|--------------------|--------------------|


  TP       TP   TP      TP                                       
  H        Q    Q       W                    H        H          
---------------------|-------------------|----------------------|
---------------------|-------------------|----------------------|
---------------------|-------------------|----------------------|
---------------------|--5----------------|--/8--------7~--------|
--8--------7----8----|-------------------|----------------------|
---------------------|-------------------|----------------------|


       PM PM    PM    PM    PM PM    PM    PM               PM PM    PM    PM  
  Q    E  E  E  E  E  E     E  E  E  E  E  E  E  E     Q    E  E  E  E  E  E   
-------------------------|--------------------------|-------------------------|
-------------------------|--------------------------|-------------------------|
-------------------------|--------------------------|-------------------------|
-------------------------|--------------------------|-------------3-----3-----|
--0----------5-----5-----|--------8-----7-----3--5--|--3----------------------|
--0----0--0-----0-----0--|--0--0-----0-----0--------|--3----3--3-----3-----3--|


  PM PM    PM    PM    PM         PM PM    PM    PM    PM PM    PM    PM        
  E  E  E  E  E  E  E  E     Q    E  E  E  E  E  E     E  E  E  E  E  E  E  E   
--------------------------|-------------------------|--------------------------|
--------------------------|-------------------------|--------------------------|
--------------------------|-------------------------|--------------------------|
--------5-----3-----------|-------------------------|--------------------------|
--------------------7-----|--0----------5-----5-----|--------8-----7-----3--5--|
--3--3-----3-----3-----3--|--0----0--0-----0-----0--|--0--0-----0-----0--------|


       PM PM              PM PM      PM PM PM PM         PM PM    PM    PM  
  Q    E  E  Q    Q       E  E  Q    E  E  E  E     Q    E  E  E  E  E  E   
-----------------------|-------------------------|-------------------------|
-----------------------|-------------------------|-------------------------|
-----------------------|-------------------------|-------------------------|
-----------------------|-------------------------|-------------------------|
--3----3--3-------3----|--3--3-------3--2--0--0--|--0----------5-----5-----|
--3----3--3-------3----|--3--3-------3--2--0--0--|--0----0--0-----0-----0--|


  PM PM    PM    PM               PM PM    PM    PM    PM PM    PM    PM    PM  
  E  E  E  E  E  E  E  E     Q    E  E  E  E  E  E     E  E  E  E  E  E  E  E   
--------------------------|-------------------------|--------------------------|
--------------------------|-------------------------|--------------------------|
--------------------------|-------------------------|--------------------------|
--------------------------|-------------3-----3-----|--------5-----3-----------|
--------8-----7-----3--5--|--3----------------------|--------------------7-----|
--0--0-----0-----0--------|--3----3--3-----3-----3--|--3--3-----3-----3-----3--|


       PM PM    PM    PM    PM PM    PM    PM               PM PM            
  Q    E  E  E  E  E  E     E  E  E  E  E  E  E  E     Q    E  E  Q    Q     
-------------------------|--------------------------|-----------------------|
-------------------------|--------------------------|-----------------------|
-------------------------|--------------------------|-----------------------|
-------------------------|--------------------------|-----------------------|
--0----------5-----5-----|--------8-----7-----3--5--|--3----3--3-------3----|
--0----0--0-----0-----0--|--0--0-----0-----0--------|--3----3--3-------3----|


  PM PM      PM PM PM PM    TP           TP      TP       TP   TP    
  E  E  Q    E  E  E  E     H.           Q       H        Q    Q     
-------------------------|--------------------|---------------------|
-------------------------|--------------------|---------------------|
-------------------------|--------------------|---------------------|
-------------------------|--------------------|-----------5---------|
--3--3-------3--2--0--0--|--5------------7----|--8-------------8----|
--3--3-------3--2--0--0--|--------------------|---------------------|


  TP                  TP       TP          TP           TP    
  W                   H        H           H.           Q     
-------------------|--------------------|--------------------|
-------------------|--------------------|--------------------|
-------------------|--------------------|--------------------|
-------------------|--------------------|--------------------|
--7----------------|--1--------3--------|--5------------7----|
-------------------|--------------------|--------------------|


  TP       TP   TP      TP                  TP       TP        
  H        Q    Q       W                   H        H         
---------------------|-------------------|--------------------|
---------------------|-------------------|--------------------|
---------------------|-------------------|--------------------|
---------------------|--5----------------|--8--------7--------|
--8--------7----8----|-------------------|--------------------|
---------------------|-------------------|--------------------|


  TP           TP      TP       TP   TP      TP                
  H.           Q       H        Q    Q       W                 
--------------------|---------------------|-------------------|
--------------------|---------------------|-------------------|
--------------------|---------------------|-------------------|
--------------------|-----------5---------|-------------------|
--5------------7----|--8-------------8----|--7----------------|
--------------------|---------------------|-------------------|


  TP       TP          TP           TP      TP       TP   TP    
  H        H           H.           Q       H        Q    Q     
--------------------|--------------------|---------------------|
--------------------|--------------------|---------------------|
--------------------|--------------------|---------------------|
--------------------|--------------------|---------------------|
--1--------3--------|--5------------7----|--8--------7----8----|
--------------------|--------------------|---------------------|


  TP                                              PM PM    PM PM    PM  
  W                    H        H              E  E  E  E  E  E  E  E   
-------------------|----------------------||---------------------------|
-------------------|----------------------||---------------------------|
-------------------|----------------------||*--7--------7--------9-----|
--5----------------|--/8--------7~--------||*--------0--------0-----0--|
-------------------|----------------------||------0--------0-----------|
-------------------|----------------------||---------------------------|


      PM PM     PM PM     PM       PM PM    PM PM    PM  
   E  E  E   E  E  E   E  E     E  E  E  E  E  E  E  E   
-----------------------------|--------------------------|
-----------------------------|--------------------------|
--10--------12--------10-----|--9--------7--------5-----|
---------0---------0------0--|--------3--------3-----3--|
------3---------3------------|-----5--------5-----------|
-----------------------------|--------------------------|


     PM PM    PM PM    PM       PM PM    PM PM    PM  
  E  E  E  E  E  E  E  E     E  E  E  E  E  E  E  E   
--------------------------|--------------------------|
--------------------5-----|--------------------------|
--5--------7--------------|--7--------7--------9-----|
--------3--------3-----3--|--------0--------0-----0--|
-----5--------5-----------|-----3--------3-----------|
--------------------------|--------------------------|


     PM PM    PM PM    PM        PM PM      PM PM     PM  
  E  E  E  E  E  E  E  E     E   E  E   E   E  E   E  E   
--------------------------|------------------------------|
--6--------8--------6-----|--5---------------------------|
--------------------------|------------10---------12-----|
--------3--------3-----3--|---------8----------8------8--|
-----5--------5-----------|-----10---------10------------|
--------------------------|------------------------------|


       PM PM      PM PM     PM                          
   E   E  E   E   E  E   E  E        W                  
--------------------------------||---------------------|
--11---------10---------10------||--13b----------------|
-------------------------------*||---------------------|
----------8----------8------8--*||---------------------|
------10---------10-------------||---------------------|
--------------------------------||---------------------|


                                                 PH         PH   
   H.             S  S  E      E   E   E   E     Q.         E    
---------------------------|------------------------------------|
--13b------------12-13-12--|------------------<>13b------<>13~--|
---------------------------|--12--10--10--10--------------------|
---------------------------|------------------------------------|
---------------------------|------------------------------------|
---------------------------|------------------------------------|


   W                   E  E  E  E  E  E  E  E     E  E  E  E  E  E   E   E   
--------------------|--------------------------|----------------------------|
---L----------------|--------------------------|----------------------------|
--------------------|--7--5--5--5--7--7--9--9--|--7--7--7--9--9--9--10--10--|
--------------------|--------------------------|----------------------------|
--------------------|--5--3--3--3--5--5--7--7--|--5--5--5--7--7--7---8---8--|
--------------------|--------------------------|----------------------------|


  PM PM PM  PM  PM  PM  PM  PM  PM  PM  PM  PM  
  |--3--|   |---3---|   |---3---|   |---3---|   
  E  E  E   E   E   E   E   E   E   E   E   E   
-----------------------------------------------|
-----------------------------------------------|
-----------------------------------------------|
-----------------------------------------------|
--8--8--8--10--10--10--12--12--12--10--10--10--|
-----------------------------------------------|


   PM  PM  PM  PM  PM  PM                  PH                     
   |---3---|   |---3---|                                          
   E   E   E   E   E   E   H               H.             E   E   
-------------------------------------|---------------------------|
-------------------------------------|--<>15b------------15--13--|
-------------------------------------|---------------------------|
-------------------------------------|---------------------------|
--12--12--12--13--13--13--17~--------|---------------------------|
-------------------------------------|---------------------------|


         |----3----|              
   Q     E    E    E   H          
---------------------------------|
---L----13h--15p--13--13~--------|
---------------------------------|
---------------------------------|
---------------------------------|
---------------------------------|


   |---3---|   |---3---|   |---3---|   |---3---|                         
   E   E   E   E   E   E   E   E   E   E   E   E      W                  
--------------------------------------------------|---------------------|
--------------------------------------------------|---------------------|
--14--16--14--12----------------------12--14--16--|--14b----------------|
------------------15--14--12--14--15--------------|---------------------|
--------------------------------------------------|---------------------|
--------------------------------------------------|---------------------|


   S  S  S  S  S  S  S  S  S  S  S  S  S  S  S  S  
--17-15-------------------17-15-------------------|
--------18-17-15----------------18-17-15----------|
-----------------17-16-14----------------17-16-14-|
--------------------------------------------------|
--------------------------------------------------|
--------------------------------------------------|


   S  S  S  S  S  S  S  S  S  S  S  S  S  S  S  S  
--15-13-------------------15-13-------------------|
--------17-15-13----------------17-15-13----------|
-----------------16-14-12----------------16-14-12-|
--------------------------------------------------|
--------------------------------------------------|
--------------------------------------------------|


   S  S  S  S  S  S  S  S  S  S  S  S  S  S  S  S  
--13-12-------------------13-12-------------------|
--------15-13-12----------------15-13-12----------|
-----------------14-12-10----------------14-12-10-|
--------------------------------------------------|
--------------------------------------------------|
--------------------------------------------------|


                                      TP           TP      TP       TP   TP    
   S  S S  S  S S  S S  S  S S  S     H.           Q       H        Q    Q     
--12-10-8------------8-10-12-8-10~-|--------------------|---------------------|
----------12-10-8-12---------------|--------------------|---------------------|
-----------------------------------|--------------------|---------------------|
-----------------------------------|--------------------|-----------5---------|
-----------------------------------|--5------------7----|--8-------------8----|
-----------------------------------|--------------------|---------------------|


  TP                  TP       TP          TP           TP    
  W                   H        H           H.           Q     
-------------------|--------------------|--------------------|
-------------------|--------------------|--------------------|
-------------------|--------------------|--------------------|
-------------------|--------------------|--------------------|
--7----------------|--1--------3--------|--5------------7----|
-------------------|--------------------|--------------------|


  TP       TP   TP      TP                  TP       TP        
  H        Q    Q       W                   H        H         
---------------------|-------------------|--------------------|
---------------------|-------------------|--------------------|
---------------------|-------------------|--------------------|
---------------------|--5----------------|--8--------7--------|
--8--------7----8----|-------------------|--------------------|
---------------------|-------------------|--------------------|


  TP           TP      TP       TP   TP      TP                
  H.           Q       H        Q    Q       W                 
--------------------|---------------------|-------------------|
--------------------|---------------------|-------------------|
--------------------|---------------------|-------------------|
--------------------|-----------5---------|-------------------|
--5------------7----|--8-------------8----|--7----------------|
--------------------|---------------------|-------------------|


  TP       TP          TP           TP      TP       TP   TP    
  H        H           H.           Q       H        Q    Q     
--------------------|--------------------|---------------------|
--------------------|--------------------|---------------------|
--------------------|--------------------|---------------------|
--------------------|--------------------|---------------------|
--1--------3--------|--5------------7----|--8--------7----8----|
--------------------|--------------------|---------------------|


  TP                                            PM PM PM    PM        
  W                    H        H            E  E  E  E  E  E  E  E   
-------------------|----------------------|--------------------------|
-------------------|----------------------|--------------------------|
-------------------|----------------------|--------------------------|
--5----------------|--/8--------7~--------|--------------------------|
-------------------|----------------------|--5-----------5-----5--7--|
-------------------|----------------------|-----0--0--0-----0--------|


     PM PM PM    PM             PM PM PM    PM         
  E  E  E  E  E  E  E  E     E  E  E  E  E  E   E  E   
--------------------------|---------------------------|
--------------------------|---------------------------|
--------------------------|---------------------------|
--------------------------|---------------------------|
--8-----------1-----8--7--|--3-----------3-----10--8--|
-----0--0--0-----0--------|-----0--0--0-----0---------|


     PM    PM                   PM PM PM    PM        
  E  E  E  E  E  E  E  E     E  E  E  E  E  E  E  E   
--------------------------|--------------------------|
--------------------------|--------------------------|
--------------------------|--------------------------|
--------------------------|--------------------------|
--7-----7-----7--8--7--3--|--5-----------5-----5--7--|
-----0-----0--------------|-----0--0--0-----0--------|


     PM PM PM    PM             PM PM PM    PM         
  E  E  E  E  E  E  E  E     E  E  E  E  E  E   E  E   
--------------------------|---------------------------|
--------------------------|---------------------------|
--------------------------|---------------------------|
--------------------------|---------------------------|
--8-----------1-----8--7--|--3-----------3-----10--8--|
-----0--0--0-----0--------|-----0--0--0-----0---------|


     PM    PM                     PM PM    PM    PM    PM PM    PM    PM        
  E  E  E  E  E  E  E  E     Q    E  E  E  E  E  E     E  E  E  E  E  E  E  E   
--------------------------|-------------------------|--------------------------|
--------------------------|-------------------------|--------------------------|
--------------------------|-------------------------|--------------------------|
--------------------------|-------------------------|--------------------------|
--7-----7-----7--8--7--3--|--0----------5-----5-----|--------8-----7-----3--5--|
-----0-----0--------------|--0----0--0-----0-----0--|--0--0-----0-----0--------|


       PM PM    PM    PM    PM PM    PM    PM    PM         PM PM    PM    PM  
  Q    E  E  E  E  E  E     E  E  E  E  E  E  E  E     Q    E  E  E  E  E  E   
-------------------------|--------------------------|-------------------------|
-------------------------|--------------------------|-------------------------|
-------------------------|--------------------------|-------------------------|
-------------3-----3-----|--------5-----3-----------|-------------------------|
--3----------------------|--------------------7-----|--0----------5-----5-----|
--3----3--3-----3-----3--|--3--3-----3-----3-----3--|--0----0--0-----0-----0--|


  PM PM    PM    PM               PM PM              PM PM      PM PM PM PM  
  E  E  E  E  E  E  E  E     Q    E  E  Q    Q       E  E  Q    E  E  E  E   
--------------------------|-----------------------|-------------------------|
--------------------------|-----------------------|-------------------------|
--------------------------|-----------------------|-------------------------|
--------------------------|-----------------------|-------------------------|
--------8-----7-----3--5--|--3----3--3-------3----|--3--3-------3--2--0--0--|
--0--0-----0-----0--------|--3----3--3-------3----|--3--3-------3--2--0--0--|


       PM PM    PM    PM    PM PM    PM    PM               PM PM    PM    PM  
  Q    E  E  E  E  E  E     E  E  E  E  E  E  E  E     Q    E  E  E  E  E  E   
-------------------------|--------------------------|-------------------------|
-------------------------|--------------------------|-------------------------|
-------------------------|--------------------------|-------------------------|
-------------------------|--------------------------|-------------3-----3-----|
--0----------5-----5-----|--------8-----7-----3--5--|--3----------------------|
--0----0--0-----0-----0--|--0--0-----0-----0--------|--3----3--3-----3-----3--|


  PM PM    PM    PM    PM         PM PM    PM    PM    PM PM    PM    PM        
  E  E  E  E  E  E  E  E     Q    E  E  E  E  E  E     E  E  E  E  E  E  E  E   
--------------------------|-------------------------|--------------------------|
--------------------------|-------------------------|--------------------------|
--------------------------|-------------------------|--------------------------|
--------5-----3-----------|-------------------------|--------------------------|
--------------------7-----|--0----------5-----5-----|--------8-----7-----3--5--|
--3--3-----3-----3-----3--|--0----0--0-----0-----0--|--0--0-----0-----0--------|


       PM PM              PM PM      PM PM PM PM  
  Q    E  E  Q    Q       E  E  Q    E  E  E  E   
-----------------------|-------------------------|
-----------------------|-------------------------|
-----------------------|-------------------------|
-----------------------|-------------------------|
--3----3--3-------3----|--3--3-------3--2--0--0--|
--3----3--3-------3----|--3--3-------3--2--0--0--|


  PM PM PM PM PM PM PM PM PM PM PM PM PM PM PM PM    PM                  
  S  S  S  S  S  S  S  S  S  S  S  S  S  S  S  S     E  E  H.            
--------------------------------------------------|---------------------|
--------------------------------------------------|---------------------|
--------------------------------------------------|---------------------|
--------------------------------------------------|---------------------|
--------------------------------------------------|--0------------------|
--0--0--0--0--0--0--0--0--0--0--0--0--0--0--0--0--|--0------------------|


  PM PM PM PM PM PM PM PM PM PM PM PM PM PM PM PM    PM                  
  S  S  S  S  S  S  S  S  S  S  S  S  S  S  S  S     E  E  H.            
--------------------------------------------------|---------------------|
--------------------------------------------------|---------------------|
--------------------------------------------------|---------------------|
--------------------------------------------------|---------------------|
--------------------------------------------------|--0------------------|
--0--0--0--0--0--0--0--0--0--0--0--0--0--0--0--0--|--0------------------|


  PM PM PM PM PM PM PM PM PM PM PM PM PM PM PM PM    PM                  
  S  S  S  S  S  S  S  S  S  S  S  S  S  S  S  S     E  E  H.            
--------------------------------------------------|---------------------|
--------------------------------------------------|---------------------|
--------------------------------------------------|---------------------|
--------------------------------------------------|---------------------|
--------------------------------------------------|--0------------------|
--0--0--0--0--0--0--0--0--0--0--0--0--0--0--0--0--|--0------------------|


  PM PM PM PM PM PM PM PM PM PM PM PM PM PM PM PM    PM                  
  S  S  S  S  S  S  S  S  S  S  S  S  S  S  S  S     E  E  H.            
--------------------------------------------------|---------------------|
--------------------------------------------------|---------------------|
--------------------------------------------------|---------------------|
--------------------------------------------------|---------------------|
--------------------------------------------------|--0------------------|
--0--0--0--0--0--0--0--0--0--0--0--0--0--0--0--0--|--0------------------|


  TP           TP      TP       TP   TP      TP                
  H.           Q       H        Q    Q       W                 
--------------------|---------------------|-------------------|
--------------------|---------------------|-------------------|
--------------------|---------------------|-------------------|
--------------------|-----------5---------|-------------------|
--5------------7----|--8-------------8----|--7----------------|
--------------------|---------------------|-------------------|


  TP       TP          TP           TP      TP       TP   TP    
  H        H           H.           Q       H        Q    Q     
--------------------|--------------------|---------------------|
--------------------|--------------------|---------------------|
--------------------|--------------------|---------------------|
--------------------|--------------------|---------------------|
--1--------3--------|--5------------7----|--8--------7----8----|
--------------------|--------------------|---------------------|


  TP                  TP       TP          TP           TP    
  W                   H        H           H.           Q     
-------------------|--------------------|--------------------|
-------------------|--------------------|--------------------|
-------------------|--------------------|--------------------|
--5----------------|--8--------7--------|--------------------|
-------------------|--------------------|--5------------7----|
-------------------|--------------------|--------------------|


  TP       TP   TP      TP                  TP       TP        
  H        Q    Q       W                   H        H         
---------------------|-------------------|--------------------|
---------------------|-------------------|--------------------|
---------------------|-------------------|--------------------|
-----------5---------|-------------------|--------------------|
--8-------------8----|--7----------------|--1--------3--------|
---------------------|-------------------|--------------------|


  TP           TP      TP       TP   TP      TP                
  H.           Q       H        Q    Q       W                 
--------------------|---------------------|-------------------|
--------------------|---------------------|-------------------|
--------------------|---------------------|-------------------|
--------------------|---------------------|--5----------------|
--5------------7----|--8--------7----8----|-------------------|
--------------------|---------------------|-------------------|


                         PM PM PM PM PM PM PM PM PM PM PM PM PM PM PM PM  
   H        H            S  S  S  S  S  S  S  S  S  S  S  S  S  S  S  S   
----------------------|--------------------------------------------------|
----------------------|--------------------------------------------------|
----------------------|--------------------------------------------------|
--/8--------7~--------|--------------------------------------------------|
----------------------|--------------------------------------------------|
----------------------|--0--0--0--0--0--0--0--0--0--0--0--0--0--0--0--0--|


   H        Q     Q      
-----------------------||
-----------------------||
-----------------------||
--12--------L\---------||
--12--------L\---------||
--12--------L\---------||


Guitar #2



        PM PM PM    PM             PM PM PM    PM        
     E  E  E  E  E  E  E  E     E  E  E  E  E  E  E  E   
E||--------------------------|--------------------------|
B||--------------------------|--------------------------|
G||--------------------------|--------------------------|
D||--------------------------|--------------------------|
A||--5-----------5-----5--7--|--8-----------1-----8--7--|
D||-----0--0--0-----0--------|-----0--0--0-----0--------|


     PM PM PM    PM              PM    PM              
  E  E  E  E  E  E   E  E     E  E  E  E  E  E  E  E   
---------------------------|--------------------------|
---------------------------|--------------------------|
---------------------------|--------------------------|
---------------------------|--------------------------|
--3-----------3-----10--8--|--7-----7-----7--8--7--3--|
-----0--0--0-----0---------|-----0-----0--------------|


     PM PM PM    PM             PM PM PM    PM        
  E  E  E  E  E  E  E  E     E  E  E  E  E  E  E  E   
--------------------------|--------------------------|
--------------------------|--------------------------|
--------------------------|--------------------------|
--------------------------|--------------------------|
--5-----------5-----5--7--|--8-----------1-----8--7--|
-----0--0--0-----0--------|-----0--0--0-----0--------|


     PM PM PM    PM              PM    PM              
  E  E  E  E  E  E   E  E     E  E  E  E  E  E  E  E   
---------------------------|--------------------------|
---------------------------|--------------------------|
---------------------------|--------------------------|
---------------------------|--------------------------|
--3-----------3-----10--8--|--7-----7-----7--8--7--3--|
-----0--0--0-----0---------|-----0-----0--------------|


     PM PM PM    PM               PM PM PM    PM          
  E  E  E  E  E  E  E   E      E  E  E  E  E  E   E   E   
---------------------------|-----------------------------|
---------------------------|-----------------------------|
---------------------------|-----------------------------|
---------------------------|-----------------------------|
--8-----------8-----8--10--|--12-----------5-----12--10--|
-----0--0--0-----0---------|------0--0--0-----0----------|


     PM PM PM    PM                PM     PM                 
  E  E  E  E  E  E   E   E      E  E   E  E   E   E   E  E   
----------------------------|-------------------------------|
----------------------------|-------------------------------|
----------------------------|-------------------------------|
----------------------------|-------------------------------|
--7-----------7-----13--12--|--10-----10-----10--12--10--7--|
-----0--0--0-----0----------|------0------0-----------------|


     PM PM PM    PM               PM PM PM    PM          
  E  E  E  E  E  E  E   E      E  E  E  E  E  E   E   E   
---------------------------|-----------------------------|
---------------------------|-----------------------------|
---------------------------|-----------------------------|
---------------------------|-----------------------------|
--8-----------8-----8--10--|--12-----------5-----12--10--|
-----0--0--0-----0---------|------0--0--0-----0----------|


     PM PM PM    PM                PM     PM                 
  E  E  E  E  E  E   E   E      E  E   E  E   E   E   E  E   
----------------------------|-------------------------------|
----------------------------|-------------------------------|
----------------------------|-------------------------------|
----------------------------|-------------------------------|
--7-----------7-----13--12--|--10-----10-----10--12--10--7--|
-----0--0--0-----0----------|------0------0-----------------|


       PM PM    PM    PM    PM PM    PM    PM               PM PM    PM    PM  
  Q    E  E  E  E  E  E     E  E  E  E  E  E  E  E     Q    E  E  E  E  E  E   
-------------------------|--------------------------|-------------------------|
-------------------------|--------------------------|-------------------------|
-------------------------|--------------------------|-------------------------|
-------------------------|--------------------------|-------------3-----3-----|
--0----------5-----5-----|--------8-----7-----3--5--|--3----------------------|
--0----0--0-----0-----0--|--0--0-----0-----0--------|--3----3--3-----3-----3--|


  PM PM    PM    PM    PM         PM PM    PM    PM    PM PM    PM    PM        
  E  E  E  E  E  E  E  E     Q    E  E  E  E  E  E     E  E  E  E  E  E  E  E   
--------------------------|-------------------------|--------------------------|
--------------------------|-------------------------|--------------------------|
--------------------------|-------------------------|--------------------------|
--------5-----3-----------|-------------------------|--------------------------|
--------------------7-----|--0----------5-----5-----|--------8-----7-----3--5--|
--3--3-----3-----3-----3--|--0----0--0-----0-----0--|--0--0-----0-----0--------|


       PM PM              PM PM      PM PM PM PM         PM PM    PM    PM  
  Q    E  E  Q    Q       E  E  Q    E  E  E  E     Q    E  E  E  E  E  E   
-----------------------|-------------------------|-------------------------|
-----------------------|-------------------------|-------------------------|
-----------------------|-------------------------|-------------------------|
-----------------------|-------------------------|-------------------------|
--3----3--3-------3----|--3--3-------3--2--0--0--|--0----------5-----5-----|
--3----3--3-------3----|--3--3-------3--2--0--0--|--0----0--0-----0-----0--|


  PM PM    PM    PM               PM PM    PM    PM    PM PM    PM    PM    PM  
  E  E  E  E  E  E  E  E     Q    E  E  E  E  E  E     E  E  E  E  E  E  E  E   
--------------------------|-------------------------|--------------------------|
--------------------------|-------------------------|--------------------------|
--------------------------|-------------------------|--------------------------|
--------7-----5-----------|-------------3-----3-----|--------5-----3-----------|
--------------------3--5--|--3----------------------|--------------------7-----|
--0--0-----0-----0--------|--3----3--3-----3-----3--|--3--3-----3-----3-----3--|


       PM PM    PM    PM    PM PM    PM    PM               PM PM            
  Q    E  E  E  E  E  E     E  E  E  E  E  E  E  E     Q    E  E  Q    Q     
-------------------------|--------------------------|-----------------------|
-------------------------|--------------------------|-----------------------|
-------------------------|--------------------------|-----------------------|
-------------------------|--------7-----5-----------|-----------------------|
--0----------5-----5-----|--------------------3--5--|--3----3--3-------3----|
--0----0--0-----0-----0--|--0--0-----0-----0--------|--3----3--3-------3----|


  PM PM      PM PM PM PM    TP           TP      TP       TP   TP    
  E  E  Q    E  E  E  E     H.           Q       H        Q    Q     
-------------------------|--------------------|---------------------|
-------------------------|--------------------|---------------------|
-------------------------|--------------------|-----------3---------|
-------------------------|--3------------5----|--7-------------7----|
--3--3-------3--2--0--0--|--------------------|---------------------|
--3--3-------3--2--0--0--|--------------------|---------------------|


  TP                  TP       TP          TP           TP    
  W                   H        H           H.           Q     
-------------------|--------------------|--------------------|
-------------------|--------------------|--------------------|
-------------------|--------------------|--------------------|
--5----------------|--0--------2--------|--3------------5----|
-------------------|--------------------|--------------------|
-------------------|--------------------|--------------------|


  TP       TP   TP      TP                                       
  H        Q    Q       W                    H        H          
---------------------|-------------------|----------------------|
---------------------|-------------------|----------------------|
---------------------|--3----------------|--/7--------5~--------|
--7--------5----7----|-------------------|----------------------|
---------------------|-------------------|----------------------|
---------------------|-------------------|----------------------|


       PM PM    PM    PM    PM PM    PM    PM               PM PM    PM    PM  
  Q    E  E  E  E  E  E     E  E  E  E  E  E  E  E     Q    E  E  E  E  E  E   
-------------------------|--------------------------|-------------------------|
-------------------------|--------------------------|-------------------------|
-------------------------|--------------------------|-------------------------|
-------------------------|--------------------------|-------------3-----3-----|
--0----------5-----5-----|--------8-----7-----3--5--|--3----------------------|
--0----0--0-----0-----0--|--0--0-----0-----0--------|--3----3--3-----3-----3--|


  PM PM    PM    PM    PM         PM PM    PM    PM    PM PM    PM    PM        
  E  E  E  E  E  E  E  E     Q    E  E  E  E  E  E     E  E  E  E  E  E  E  E   
--------------------------|-------------------------|--------------------------|
--------------------------|-------------------------|--------------------------|
--------------------------|-------------------------|--------------------------|
--------5-----3-----------|-------------------------|--------------------------|
--------------------7-----|--0----------5-----5-----|--------8-----7-----3--5--|
--3--3-----3-----3-----3--|--0----0--0-----0-----0--|--0--0-----0-----0--------|


       PM PM              PM PM      PM PM PM PM         PM PM    PM    PM  
  Q    E  E  Q    Q       E  E  Q    E  E  E  E     Q    E  E  E  E  E  E   
-----------------------|-------------------------|-------------------------|
-----------------------|-------------------------|-------------------------|
-----------------------|-------------------------|-------------------------|
-----------------------|-------------------------|-------------------------|
--3----3--3-------3----|--3--3-------3--2--0--0--|--0----------5-----5-----|
--3----3--3-------3----|--3--3-------3--2--0--0--|--0----0--0-----0-----0--|


  PM PM    PM    PM               PM PM    PM    PM    PM PM    PM    PM    PM  
  E  E  E  E  E  E  E  E     Q    E  E  E  E  E  E     E  E  E  E  E  E  E  E   
--------------------------|-------------------------|--------------------------|
--------------------------|-------------------------|--------------------------|
--------------------------|-------------------------|--------------------------|
--------7-----5-----------|-------------3-----3-----|--------5-----3-----------|
--------------------3--5--|--3----------------------|--------------------7-----|
--0--0-----0-----0--------|--3----3--3-----3-----3--|--3--3-----3-----3-----3--|


       PM PM    PM    PM    PM PM    PM    PM               PM PM            
  Q    E  E  E  E  E  E     E  E  E  E  E  E  E  E     Q    E  E  Q    Q     
-------------------------|--------------------------|-----------------------|
-------------------------|--------------------------|-----------------------|
-------------------------|--------------------------|-----------------------|
-------------------------|--------7-----5-----------|-----------------------|
--0----------5-----5-----|--------------------3--5--|--3----0--0-------3----|
--0----0--0-----0-----0--|--0--0-----0-----0--------|--3----0--0-------3----|


  PM PM      PM PM PM PM    TP           TP      TP       TP   TP    
  E  E  Q    E  E  E  E     H.           Q       H        Q    Q     
-------------------------|--------------------|---------------------|
-------------------------|--------------------|---------------------|
-------------------------|--------------------|-----------3---------|
-------------------------|--3------------5----|--7-------------7----|
--0--0-------3--2--0--0--|--------------------|---------------------|
--0--0-------3--2--0--0--|--------------------|---------------------|


  TP                  TP       TP          TP           TP    
  W                   H        H           H.           Q     
-------------------|--------------------|--------------------|
-------------------|--------------------|--------------------|
-------------------|--------------------|--------------------|
--5----------------|--0--------2--------|--3------------5----|
-------------------|--------------------|--------------------|
-------------------|--------------------|--------------------|


  TP       TP   TP      TP                  TP       TP        
  H        Q    Q       W                   H        H         
---------------------|-------------------|--------------------|
---------------------|-------------------|--------------------|
---------------------|--3----------------|--7--------5--------|
--7--------5----7----|-------------------|--------------------|
---------------------|-------------------|--------------------|
---------------------|-------------------|--------------------|


  TP           TP      TP       TP   TP      TP                
  H.           Q       H        Q    Q       W                 
--------------------|---------------------|-------------------|
--------------------|---------------------|-------------------|
--------------------|-----------3---------|-------------------|
--3------------5----|--7-------------7----|--5----------------|
--------------------|---------------------|-------------------|
--------------------|---------------------|-------------------|


  TP       TP          TP           TP      TP       TP   TP    
  H        H           H.           Q       H        Q    Q     
--------------------|--------------------|---------------------|
--------------------|--------------------|---------------------|
--------------------|--------------------|---------------------|
--0--------2--------|--3------------5----|--7--------5----7----|
--------------------|--------------------|---------------------|
--------------------|--------------------|---------------------|


  TP                                              PM PM    PM PM    PM  
  W                    H        H              E  E  E  E  E  E  E  E   
-------------------|----------------------||---------------------------|
-------------------|----------------------||---------------------------|
--3----------------|--/7--------5~--------||*--7--------7--------9-----|
-------------------|----------------------||*--------0--------0-----0--|
-------------------|----------------------||------0--------0-----------|
-------------------|----------------------||---------------------------|


      PM PM     PM PM     PM       PM PM    PM PM    PM  
   E  E  E   E  E  E   E  E     E  E  E  E  E  E  E  E   
-----------------------------|--------------------------|
-----------------------------|--------------------------|
--10--------12--------10-----|--9--------7--------5-----|
---------0---------0------0--|--------3--------3-----3--|
------3---------3------------|-----5--------5-----------|
-----------------------------|--------------------------|


     PM PM    PM PM    PM       PM PM    PM PM    PM  
  E  E  E  E  E  E  E  E     E  E  E  E  E  E  E  E   
--------------------------|--------------------------|
--------------------5-----|--------------------------|
--5--------7--------------|--7--------7--------9-----|
--------3--------3-----3--|--------0--------0-----0--|
-----5--------5-----------|-----3--------3-----------|
--------------------------|--------------------------|


     PM PM    PM PM    PM        PM PM      PM PM     PM  
  E  E  E  E  E  E  E  E     E   E  E   E   E  E   E  E   
--------------------------|------------------------------|
--6--------8--------6-----|--5---------------------------|
--------------------------|------------10---------12-----|
--------3--------3-----3--|---------8----------8------8--|
-----5--------5-----------|-----10---------10------------|
--------------------------|------------------------------|


       PM PM      PM PM     PM                                            
   E   E  E   E   E  E   E  E       W                   W                 
--------------------------------||-------------------|-------------------|
--11---------10---------10------||-------------------|-------------------|
-------------------------------*||-------------------|-------------------|
----------8----------8------8--*||--0----------------|--3----------------|
------10---------10-------------||--0----------------|--3----------------|
--------------------------------||--0----------------|--3----------------|


  W                   W                   W                   W                 
-------------------|-------------------|-------------------|-------------------|
-------------------|-------------------|-------------------|-------------------|
-------------------|-------------------|-------------------|-------------------|
--5----------------|--L----------------|--0----------------|--3----------------|
--5----------------|--L----------------|--0----------------|--3----------------|
--5----------------|--L----------------|--0----------------|--3----------------|


  W                   W                   W                   W                 
-------------------|-------------------|-------------------|-------------------|
-------------------|-------------------|-------------------|-------------------|
-------------------|-------------------|-------------------|-------------------|
--2----------------|--L----------------|--0----------------|--3----------------|
--2----------------|--L----------------|--0----------------|--3----------------|
--2----------------|--L----------------|--0----------------|--3----------------|


  W                   W                   W                   W                 
-------------------|-------------------|-------------------|-------------------|
-------------------|-------------------|-------------------|-------------------|
-------------------|-------------------|-------------------|-------------------|
--5----------------|--L----------------|--0----------------|--3----------------|
--5----------------|--L----------------|--0----------------|--3----------------|
--5----------------|--L----------------|--0----------------|--3----------------|


                                        TP           TP    
  W                    H.               H.           Q     
-------------------|-----------------|--------------------|
-------------------|-----------------|--------------------|
-------------------|-----------------|--------------------|
--2----------------|--10\------------|--3------------5----|
--2----------------|--10\------------|--------------------|
--2----------------|--10\------------|--------------------|


  TP       TP   TP      TP                  TP       TP        
  H        Q    Q       W                   H        H         
---------------------|-------------------|--------------------|
---------------------|-------------------|--------------------|
-----------3---------|-------------------|--------------------|
--7-------------7----|--5----------------|--0--------2--------|
---------------------|-------------------|--------------------|
---------------------|-------------------|--------------------|


  TP           TP      TP       TP   TP      TP                
  H.           Q       H        Q    Q       W                 
--------------------|---------------------|-------------------|
--------------------|---------------------|-------------------|
--------------------|---------------------|--3----------------|
--3------------5----|--7--------5----7----|-------------------|
--------------------|---------------------|-------------------|
--------------------|---------------------|-------------------|


  TP       TP          TP           TP      TP       TP   TP    
  H        H           H.           Q       H        Q    Q     
--------------------|--------------------|---------------------|
--------------------|--------------------|---------------------|
--7--------5--------|--------------------|-----------3---------|
--------------------|--3------------5----|--7-------------7----|
--------------------|--------------------|---------------------|
--------------------|--------------------|---------------------|


  TP                  TP       TP          TP           TP    
  W                   H        H           H.           Q     
-------------------|--------------------|--------------------|
-------------------|--------------------|--------------------|
-------------------|--------------------|--------------------|
--5----------------|--0--------2--------|--3------------5----|
-------------------|--------------------|--------------------|
-------------------|--------------------|--------------------|


  TP       TP   TP      TP                                       
  H        Q    Q       W                    H        H          
---------------------|-------------------|----------------------|
---------------------|-------------------|----------------------|
---------------------|--3----------------|--/7--------5~--------|
--7--------5----7----|-------------------|----------------------|
---------------------|-------------------|----------------------|
---------------------|-------------------|----------------------|


     PM PM PM    PM               PM PM PM    PM          
  E  E  E  E  E  E  E   E      E  E  E  E  E  E   E   E   
---------------------------|-----------------------------|
---------------------------|-----------------------------|
---------------------------|-----------------------------|
---------------------------|-----------------------------|
--8-----------8-----8--10--|--12-----------5-----12--10--|
-----0--0--0-----0---------|------0--0--0-----0----------|


     PM PM PM    PM                PM     PM                 
  E  E  E  E  E  E   E   E      E  E   E  E   E   E   E  E   
----------------------------|-------------------------------|
----------------------------|-------------------------------|
----------------------------|-------------------------------|
----------------------------|-------------------------------|
--7-----------7-----13--12--|--10-----10-----10--12--10--7--|
-----0--0--0-----0----------|------0------0-----------------|


     PM PM PM    PM               PM PM PM    PM          
  E  E  E  E  E  E  E   E      E  E  E  E  E  E   E   E   
---------------------------|-----------------------------|
---------------------------|-----------------------------|
---------------------------|-----------------------------|
---------------------------|-----------------------------|
--8-----------8-----8--10--|--12-----------5-----12--10--|
-----0--0--0-----0---------|------0--0--0-----0----------|


     PM PM PM    PM                PM     PM                 
  E  E  E  E  E  E   E   E      E  E   E  E   E   E   E  E   
----------------------------|-------------------------------|
----------------------------|-------------------------------|
----------------------------|-------------------------------|
----------------------------|-------------------------------|
--7-----------7-----13--12--|--10-----10-----10--12--10--7--|
-----0--0--0-----0----------|------0------0-----------------|


       PM PM    PM    PM    PM PM    PM    PM               PM PM    PM    PM  
  Q    E  E  E  E  E  E     E  E  E  E  E  E  E  E     Q    E  E  E  E  E  E   
-------------------------|--------------------------|-------------------------|
-------------------------|--------------------------|-------------------------|
-------------------------|--------------------------|-------------------------|
-------------------------|--------------------------|-------------3-----3-----|
--0----------5-----5-----|--------8-----7-----3--5--|--3----------------------|
--0----0--0-----0-----0--|--0--0-----0-----0--------|--3----3--3-----3-----3--|


  PM PM    PM    PM    PM         PM PM    PM    PM    PM PM    PM    PM        
  E  E  E  E  E  E  E  E     Q    E  E  E  E  E  E     E  E  E  E  E  E  E  E   
--------------------------|-------------------------|--------------------------|
--------------------------|-------------------------|--------------------------|
--------------------------|-------------------------|--------------------------|
--------5-----3-----------|-------------------------|--------------------------|
--------------------7-----|--0----------5-----5-----|--------8-----7-----3--5--|
--3--3-----3-----3-----3--|--0----0--0-----0-----0--|--0--0-----0-----0--------|


       PM PM              PM PM      PM PM PM PM         PM PM    PM    PM  
  Q    E  E  Q    Q       E  E  Q    E  E  E  E     Q    E  E  E  E  E  E   
-----------------------|-------------------------|-------------------------|
-----------------------|-------------------------|-------------------------|
-----------------------|-------------------------|-------------------------|
-----------------------|-------------------------|-------------------------|
--3----3--3-------3----|--3--3-------3--2--0--0--|--0----------5-----5-----|
--3----3--3-------3----|--3--3-------3--2--0--0--|--0----0--0-----0-----0--|


  PM PM    PM    PM               PM PM    PM    PM    PM PM    PM    PM    PM  
  E  E  E  E  E  E  E  E     Q    E  E  E  E  E  E     E  E  E  E  E  E  E  E   
--------------------------|-------------------------|--------------------------|
--------------------------|-------------------------|--------------------------|
--------------------------|-------------------------|--------------------------|
--------7-----5-----------|-------------3-----3-----|--------5-----3-----------|
--------------------3--5--|--3----------------------|--------------------7-----|
--0--0-----0-----0--------|--3----3--3-----3-----3--|--3--3-----3-----3-----3--|


       PM PM    PM    PM    PM PM    PM    PM               PM PM            
  Q    E  E  E  E  E  E     E  E  E  E  E  E  E  E     Q    E  E  Q    Q     
-------------------------|--------------------------|-----------------------|
-------------------------|--------------------------|-----------------------|
-------------------------|--------------------------|-----------------------|
-------------------------|--------7-----5-----------|-----------------------|
--0----------5-----5-----|--------------------3--5--|--3----3--3-------3----|
--0----0--0-----0-----0--|--0--0-----0-----0--------|--3----3--3-------3----|


  PM PM      PM PM PM PM    PM PM PM PM PM PM PM PM PM PM PM PM PM PM PM PM  
  E  E  Q    E  E  E  E     S  S  S  S  S  S  S  S  S  S  S  S  S  S  S  S   
-------------------------|--------------------------------------------------|
-------------------------|--------------------------------------------------|
-------------------------|--------------------------------------------------|
-------------------------|--------------------------------------------------|
--3--3-------3--2--0--0--|--------------------------------------------------|
--3--3-------3--2--0--0--|--0--0--0--0--0--0--0--0--0--0--0--0--0--0--0--0--|


                        PM PM PM PM PM PM PM PM PM PM PM PM PM PM PM PM  
  E  E  H.              S  S  S  S  S  S  S  S  S  S  S  S  S  S  S  S   
---------------------|--------------------------------------------------|
---------------------|--------------------------------------------------|
---------------------|--------------------------------------------------|
---------------------|--------------------------------------------------|
--0------------------|--------------------------------------------------|
--0------------------|--0--0--0--0--0--0--0--0--0--0--0--0--0--0--0--0--|


                        PM PM PM PM PM PM PM PM PM PM PM PM PM PM PM PM  
  E  E  H.              S  S  S  S  S  S  S  S  S  S  S  S  S  S  S  S   
---------------------|--------------------------------------------------|
---------------------|--------------------------------------------------|
---------------------|--------------------------------------------------|
---------------------|--------------------------------------------------|
--0------------------|--------------------------------------------------|
--0------------------|--0--0--0--0--0--0--0--0--0--0--0--0--0--0--0--0--|


  PM                    PM PM PM PM PM PM PM PM PM PM PM PM PM PM PM PM  
  E  E  H.              S  S  S  S  S  S  S  S  S  S  S  S  S  S  S  S   
---------------------|--------------------------------------------------|
---------------------|--------------------------------------------------|
---------------------|--------------------------------------------------|
---------------------|--------------------------------------------------|
--0------------------|--------------------------------------------------|
--0------------------|--0--0--0--0--0--0--0--0--0--0--0--0--0--0--0--0--|


  PM                    PM PM PM PM PM PM PM PM PM PM PM PM PM PM PM PM  
  E  E  H.              S  S  S  S  S  S  S  S  S  S  S  S  S  S  S  S   
---------------------|--------------------------------------------------|
---------------------|-------------------------------------------
comments
We did not receive enough feedback on this tab! Please rate:
1 2 3 4 5
6 comments total. Showing first comments.
0 reply
penguinkiller72 wrote on November 25 2007, 01:56 pm

wow wtf? all the notes r mostly right...but the frickin tuning is in D standard!!! and how is that bridge or middle
section or whatever possible?! what, its going from 3rd to 12th fret? with an open note in between? jesus christ. Lou
from guitar hero 3 on expert couldnt play that crap! lol and this tab is identicle to the damn guitar pro tab. maybe the
guy tabbed it right and accidently transposed it?!

+1 reply
Space frog wrote on November 26 2007, 07:04 pm

Actually, I'm the one who did the Guitar Pro tab. And about the bridge, I can do it, and you might be able if you
transpose some notes on the strings above. For the Drop D tuning, I play ATR songs Drop D cuz I don't like changing
tuning all the time, so I tabbed the song Drop D.

0 reply
Mashman wrote on November 29 2007, 10:52 am

Thats lame.

I want to post or [tab]
guest
You may want to rate the tab now too:
select rating
Please do not post tabs as comments. Select "correction" instead!