Oops, an error
Loading. Please wait.

Empty Inside Tab

ver5
ver5
More versions @911Tabs.com
20,566 views 12 this week
4 commentsread comments
1 2 3 4 5
excellent!
x 10
Autoscroll
+/-
esc
set tempo
stop
Contributor
Hey! There's an official Ultimate Guitar app which is ideal
for learning songs when you're away from computer. Get the app
WARNING: You are trying to view
                                    content from Ultimate-Guitar.com
                                    in an unauthorized application,
                                    which is prohibited.

                                    Please use an official Ultimate
                                    Guitar Tabs application for iPhone,
                                    iPad or Android to access legitimate
                                    chords, guitar, bass, and drum tabs
                                    from Ultimate-Guitar.com database.

                                    Type "ultimate guitar tabs" in Apple
                                    App Store's or Android Market's
                                    search to find the application.
-------------------------------------------------------------------------------
                           "Empty Inside" --- All That Remains
-------------------------------------------------------------------------------


Tabbed by: [travis]


Key: G Major = G A B C D E F#


Tuning: Drop D Standard = D G C F A D (low to high)


Legend:

... = palm mute
h = hammer on
p = pull off
b = bend
__ = hold bend
~ = vibrato
.5 = half step bend
1 = whole step bend
* = pinch harmonic
() = bent note brought back to normal / note not picked
! = tremelo pick
/ = slide up
\ = slide down
h/ = pick once
p\ = pick once
h/p\ = pick once
p\h/ = pick once


==============================
Intro:

Guitars 1 and 2:
D|--------------------------------------------------------------------------|
A|--------------------------------------------------------------------------|
F|--------------------------------------------------------------------------|
C|--------------------------------------------------------------------------| x2
G|-7-------7---7-9-10-----------10-9---------------12-10-9---9---9-10-------|
D|---0-0-0---0--------0-0-0-8-0------10-0-0-0-10-0---------0---0------12-10-|
     .....   .        .....   .         .....    .         .   .   


===============================
Guitar 1:
D|--------------------------------------------------------------------------|
A|--------------------------------------------------------------------------|
F|--------------------------------------------------------------------------|
C|--------------------------------------------------------------------------| x2
G|-7-------7---7-9-10-----------10-9---------------12-10-9---9---9-10-------|
D|---0-0-0---0--------0-0-0-8-0------10-0-0-0-10-0---------0---0------12-10-|
     .....   .        .....   .         .....    .         .   .

Guitar 2:
D|-------------------------------------------------------------------|
A|-------------------------------------------------------------------|
F|-------------------------------------------------------------------|
C|-5-----------5-7-9-----------9-7-------------10-9-7---7---7-9------| x2
G|---------7---------------7-------9-------9--------------------10-9-|
D|---0-0-0---0-------0-0-0---0-------0-0-0---0--------0---0----------|
     .....   .       .....   .       .....   .        .   . 

End of Intro.
================================
Verse 1:

Guitars 1 and 2:
D|-----------------------------------------------------------------------------------------------|
A|-----------------------------------------------------------------------------------------------|
F|-----------------------------------------------------------------------------------------------|
C|-2------2---2-------5---4--------5-----5---5-------7---5---4----2------2---2-------5---4-------|
G|-2--------------------------2h5--5------------------------------2--------------------------2h5-|
D|-0--0-0---0---0-0-0---0---0------3-3-3---3---3-3-3---3---3---3--0--0-0---0---0-0-0---0---0-----|
      ...   .   .....   .   .        ...   .   .....   .   .   .     ...   .   .....   .   .

================================
Guitars 1 and 2:
D|-------------------------------|
A|-------------------------------|
F|-------------------------------|
C|-5----------5------------------|
G|-5--5-5-----5--5-5-----5-4-2-4-|
D|-3--3-3-----3--3-3-----3-2-0-2-|
      ...        ...     .......

=================================
Guitar 1:
D|------------------------------------------------------------------------------|
A|------------------------------------------------------------------------------|
F|------------------------------------------------------------------------------|
C|-2------2---2-------5---4--------5------5---5-------7---5---4----2------2---2-|
G|-2--------------------------2h5--5-------------------------------2------------|
D|-0--0-0---0---0-0-0---0---0------3--3-3---3---3-3-3---3---3---3--0--0-0---0---|
      ...   .   .....   .   .         ...   .   .....   .   .   .     ...   .

Guitar 2:
D|------------------------------------------------------------------------------|
A|------------------------------------------------------------------------------|
F|--------------------4---2-----------------------------------------------------|
C|-2------2---2--------------------5------5---5-------7---5---4----2------2---2-|
G|-2--------------------------2h5--5-------------------------------2------------|
D|-0--0-0---0---0-0-0---0---0------3--3-3---3---3-3-3---3---3---3--0--0-0---0---|
      ...   .   .....   .   .         ...   .   .....   .   .   .     ...   .

==================================
Guitar 1:
D|------------------------------------------------|
A|------------------------------------------------|
F|------------------------------------------------|
C|-------5---4--------5---------5-----------------|
G|---------------2h5--5--5-5----5--5-5----5-4-2-4-|
D|-0-0-0---0---0------3--3-3----3--3-3----3-2-0-2-|
   .....   .   .         ...       ...    .......

Guitar 2:
D|------------------------------------------------|
A|------------------------------------------------|
F|-------4---2------------------------------------|
C|--------------------5---------5-----------------|
G|---------------2h5--5--5-5----5--5-5----5-4-2-4-|
D|-0-0-0---0---0------3--3-3----3--3-3----3-2-0-2-|
   .....   .   .         ...       ...    .......

End of Verse 1.
===================================
Chorus 1:

Guitar 1:
D|------------------------------------------------------------------------|
A|------------------------------------------------------------------------|
F|------------------------------------------------------------------------|
C|-------------------------7!---------------------------------------------|
G|-7!--------9!---10!-----------10!----9!------------------------7!----9!-|
D|-------------------------------------------------8!-----10!-------------|

Guitar 2:
D|-------------------------------------------------------------------------|
A|-------------------------------------------------------------------------|
F|-------------------------------------------------------------------------|
C|-----------7!---9!-------10!----9!---7!-------------------------------7!-|
G|-10!----------------------------------------------7!-----9!----10!-------|
D|-------------------------------------------------------------------------|

Guitar 3:
D|-----------------3~~~----------------------------------------------------|
A|-----------------3~~~----------------------------------------------------|
F|-----------------0~~~-----------------7~~~---------------7~~~------------|
C|-2~~~------------0~~~-----------------7~~~--------5~~~---7~~~---2~~~-----|
G|-2~~~------------x--------------------5~~~--------3~~~---5~~~---2~~~-----|
D|-0~~~------------3~~~-----------------------------3~~~----------0~~~-----|

====================================
Guitar 1:
D|--------------------------------------------------------|
A|--------------------------------------------------------|
F|--------------------------------------------------------|
C|--------------------------------9!----10!--------9!-----|
G|-10!------9!--10!-----12!-------------------------------|
D|--------------------------------------------------------|

Guitar 2:
D|--------------------------------------------------------|
A|--------------------------------------------------------|
F|--------------------------------7!-----9!--------7!-----|
C|-9!-------7!---9!------10!------------------------------|
G|--------------------------------------------------------|
D|--------------------------------------------------------|

Guitar 3:
D|-3~~~---------------------------------------------------|
A|-3~~~---------------------------------------------------|
F|-0~~~------------------2~~~-----------------------------|
C|-0~~~------------------2~~~-------------5~~~------4~~~--|
G|-x---------------------0~~~-------------3~~~------2~~~--|
D|-3~~~-----------------------------------3~~~------2~~~--|

End of Chorus 1.
======================================
Verse 2:

Guitars 1 and 2:
D|-----------------------------------------------------------------------------------------------|
A|-----------------------------------------------------------------------------------------------|
F|-----------------------------------------------------------------------------------------------|
C|-2------2---2-------5---4--------5-----5---5-------7---5---4----2------2---2-------5---4-------|
G|-2--------------------------2h5--5------------------------------2--------------------------2h5-|
D|-0--0-0---0---0-0-0---0---0------3-3-3---3---3-3-3---3---3---3--0--0-0---0---0-0-0---0---0-----|
      ...   .   .....   .   .        ...   .   .....   .   .   .     ...   .   .....   .   .

================================
Guitars 1 and 2:
D|-------------------------------|
A|-------------------------------|
F|-------------------------------|
C|-5----------5------------------|
G|-5--5-5-----5--5-5-----5-4-2-4-|
D|-3--3-3-----3--3-3-----3-2-0-2-|
      ...        ...     .......

=================================
Guitar 1:
D|------------------------------------------------------------------------------|
A|------------------------------------------------------------------------------|
F|------------------------------------------------------------------------------|
C|-2------2---2-------5---4--------5------5---5-------7---5---4----2------2---2-|
G|-2--------------------------2h5--5-------------------------------2------------|
D|-0--0-0---0---0-0-0---0---0------3--3-3---3---3-3-3---3---3---3--0--0-0---0---|
      ...   .   .....   .   .         ...   .   .....   .   .   .     ...   .

Guitar 2:
D|------------------------------------------------------------------------------|
A|------------------------------------------------------------------------------|
F|--------------------4---2-----------------------------------------------------|
C|-2------2---2--------------------5------5---5-------7---5---4----2------2---2-|
G|-2--------------------------2h5--5-------------------------------2------------|
D|-0--0-0---0---0-0-0---0---0------3--3-3---3---3-3-3---3---3---3--0--0-0---0---|
      ...   .   .....   .   .         ...   .   .....   .   .   .     ...   .

==================================
Guitar 1:
D|------------------------------------------------|
A|------------------------------------------------|
F|------------------------------------------------|
C|-------5---4--------5---------5-----------------|
G|---------------2h5--5--5-5----5--5-5----5-4-2-4-|
D|-0-0-0---0---0------3--3-3----3--3-3----3-2-0-2-|
   .....   .   .         ...       ...    .......

Guitar 2:
D|------------------------------------------------|
A|------------------------------------------------|
F|-------4---2------------------------------------|
C|--------------------5---------5-----------------|
G|---------------2h5--5--5-5----5--5-5----5-4-2-4-|
D|-0-0-0---0---0------3--3-3----3--3-3----3-2-0-2-|
   .....   .   .         ...       ...    .......

End of Verse 2.
===================================
Chorus 2:

Guitar 1:
D|------------------------------------------------------------------------|
A|------------------------------------------------------------------------|
F|------------------------------------------------------------------------|
C|-------------------------7!---------------------------------------------|
G|-7!--------9!---10!-----------10!----9!------------------------7!----9!-|
D|-------------------------------------------------8!-----10!-------------|

Guitar 2:
D|-------------------------------------------------------------------------|
A|-------------------------------------------------------------------------|
F|-------------------------------------------------------------------------|
C|-----------7!---9!-------10!----9!---7!-------------------------------7!-|
G|-10!----------------------------------------------7!-----9!----10!-------|
D|-------------------------------------------------------------------------|

Guitar 3:
D|-----------------3~~~----------------------------------------------------|
A|-----------------3~~~----------------------------------------------------|
F|-----------------0~~~-----------------7~~~---------------7~~~------------|
C|-2~~~------------0~~~-----------------7~~~--------5~~~---7~~~---2~~~-----|
G|-2~~~------------x--------------------5~~~--------3~~~---5~~~---2~~~-----|
D|-0~~~------------3~~~-----------------------------3~~~----------0~~~-----|

====================================
Guitar 1:
D|--------------------------------------------------------|
A|--------------------------------------------------------|
F|--------------------------------------------------------|
C|--------------------------------9!----10!--------9!-----|
G|-10!------9!--10!-----12!-------------------------------|
D|--------------------------------------------------------|

Guitar 2:
D|--------------------------------------------------------|
A|--------------------------------------------------------|
F|--------------------------------7!-----9!--------7!-----|
C|-9!-------7!---9!------10!------------------------------|
G|--------------------------------------------------------|
D|--------------------------------------------------------|

Guitar 3:
D|-3~~~---------------------------------------------------|
A|-3~~~---------------------------------------------------|
F|-0~~~------------------2~~~-----------------------------|
C|-0~~~------------------2~~~-------------5~~~------4~~~--|
G|-x---------------------0~~~-------------3~~~------2~~~--|
D|-3~~~-----------------------------------3~~~------2~~~--|

====================================
Guitar 1:
D|------------------------------------------------------------------------|
A|------------------------------------------------------------------------|
F|------------------------------------------------------------------------|
C|-------------------------7!---------------------------------------------|
G|-7!--------9!---10!-----------10!----9!------------------------7!----9!-|
D|-------------------------------------------------8!-----10!-------------|

Guitar 2:
D|-------------------------------------------------------------------------|
A|-------------------------------------------------------------------------|
F|-------------------------------------------------------------------------|
C|-----------7!---9!-------10!----9!---7!-------------------------------7!-|
G|-10!----------------------------------------------7!-----9!----10!-------|
D|-------------------------------------------------------------------------|


Guitar 3:
D|-----------------3~~~----------------------------------------------------|
A|-----------------3~~~----------------------------------------------------|
F|-----------------0~~~-----------------7~~~---------------7~~~------------|
C|-2~~~------------0~~~-----------------7~~~--------5~~~---7~~~---2~~~-----|
G|-2~~~------------x--------------------5~~~--------3~~~---5~~~---2~~~-----|
D|-0~~~------------3~~~-----------------------------3~~~----------0~~~-----|


====================================
Guitar 1:
                                               .5______
D|-------------------------------------------------------------|
A|-------------------------------------------------------------|
F|-------------------------------------------------------------|
C|--------------------------------9!---/10-----9b------(9)~~~~~|
G|-10!------9!--10!-----12!------------------------------------|
D|-------------------------------------------------------------|

Guitar 2:
                                                1______
D|-------------------------------------------------------------|
A|-------------------------------------------------------------|
F|--------------------------------7!----/9-----7b------(7)~~~~~|
C|-9!-------7!---9!------10!-----------------------------------|
G|-------------------------------------------------------------|
D|-------------------------------------------------------------|


Guitar 3:
D|-3~~~---------------------------|
A|-3~~~---------------------------|
F|-0~~~------------------2~~~-----|
C|-0~~~------------------2~~~-----|
G|-x---------------------0~~~-----|
D|-3~~~---------------------------|

End of Chorus 2.
======================================
Pre Guitar Solo:

Guitar 1:
D|---------------------------------------------------------------------------|
A|---------------------------------------------------------------------------|
F|-9-----9-----11---12------14-------12---11-----9-----7----7-----9-----11---|
C|---5-----5------7----9-------10-------9----7-----7-----7----7-----7------7-|
G|-----7-----7-----------10-------12-----------9-----9----------9-----9------|
D|---------------------------------------------------------------------------|
   .........................................................................


Guitar 2:
D|----------------------------------------------------------------------|
A|----------------------------------------------------------------------|
F|----------------------------------------------------------------------|
C|-9-----9-----11---14-------10-----9---7-----9-----7---7-----5-----7---|
G|---7-----7------9----10-------7-----7---5-----5-----5---5-----5-----5-|
D|-----7-----7------------12------8---------5-----5---------5-----5-----|
   ....................................................................

Guitar 3:
D|--------------------3~~~---------------------------------------|
A|--------------------3~~~---------------------------------------|
F|--------------------0~~~----------------7~~~~~~~~~~~~~~~~~~~---|
C|-2~~~---------------0~~~----------------7~~~~~~~~~~~~~~~~~~~---|
G|-2~~~---------------x-------------------5~~~~~~~~~~~~~~~~~~~---|
D|-0~~~---------------3~~~---------------------------------------|

======================================
Guitar 1:
D|--------------------------------------------------------------------------------------|
A|--------------------------------------------------------------------------------------|
F|-9-----9-----11---12------11-----12---14-------14-------16----17-------16-------16----|
C|---5-----5------7----9-------7------9----10-------10-------12----14-------14-------14-|
G|-----7-----7-----------10------9------------12-------12-------------15-------15-------|
D|--------------------------------------------------------------------------------------|
   ....................................................................................

Guitar 2:
D|--------------------------------------------------------------------------------|
A|--------------------------------------------------------------------------------|
F|--------------------------------------------------------------------------------|
C|-9-----9-----11---14-------7-----9---10-----10-----12---14-------12-------12----|
G|---7-----7------9----10------5-----5----7------7------9----10-------10-------10-|
D|-----7-----7------------12-----5----------8------8------------12-------12-------|
   ..............................................................................

Guitar 3:
D|-------------------3~~~-------------------------------|
A|-------------------3~~~-------------------------------|
F|-------------------0~~~----------------2~~~~~~~~~~~---|
C|-2~~~--------------0~~~----------------2~~~~~~~~~~~---|
G|-2~~~--------------x-------------------0~~~~~~~~~~~---|
D|-0~~~--------------3~~~-------------------------------|

======================================
Guitar 1:
D|---------------------------------------------------------------------------|
A|---------------------------------------------------------------------------|
F|-9-----9-----11---12------14-------12---11-----9-----7----7-----9-----11---|
C|---5-----5------7----9-------10-------9----7-----7-----7----7-----7------7-|
G|-----7-----7-----------10-------12-----------9-----9----------9-----9------|
D|---------------------------------------------------------------------------|
   .........................................................................


Guitar 2:
D|----------------------------------------------------------------------|
A|----------------------------------------------------------------------|
F|----------------------------------------------------------------------|
C|-9-----9-----11---14-------10-----9---7-----9-----7---7-----5-----7---|
G|---7-----7------9----10-------7-----7---5-----5-----5---5-----5-----5-|
D|-----7-----7------------12------8---------5-----5---------5-----5-----|
   ....................................................................

Guitar 3:
D|--------------------3~~~---------------------------------------|
A|--------------------3~~~---------------------------------------|
F|--------------------0~~~----------------7~~~~~~~~~~~~~~~~~~~---|
C|-2~~~---------------0~~~----------------7~~~~~~~~~~~~~~~~~~~---|
G|-2~~~---------------x-------------------5~~~~~~~~~~~~~~~~~~~---|
D|-0~~~---------------3~~~---------------------------------------|

=======================================
Guitar 1:
D|--------------------------------------------------------------------------------------|
A|--------------------------------------------------------------------------------------|
F|-9-----9-----11---12------11-----12---14-------14-------16----17-------16-------16----|
C|---5-----5------7----9-------7------9----10-------10-------12----14-------14-------14-|
G|-----7-----7-----------10------9------------12-------12-------------15-------15-------|
D|--------------------------------------------------------------------------------------|
   ....................................................................................

Guitar 2:
D|--------------------------------------------------------------------------------|
A|--------------------------------------------------------------------------------|
F|--------------------------------------------------------------------------------|
C|-9-----9-----11---14-------7-----9---10-----10-----12---14-------12-------12----|
G|---7-----7------9----10------5-----5----7------7------9----10-------10-------10-|
D|-----7-----7------------12-----5----------8------8------------12-------12-------|
   ..............................................................................

Guitar 3:
D|-------------------3~~~-------------------------------|
A|-------------------3~~~-------------------------------|
F|-------------------0~~~----------------2~~~~~~~~~~~---|
C|-2~~~--------------0~~~----------------2~~~~~~~~~~~---|
G|-2~~~--------------x-------------------0~~~~~~~~~~~---|
D|-0~~~--------------3~~~-------------------------------|

=======================================
Guitar Solo:

Guitar 1:
     1______________                                    1_____
D|----------------------------------------------------------------------|
A|-15b~~~~~~~~~15--(15)~~~~~~~~13h15p13-13p\8-8h10p8-10*b~~~~(10)~~~~~~~|
F|----------------------------------------------------------------------|
C|----------------------------------------------------------------------|
G|----------------------------------------------------------------------|
D|----------------------------------------------------------------------|

Guitar 1:
D|-------------------------------------------------------------------------------------------------|
A|-------------------------------------------------------------------------------------------------|
F|-11p\9-9-9-9h/11-11h/12--12p\11-11-11-11h/12-12h/14----------------------------------------------|
C|--x--x-x-x-x---x--x---x---x---x--x--x--x---x--x---x-----------------------19-19-17-17------------|
G|--9p\7-7-7-7h/-9--9h/10--10p\-9--9--9--9h/10-10h/12------------19-19-17-17-----------19-19-17-17-|
D|----------------------------------------------------19-19-17-17----------------------------------|
                                                      ............................................

Guitar 1:
                                    1__________________
D|--------------------------------------------------------------------------------|
A|-----------------------17~~~~~~--------------15---------------------------------|
F|------------17-17-16-16--------14*b~~~~~~~~~~---14~~~(14)-14--12h14p12p11~~~~~~~|
C|-19-19-17-17--------------------------------------------------------------------|
G|--------------------------------------------------------------------------------|
D|--------------------------------------------------------------------------------|
   ...........

Guitar 1:
                                                 .5___
D|-------------------------------------------------------------|
A|-12h15p12----12h13p12----12h13h15-12~~~~~~~~(12)b--(12)~~~~~~|
F|----------14----------14-------------------------------------|
C|-------------------------------------------------------------|
G|-------------------------------------------------------------|
D|-------------------------------------------------------------|

Guitar 1:
D|-19-17-15-15-----------19-17-15-15---------------------------------------------------------|
A|------------19-17-15-15-----------19-17-15-15-19-17-15-15-----------19-17-15-15------------|
F|---------------------------------------------------------19-17-16-16-----------19-17-16-16-|
C|-------------------------------------------------------------------------------------------|
G|-------------------------------------------------------------------------------------------|
D|-------------------------------------------------------------------------------------------|

Guitar 1:
D|------------------------------------------------------------------------------|
A|--------------------------------------------------------19-17-15-15-17~~~~~~~~|
F|-19-17-16-16-----------19-17-16-16-----------19-17-16-16----------------------|
C|------------19-17-16-16-----------19-17-16-16---------------------------------|
G|------------------------------------------------------------------------------|
D|------------------------------------------------------------------------------|


Guitar 2:
D|--------------------3~~~---------------------------------------|
A|--------------------3~~~---------------------------------------|
F|--------------------0~~~----------------7~~~~~~~~~~~~~~~~~~~---|
C|-2~~~---------------0~~~----------------7~~~~~~~~~~~~~~~~~~~---|
G|-2~~~---------------x-------------------5~~~~~~~~~~~~~~~~~~~---|
D|-0~~~---------------3~~~---------------------------------------|
                             |
                             |
                             |--x2
Guitar 2:                    |
D|-------------------3~~~-------------------------------|
A|-------------------3~~~-------------------------------|
F|-------------------0~~~----------------2~~~~~~~~~~~---|
C|-2~~~--------------0~~~----------------2~~~~~~~~~~~---|
G|-2~~~--------------x-------------------0~~~~~~~~~~~---|
D|-0~~~--------------3~~~-------------------------------|

==========================================================
Chorus 3:

Guitar 1:
D|------------------------------------------------------------------------|
A|------------------------------------------------------------------------|
F|------------------------------------------------------------------------|
C|-------------------------7!---------------------------------------------|
G|-7!--------9!---10!-----------10!----9!------------------------7!----9!-|
D|-------------------------------------------------8!-----10!-------------|

Guitar 2:
D|-------------------------------------------------------------------------|
A|-------------------------------------------------------------------------|
F|-------------------------------------------------------------------------|
C|-----------7!---9!-------10!----9!---7!-------------------------------7!-|
G|-10!----------------------------------------------7!-----9!----10!-------|
D|-------------------------------------------------------------------------|

Guitar 3:
D|-----------------3~~~----------------------------------------------------|
A|-----------------3~~~----------------------------------------------------|
F|-----------------0~~~-----------------7~~~---------------7~~~------------|
C|-2~~~------------0~~~-----------------7~~~--------5~~~---7~~~---2~~~-----|
G|-2~~~------------x--------------------5~~~--------3~~~---5~~~---2~~~-----|
D|-0~~~------------3~~~-----------------------------3~~~----------0~~~-----|

====================================
Guitar 1:
D|--------------------------------------------------------|
A|--------------------------------------------------------|
F|--------------------------------------------------------|
C|--------------------------------9!----10!--------9!-----|
G|-10!------9!--10!-----12!-------------------------------|
D|--------------------------------------------------------|

Guitar 2:
D|--------------------------------------------------------|
A|--------------------------------------------------------|
F|--------------------------------7!-----9!--------7!-----|
C|-9!-------7!---9!------10!------------------------------|
G|--------------------------------------------------------|
D|--------------------------------------------------------|

Guitar 3:
D|-3~~~---------------------------------------------------|
A|-3~~~---------------------------------------------------|
F|-0~~~------------------2~~~-----------------------------|
C|-0~~~------------------2~~~-------------5~~~------4~~~--|
G|-x---------------------0~~~-------------3~~~------2~~~--|
D|-3~~~-----------------------------------3~~~------2~~~--|

====================================
Guitar 1:
D|------------------------------------------------------------------------|
A|------------------------------------------------------------------------|
F|------------------------------------------------------------------------|
C|-------------------------7!---------------------------------------------|
G|-7!--------9!---10!-----------10!----9!------------------------7!----9!-|
D|-------------------------------------------------8!-----10!-------------|

Guitar 2:
D|-------------------------------------------------------------------------|
A|-------------------------------------------------------------------------|
F|-------------------------------------------------------------------------|
C|-----------7!---9!-------10!----9!---7!-------------------------------7!-|
G|-10!----------------------------------------------7!-----9!----10!-------|
D|-------------------------------------------------------------------------|


Guitar 3:
D|-----------------3~~~----------------------------------------------------|
A|-----------------3~~~----------------------------------------------------|
F|-----------------0~~~-----------------7~~~---------------7~~~------------|
C|-2~~~------------0~~~-----------------7~~~--------5~~~---7~~~---2~~~-----|
G|-2~~~------------x--------------------5~~~--------3~~~---5~~~---2~~~-----|
D|-0~~~------------3~~~-----------------------------3~~~----------0~~~-----|


====================================
Guitar 1:
                                               .5______
D|-------------------------------------------------------------|
A|-------------------------------------------------------------|
F|-------------------------------------------------------------|
C|--------------------------------9!---/10-----9b------(9)~~~~~|
G|-10!------9!--10!-----12!------------------------------------|
D|-------------------------------------------------------------|

Guitar 2:
                                                1______
D|-------------------------------------------------------------|
A|-------------------------------------------------------------|
F|--------------------------------7!----/9-----7b------(7)~~~~~|
C|-9!-------7!---9!------10!-----------------------------------|
G|-------------------------------------------------------------|
D|-------------------------------------------------------------|


Guitar 3:
D|-3~~~---------------------------|
A|-3~~~---------------------------|
F|-0~~~------------------2~~~-----|
C|-0~~~------------------2~~~-----|
G|-x---------------------0~~~-----|
D|-3~~~---------------------------|

End of Chorus 3.
=====================================================
Interlude 2:

Guitar 1:
D|--------------------------------------------------------------------------|
A|--------------------------------------------------------------------------|
F|--------------------------------------------------------------------------|
C|--------------------------------------------------------------------------| x2
G|-7-------7---7-9-10-----------10-9---------------12-10-9---9---9-10-------|
D|---0-0-0---0--------0-0-0-8-0------10-0-0-0-10-0---------0---0------12-10-|
     .....   .        .....   .         .....    .         .   .

Guitar 2:
D|-------------------------------------------------------------------|
A|-------------------------------------------------------------------|
F|-------------------------------------------------------------------|
C|-5-----------5-7-9-----------9-7-------------10-9-7---7---7-9------| x2
G|---------7---------------7-------9-------9--------------------10-9-|
D|---0-0-0---0-------0-0-0---0-------0-0-0---0--------0---0----------|
     .....   .       .....   .       .....   .        .   . 


======================================================
Verse 3:

Guitars 1 and 2:
D|-----------------------------------------------------------------------------------------------|
A|-----------------------------------------------------------------------------------------------|
F|-----------------------------------------------------------------------------------------------|
C|-2------2---2-------5---4--------5-----5---5-------7---5---4----2------2---2-------5---4-------|
G|-2--------------------------2h5--5------------------------------2--------------------------2h5-|
D|-0--0-0---0---0-0-0---0---0------3-3-3---3---3-3-3---3---3---3--0--0-0---0---0-0-0---0---0-----|
      ...   .   .....   .   .        ...   .   .....   .   .   .     ...   .   .....   .   .

Guitar 3:
D|-----------------------------------------------------------------------------------------|
A|-----------------------------------------------------------------------------------------|
F|-9-9-9-9-9-9-9-9-9-9-9-9-9-9-9-9-7-7-7-7-7-7-7-7-7-7-7-7-7-7-7-7-9-9-9-9-9-9-9-9-9-9-9-9-|
C|-x-x-x-x-x-x-x-x-x-x-x-x-x-x-x-x-x-x-x-x-x-x-x-x-x-x-x-x-x-x-x-x-x-x-x-x-x-x-x-x-x-x-x-x-|
G|-7-7-7-7-7-7-7-7-7-7-7-7-7-7-7-7-5-5-5-5-5-5-5-5-5-5-5-5-5-5-5-5-7-7-7-7-7-7-7-7-7-7-7-7-|
D|-----------------------------------------------------------------------------------------|


================================
Guitars 1 and 2:
D|-------------------------------|
A|-------------------------------|
F|-------------------------------|
C|-5----------5------------------|
G|-5--5-5-----5--5-5-----5-4-2-4-|
D|-3--3-3-----3--3-3-----3-2-0-2-|
      ...        ...     .......

Guitar 3:
D|-------------------------------|
A|-------------------------------|
F|-7-----------------------------|
C|-x-----------------------------|
G|-5-----------------------------|
D|-------------------------------|

===================================
Guitar 1:
D|------------------------------------------------------------------------------|
A|------------------------------------------------------------------------------|
F|------------------------------------------------------------------------------|
C|-2------2---2-------5---4--------5------5---5-------7---5---4----2------2---2-|
G|-2--------------------------2h5--5-------------------------------2------------|
D|-0--0-0---0---0-0-0---0---0------3--3-3---3---3-3-3---3---3---3--0--0-0---0---|
      ...   .   .....   .   .         ...   .   .....   .   .   .     ...   .

Guitar 2:
D|------------------------------------------------------------------------------|
A|------------------------------------------------------------------------------|
F|--------------------4---2-----------------------------------------------------|
C|-2------2---2--------------------5------5---5-------7---5---4----2------2---2-|
G|-2--------------------------2h5--5-------------------------------2------------|
D|-0--0-0---0---0-0-0---0---0------3--3-3---3---3-3-3---3---3---3--0--0-0---0---|
      ...   .   .....   .   .         ...   .   .....   .   .   .     ...   .

Guitar 3:
D|---------------------------------------------------------------------------------|
A|---------------------------------------------------------------------------------|
F|-9-9-9-9-9-9-9-9-9-9-9-9-9-9-9-9-7-7-7-7-7-7-7-7-7-7-7-7-7-7-7-7-9-9-9-9-9-9-9-9-|
C|-x-x-x-x-x-x-x-x-x-x-x-x-x-x-x-x-x-x-x-x-x-x-x-x-x-x-x-x-x-x-x-x-x-x-x-x-x-x-x-x-|
G|-7-7-7-7-7-7-7-7-7-7-7-7-7-7-7-7-5-5-5-5-5-5-5-5-5-5-5-5-5-5-5-5-7-7-7-7-7-7-7-7-|
D|---------------------------------------------------------------------------------|


==================================
Guitar 1:
D|------------------------------------------------|
A|------------------------------------------------|
F|------------------------------------------------|
C|-------5---4--------5---------5-----------------|
G|---------------2h5--5--5-5----5--5-5----5-4-2-4-|
D|-0-0-0---0---0------3--3-3----3--3-3----3-2-0-2-|
   .....   .   .         ...       ...    .......

Guitar 2:
D|------------------------------------------------|
A|------------------------------------------------|
F|-------4---2------------------------------------|
C|--------------------5---------5-----------------|
G|---------------2h5--5--5-5----5--5-5----5-4-2-4-|
D|-0-0-0---0---0------3--3-3----3--3-3----3-2-0-2-|
   .....   .   .         ...       ...    .......

Guitar 3:
D|------------------------------------------------|
A|------------------------------------------------|
F|-9-9-9-9-9-9-9-9-7------------------------------|
C|-x-x-x-x-x-x-x-x-x------------------------------|
G|-7-7-7-7-7-7-7-7-5------------------------------|
D|------------------------------------------------|


===================================
Outro:

Guitars 1 and 2: That's sixteen 0s.
D|--------------------------|
A|--------------------------|
F|--------------------------|
C|--------------------------| x4
G|------------------2-------|
D|-0000000000000000-0-------|
   ..................

===================================
Guitar 1:
D|--------------------------|
A|--------------------------|
F|--------------------------|
C|--------------------------| x2
G|------------------2-------|
D|-0000000000000000-0-------|
   ..................


Guitar 2:
D|----------------------------------------------------------|
A|----------------------------------------------------------|
F|----------------------------------------------------------|
C|----------------------------------------------------------|
G|-7!-----9!--10!-----12!---10!--9!-------------------------|
D|--------------------------------------------8!-------10!--|

====================================
Guitar 1:
D|--------------------------|
A|--------------------------|
F|--------------------------|
C|--------------------------| x2
G|------------------2-------|
D|-0000000000000000-0-------|
   ..................


Guitar 2:
D|------------------------------------------------|
A|------------------------------------------------|
F|------------------------------------------------|
C|---------------------------7!-----9!--10----9!--|
G|-7!-----9!--10!----9!--10-----------------------|
D|------------------------------------------------|

===================================
Guitar 1:
D|--------------------------|
A|--------------------------|
F|--------------------------|
C|--------------------------| x2
G|------------------2-------|
D|-0000000000000000-0-------|
   ..................


Guitar 2:
D|------------------------------------------------|
A|------------------------------------------------|
F|------------------------------------------------|
C|---------------------------7!-----9!--10----9!--|
G|-7!-----9!--10!----9!--10-----------------------|
D|------------------------------------------------|


Guitar 3:
D|-------------------------------------------------|
A|-------------------------------------------------|
F|-------------------------------------------------|
C|-------------------------------------------------|
G|---------12!--14----15!--14!---12!---------------|
D|-15!----------------------------------12!---14!--|

====================================
Guitar 1:
D|--------------------------|
A|--------------------------|
F|--------------------------|
C|--------------------------| x2
G|------------------2-------|
D|-0000000000000000-0-------|
   ..................


Guitar 2:
                                             .5___
D|-------------------------------------------------------|
A|-------------------------------------------------------|
F|-------------------------------------------------------|
C|-------------------7!----9!----/10~~~~~~---9b---(9)~~~-|
G|-7!-----9!---10!---------------------------------------|
D|-------------------------------------------------------|

Guitar 3:                                                     1___
D|------------------------------------------------------------------------|
A|------------------------------------------------------------------------|
F|------------------------------------------------------------------------|
C|----------------------------------------12!---/14~~~~~~~--12b---(12)~~~-|
G|--------12!---14!----12!--14!----15!------------------------------------|
D|-15!--------------------------------------------------------------------|

=====================================
Guitars 2 and 3: That's sixteen 0s.
D|----------------------------------------|
A|----------------------------------------|
F|----------------------------------------|
C|-------------------9~~~~~~~~~~~~~~~(9)\-|
G|-------------------7~~~~~~~~~~~~~~~(7)\-|
D|-0000000000000000-----------------------|
   ................

That's It.

Please Rate and Comment My Tab.
Thanks.
[travis]
comments
print report bad tab
4 comments total. Showing first comments.
+1 reply
DimebagZappa wrote on January 17 2010, 07:37 pm

Well done! Much more complete then any other version. Also the intro riff is slightly easier to play then ver. 2. 5 stars. Only complaint is you wrote 'Drop D Standard'. Its D Standard. Perfect otherwise.

0 reply
Homerun Hero wrote on July 6 2010, 02:31 am

epic tab bro. well done. 5*!!!

0 reply
PMR24 wrote on February 22 2011, 07:44 am

The solo is tabs worgh

I want to post or [tab]
guest
You may want to rate the tab now too:
select rating
Please do not post tabs as comments. Select "correction" instead!