Oops, an error
Loading. Please wait.

Erase Tab

ver1
ver1

Whole song

More versions @911Tabs.com
5,232 views 1 this week
3 commentsread comments
1 2 3 4 5
excellent!
x 2
Autoscroll
+/-
esc
set tempo
stop
Contributor
Difficulty
Tuning
intermediate
B F# B E G# C#
WARNING: You are trying to view
                                    content from Ultimate-Guitar.com
                                    in an unauthorized application,
                                    which is prohibited.

                                    Please use an official Ultimate
                                    Guitar Tabs application for iPhone,
                                    iPad or Android to access legitimate
                                    chords, guitar, bass, and drum tabs
                                    from Ultimate-Guitar.com database.

                                    Type "ultimate guitar tabs" in Apple
                                    App Store's or Android Market's
                                    search to find the application.
                       Erase - All That Remains
----------------------------------------------------------------------------

Tuning: BEADF#B
Tab: Mr Lordi
Email: coldfear275@aim.com

"Erase" by All That Remains from their first album "Behind Silence and Solitude" anyway
some reason the chords in the chorus are all screwed up like one of the notes is not
the chord but its all chords so just play it its not hard to figure out what the chord is

Lead Guitar

Intro  (Clean Guitar with Chorus)


B ||----------------------|---------------------0--|-------------------0----|
F#||----------------------|-------------------0----|---------------------0--|
D ||----------------------|------------------------|------------------------|
A ||------------4----3----|------------4----3------|------------4----3------|
E ||-------2--------------|-------2----------------|-------2----------------|
B ||--0-------------------|--0---------------------|--0---------------------|


---------------------0--|-------------------0----|---------------------0--|
-------------------0----|---------------------0--|-------------------0----|
------------------------|------------------------|------------------------|
------------4----3------|------------4----3------|------------4----3------|
-------2----------------|-------2----------------|-------2----------------|
--0---------------------|--0---------------------|--0---------------------|

                                          (Dist On)
-------------------0----|-------------------------|----------------------|
---------------------0--|-------------------------|----------------------|
------------------------|-------------------------|-------4--------------|
------------4----3------|------------4----3--14\--|--2----4----4----3----|
-------2----------------|-------2------------14\--|--2----2----4----3----|
--0---------------------|--0-----------------12\--|--0---------2----1----|

--------------------------|----------------------|--------------------------|
--------------------------|----------------------|--------------------------|
-------4----11------------|-------4--------------|-------4----11------------|
--2----4----11----<>9b----|--2----4----4----3----|--2----4----11----<>9b----|
--2----2-----9------------|--2----2----4----3----|--2----2-----9------------|
--0-----------------------|--0---------2----1----|--0-----------------------|

Intro C
    PM PM PM   PM PM PM   PM PM PM   PM PM PM

----------------------------------------------|
----------------------------------------------|
-------------4--------------------------------|
--2----------4-4--4--4--4----------3----------|
--2-2--2--2--2-2--2--2--4-4--4--4--3-3--3--3--|
--0-0--0--0-------------2-2--2--2--1-1--1--1--|


    PM PM PM   PM PM PM     PM PM PM    PM PM PM

------------------------------------------------|
------------------------------------------------|
-------------4----------11----------10----------|
--2----------4-4--4--4--11-11-11-11-10-10-10-10-|
--2-2--2--2--2-2--2--2---9--9--9--9--8--8--8--8-|
--0-0--0--0-------------------------------------|


    PM PM PM   PM PM PM   PM PM PM   PM PM PM

----------------------------------------------|
----------------------------------------------|
-------------4--------------------------------|
--2----------4-4--4--4--4----------3----------|
--2-2--2--2--2-2--2--2--4-4--4--4--3-3--3--3--|
--0-0--0--0-------------2-2--2--2--1-1--1--1--|


    PM PM PM   PM PM PM     PM PM PM    PM PM PM

------------------------------------------------|-------------------|
------------------------------------------------|-------------------|
-------------4----------11----------10----------|-------------------|
--2----------4-4--4--4--11-11-11-11-10-10-10-10-|--2----------------|
--2-2--2--2--2-2--2--2---9--9--9--9--8--8--8--8-|--2----------------|
--0-0--0--0-------------------------------------|--0----------------|

Break

--------------------------|--------------------------|
--------------------------|--------------------------|
--------------------------|--------------------------|
--------------------------|--------------------------|
--------7-----7--------8--|-----5-----2--2--5s--3----|
--0--0-----0-----0--0-----|--0-----0-----------------|

--------------------------|-------------------------|--------------------------|
--------------------------|-------------------------|--------------------------|
--------------------------|-------------------------|--------------------------|
--------------------------|-------------------------|--------------------------|
--------3-----3--------2--|-----2-------------------|--------7-----7--------8--|
--5--5-----5-----5--3-----|--3-----3--3--3--2--0----|--0--0-----0-----0--0-----|

--------------------------|--------------------------|-------------------------|
--------------------------|--------------------------|-------------------------|
--------------------------|--------------------------|-------------------------|
--------------------------|--------------------------|-------------------------|
-----5-----2--2--5s--3----|--------3-----3--------2--|-----2-------------------|
--0-----0-----------------|--5--5-----5-----5--3-----|--3-----3--3--3--2--0----|

Verse 1

--------------------------|--------------------------|
--------------------------|--------------------------|
--------------------------|--------------------------|
--------------------------|--------------------------|
--------7-----7--------8--|-----5-----2--2--5s--3----|
--0--0-----0-----0--0-----|--0-----0-----------------|

--------------------------|-------------------------|--------------------------|
--------------------------|-------------------------|--------------------------|
--------------------------|-------------------------|--------------------------|
--------------------------|-------------------------|--------------------------|
--------3-----3--------2--|-----2-------------------|--------7-----7--------8--|
--5--5-----5-----5--3-----|--3-----3--3--3--2--0----|--0--0-----0-----0--0-----|


--------------------------|--------------------------|-------------------------|
--------------------------|--------------------------|-------------------------|
--------------------------|--------------------------|-------------------------|
--------------------------|--------------------------|-------------------------|
-----5-----2--2--5s--3----|--------3-----3--------2--|-----2-------------------|
--0-----0-----------------|--5--5-----5-----5--3-----|--3-----3--3--3--2--0----|

--------------------------|--------------------------|
--------------------------|--------------------------|
--------------------------|--------------------------|
--------------------------|--------------------------|
--------7-----7--------8--|-----5-----2--2--5s--3----|
--0--0-----0-----0--0-----|--0-----0-----------------|

--------------------------|-------------------------|--------------------------|
--------------------------|-------------------------|--------------------------|
--------------------------|-------------------------|--------------------------|
--------------------------|-------------------------|--------------------------|
--------3-----3--------2--|-----2-------------------|--------7-----7--------8--|
--5--5-----5-----5--3-----|--3-----3--3--3--2--0----|--0--0-----0-----0--0-----|

--------------------------|--------------------------|-------------------------|
--------------------------|--------------------------|-------------------------|
--------------------------|--------------------------|-------------------------|
--------------------------|--------------------------|-------------------------|
-----5-----2--2--5s--3----|--------3-----3--------2--|-----2-------------------|
--0-----0-----------------|--5--5-----5-----5--3-----|--3-----3--3--3--2--0----|

Chorus

-----------------------|--------------------------|-----------------------|
-----------------------|--------------------------|-----------------------|
----------7----5-------|----------8----7----------|----------7----5-------|
--2----5--7----5----4--|--2----5--8----7----------|--2----5--7----5----4--|
--2----5--5----3----4--|--2----5--6----5--<>7b----|--2----5--5----3----4--|
--0----3------------2--|--0----3------------------|--0----3------------2--|

-------------------------------------|-----------------------|
-------------------------------------|-----------------------|
-------------------------------------|----------7----5-------|
------7------9------10------9-----7--|--2----5--7----5----4--|
--5-8---7-10---8-12----7-10---5-8----|--2----5--5----3----4--|
-------------------------------------|--0----3------------2--|


--------------------------|-----------------------|
--------------------------|-----------------------|
----------8----7----------|----------7----5-------|
--2----5--8----7----------|--2----5--7----5----4--|
--2----5--6----5--<>7b----|--2----5--5----3----4--|
--0----3------------------|--0----3------------2--|

                                       Verse 2

-------------------------------------|--------------------------|
-------------------------------------|--------------------------|
-------------------------------------|--------------------------|
------7------9------10------9-----7--|--------------------------|
--5-8---7-10---8-12----7-10---5-8----|--------7-----7--------8--|
-------------------------------------|--0--0-----0-----0--0-----|

--------------------------|--------------------------|-------------------------|
--------------------------|--------------------------|-------------------------|
--------------------------|--------------------------|-------------------------|
--------------------------|--------------------------|-------------------------|
-----5-----2--2--5s--3----|--------3-----3--------2--|-----2-------------------|
--0-----0-----------------|--5--5-----5-----5--3-----|--3-----3--3--3--2--0----|

--------------------------|--------------------------|
--------------------------|--------------------------|
--------------------------|--------------------------|
--------------------------|--------------------------|
--------7-----7--------8--|-----5-----2--2--5s--3----|
--0--0-----0-----0--0-----|--0-----0-----------------|

--------------------------|-------------------------|--------------------------|
--------------------------|-------------------------|--------------------------|
--------------------------|-------------------------|--------------------------|
--------------------------|-------------------------|--------------------------|
--------3-----3--------2--|-----2-------------------|--------7-----7--------8--|
--5--5-----5-----5--3-----|--3-----3--3--3--2--0----|--0--0-----0-----0--0-----|


--------------------------|--------------------------|-------------------------|
--------------------------|--------------------------|-------------------------|
--------------------------|--------------------------|-------------------------|
--------------------------|--------------------------|-------------------------|
-----5-----2--2--5s--3----|--------3-----3--------2--|-----2-------------------|
--0-----0-----------------|--5--5-----5-----5--3-----|--3-----3--3--3--2--0----|

--------------------------|--------------------------|
--------------------------|--------------------------|
--------------------------|--------------------------|
--------------------------|--------------------------|
--------7-----7--------8--|-----5-----2--2--5s--3----|
--0--0-----0-----0--0-----|--0-----0-----------------|

                                                       Chorus

--------------------------|-------------------------|-----------------------|
--------------------------|-------------------------|-----------------------|
--------------------------|-------------------------|----------7----5-------|
--------------------------|-------------------------|--2----5--7----5----4--|
--------3-----3--------2--|-----2-------------------|--2----5--5----3----4--|
--5--5-----5-----5--3-----|--3-----3--3--3--2--0----|--0----3------------2--|

--------------------------|-----------------------|
--------------------------|-----------------------|
----------8----7----------|----------7----5-------|
--2----5--8----7----------|--2----5--7----5----4--|
--2----5--6----5--<>7b----|--2----5--5----3----4--|
--0----3------------------|--0----3------------2--|

-------------------------------------|-----------------------|
-------------------------------------|-----------------------|
-------------------------------------|----------7----5-------|
------7------9------10------9-----7--|--2----5--7----5----4--|
--5-8---7-10---8-12----7-10---5-8----|--2----5--5----3----4--|
-------------------------------------|--0----3------------2--|

--------------------------|-----------------------|
--------------------------|-----------------------|
----------8----7----------|----------7----5-------|
--2----5--8----7----------|--2----5--7----5----4--|
--2----5--6----5--<>7b----|--2----5--5----3----4--|
--0----3------------------|--0----3------------2--|

                                        Verse 3

-------------------------------------|--------------------------|
-------------------------------------|--------------------------|
-------------------------------------|--------------------------|
------7------9------10------9-----7--|--------------------------|
--5-8---7-10---8-12----7-10---5-8----|--------7-----7--------8--|
-------------------------------------|--0--0-----0-----0--0-----|

--------------------------|--------------------------|-------------------------|
--------------------------|--------------------------|-------------------------|
--------------------------|--------------------------|-------------------------|
--------------------------|--------------------------|-------------------------|
-----5-----2--2--5s--3----|--------3-----3--------2--|-----2-------------------|
--0-----0-----------------|--5--5-----5-----5--3-----|--3-----3--3--3--2--0----|


--------------------------|--------------------------|
--------------------------|--------------------------|
--------------------------|--------------------------|
--------------------------|--------------------------|
--------7-----7--------8--|-----5-----2--2--5s--3----|
--0--0-----0-----0--0-----|--0-----0-----------------|


--------------------------|-------------------------|--------------------------|
--------------------------|-------------------------|--------------------------|
--------------------------|-------------------------|--------------------------|
--------------------------|-------------------------|--------------------------|
--------3-----3--------2--|-----2-------------------|--------7-----7--------8--|
--5--5-----5-----5--3-----|--3-----3--3--3--2--0----|--0--0-----0-----0--0-----|

--------------------------|--------------------------|-------------------------|
--------------------------|--------------------------|-------------------------|
--------------------------|--------------------------|-------------------------|
--------------------------|--------------------------|-------------------------|
-----5-----2--2--5s--3----|--------3-----3--------2--|-----2-------------------|
--0-----0-----------------|--5--5-----5-----5--3-----|--3-----3--3--3--2--0----|

--------------------------|--------------------------|
--------------------------|--------------------------|
--------------------------|--------------------------|
--------------------------|--------------------------|
--------7-----7--------8--|-----5-----2--2--5s--3----|
--0--0-----0-----0--0-----|--0-----0-----------------|

                                                      Chorus
--------------------------|-------------------------|-----------------------|
--------------------------|-------------------------|-----------------------|
--------------------------|-------------------------|----------7----5-------|
--------------------------|-------------------------|--2----5--7----5----4--|
--------3-----3--------2--|-----2-------------------|--2----5--5----3----4--|
--5--5-----5-----5--3-----|--3-----3--3--3--2--0----|--0----3------------2--|

--------------------------|-----------------------|
--------------------------|-----------------------|
----------8----7----------|----------7----5-------|
--2----5--8----7----------|--2----5--7----5----4--|
--2----5--6----5--<>7b----|--2----5--5----3----4--|
--0----3------------------|--0----3------------2--|

-------------------------------------|-----------------------|
-------------------------------------|-----------------------|
-------------------------------------|----------7----5-------|
------7------9------10------9-----7--|--2----5--7----5----4--|
--5-8---7-10---8-12----7-10---5-8----|--2----5--5----3----4--|
-------------------------------------|--0----3------------2--|

--------------------------|-----------------------|
--------------------------|-----------------------|
----------8----7----------|----------7----5-------|
--2----5--8----7----------|--2----5--7----5----4--|
--2----5--6----5--<>7b----|--2----5--5----3----4--|
--0----3------------------|--0----3------------2--|

-------------------------------------|-----------------------|
-------------------------------------|-----------------------|
-------------------------------------|----------7----5-------|
------7------9------10------9-----7--|--2----5--7----5----4--|
--5-8---7-10---8-12----7-10---5-8----|--2----5--5----3----4--|
-------------------------------------|--0----3------------2--|

--------------------------|-----------------------|
--------------------------|-----------------------|
----------8----7----------|----------7----5-------|
--2----5--8----7----------|--2----5--7----5----4--|
--2----5--6----5--<>7b----|--2----5--5----3----4--|
--0----3------------------|--0----3------------2--|

Breakdown (All Trem Picked)
  TP TP TP TP TP TP TP TP TP TP    TP TP TP TP TP TP TP TP TP TP

--------------------------------|--------------------------------|
--------------------------------|--------------------------------|
--------------------------------|--------------------------------|
-----------------------2--3--2--|-----------------------2--3--2--|
-----------2--3--2--0-----------|-----------2--3--2--0-----------|
--1--4--0-----------------------|--1--4--0-----------------------|


  TP TP TP TP TP TP TP TP TP TP    TP TP TP TP TP TP TP TP TP TP

--------------------------------|--------------------------------|
--------------------------------|--------------------------------|
--------------------------------|--------------------------------|
-----------------------2--3--2--|-----------------------2--3--2--|
-----------2--3--2--0-----------|-----------2--3--2--0-----------|
--1--4--0-----------------------|--1--4--0-----------------------|


  TP TP TP TP TP TP TP TP TP TP    TP TP TP TP TP TP TP TP TP TP

--------------------------------|--------------------------------|
--------------------------------|--------------------------------|
--------------------------------|--------------------------------|
-----------------------2--3--2--|-----------------------2--3--2--|
-----------2--3--2--0-----------|-----------2--3--2--0-----------|
--1--4--0-----------------------|--1--4--0-----------------------|

Interlude

--------------------------|--------------------------|
--17--20--19--20--17--19--|--15--19--17--19--15--17--|
--------------------------|--------------------------|
--------------------------|--------------------------|
--------------------------|--------------------------|
--------------------------|--------------------------|

--------------------------|--------------------------|
--14--17--15--17--14--15--|--12--15--14--15--12--14--|
--------------------------|--------------------------|
--------------------------|--------------------------|
--------------------------|--------------------------|
--------------------------|--------------------------|

--------------------------|--------------------------|
--11--14--12--14--11--12--|--12--15--14--15--12--14--|
--------------------------|--------------------------|
--------------------------|--------------------------|
--------------------------|--------------------------|
--------------------------|--------------------------|

--------------------------|--------------------------|
--14--17--15--17--14--15--|--15--19--17--19--15--17--|
--------------------------|--------------------------|
--------------------------|--------------------------|
--------------------------|--------------------------|
--------------------------|--------------------------|

--------------------------|--------------------------|
--17--20--19--20--17--19--|--15--19--17--19--15--17--|
--------------------------|--------------------------|
--------------------------|--------------------------|
--------------------------|--------------------------|
--------------------------|--------------------------|

--------------------------|--------------------------|
--14--17--15--17--14--15--|--12--15--14--15--12--14--|
--------------------------|--------------------------|
--------------------------|--------------------------|
--------------------------|--------------------------|
--------------------------|--------------------------|

--------------------------|--------------------------|
--11--14--12--14--11--12--|--12--15--14--15--12--14--|
--------------------------|--------------------------|
--------------------------|--------------------------|
--------------------------|--------------------------|
--------------------------|--------------------------|

--------------------------|--------------------------|
--14--17--15--17--14--15--|--15--19--17--19--15--17--|
--------------------------|--------------------------|
--------------------------|--------------------------|
--------------------------|--------------------------|
--------------------------|--------------------------|

Harmony Interlude
                                                                            --------|
--17--20--19--20--17--19--|--15--19--17--19--15--17---------------------------------|
--------------------------|---------------------------------------------------------|
--------------------------|---------------------------------------------------------|
--------------------------|---------------------------------------------------------|
--------------------------|---------------------------------------------------------|

--------------------------|--------------------------|
--14--17--15--17--14--15--|--12--15--14--15--12--14--|
--------------------------|--------------------------|
--------------------------|--------------------------|
--------------------------|--------------------------|
--------------------------|--------------------------|

--------------------------|--------------------------|
--11--14--12--14--11--12--|--12--15--14--15--12--14--|
--------------------------|--------------------------|
--------------------------|--------------------------|
--------------------------|--------------------------|
--------------------------|--------------------------|

--------------------------|--------------------------|
--14--17--15--17--14--15--|--15--19--17--19--15--17--|
--------------------------|--------------------------|
--------------------------|--------------------------|
--------------------------|--------------------------|
--------------------------|--------------------------|

--------------------------|--------------------------|
--17--20--19--20--17--19--|--15--19--17--19--15--17--|
--------------------------|--------------------------|
--------------------------|--------------------------|
--------------------------|--------------------------|
--------------------------|--------------------------|

--------------------------|--------------------------|
--14--17--15--17--14--15--|--12--15--14--15--12--14--|
--------------------------|--------------------------|
--------------------------|--------------------------|
--------------------------|--------------------------|
--------------------------|--------------------------|

--------------------------|--------------------------|
--11--14--12--14--11--12--|--12--15--14--15--12--14--|
--------------------------|--------------------------|
--------------------------|--------------------------|
--------------------------|--------------------------|
--------------------------|--------------------------|


                                                         /2

--------------------------|--------------------------|----------------|
--14--17--15--17--14--15--|--15--19--17--19--15--17--|--17------------|
--------------------------|--------------------------|----------------|
--------------------------|--------------------------|----------------|
--------------------------|--------------------------|----------------|
--------------------------|--------------------------|----------------|

Verse Riff

--------------------------|--------------------------|
--------------------------|--------------------------|
--------------------------|--------------------------|
--------------------------|--------------------------|
--------7-----7--------8--|-----5-----2--2--5s--3----|
--0--0-----0-----0--0-----|--0-----0-----------------|

--------------------------|-------------------------|--------------------------|
--------------------------|-------------------------|--------------------------|
--------------------------|-------------------------|--------------------------|
--------------------------|-------------------------|--------------------------|
--------3-----3--------2--|-----2-------------------|--------7-----7--------8--|
--5--5-----5-----5--3-----|--3-----3--3--3--2--0----|--0--0-----0-----0--0-----|

--------------------------|--------------------------|-------------------------|
--------------------------|--------------------------|-------------------------|
--------------------------|--------------------------|-------------------------|
--------------------------|--------------------------|-------------------------|
-----5-----2--2--5s--3----|--------3-----3--------2--|-----2-------------------|
--0-----0-----------------|--5--5-----5-----5--3-----|--3-----3--3--3--2--0----|

--------------------------|--------------------------|
--------------------------|--------------------------|
--------------------------|--------------------------|
--------------------------|--------------------------|
--------7-----7--------8--|-----5-----2--2--5s--3----|
--0--0-----0-----0--0-----|--0-----0-----------------|

--------------------------|-------------------------|--------------------------|
--------------------------|-------------------------|--------------------------|
--------------------------|-------------------------|--------------------------|
--------------------------|-------------------------|--------------------------|
--------3-----3--------2--|-----2-------------------|--------7-----7--------8--|
--5--5-----5-----5--3-----|--3-----3--3--3--2--0----|--0--0-----0-----0--0-----|


--------------------------|--------------------------|-------------------------|
--------------------------|--------------------------|-------------------------|
--------------------------|--------------------------|-------------------------|
--------------------------|--------------------------|-------------------------|
-----5-----2--2--5s--3----|--------3-----3--------2--|-----2-------------------|
--0-----0-----------------|--5--5-----5-----5--3-----|--3-----3--3--3--2--0----|

Chorus

-----------------------|--------------------------|-----------------------|
-----------------------|--------------------------|-----------------------|
----------7----5-------|----------8----7----------|----------7----5-------|
--2----5--7----5----4--|--2----5--8----7----------|--2----5--7----5----4--|
--2----5--5----3----4--|--2----5--6----5--<>7b----|--2----5--5----3----4--|
--0----3------------2--|--0----3------------------|--0----3------------2--|

-------------------------------------|-----------------------|
-------------------------------------|-----------------------|
-------------------------------------|----------7----5-------|
------7------9------10------9-----7--|--2----5--7----5----4--|
--5-8---7-10---8-12----7-10---5-8----|--2----5--5----3----4--|
-------------------------------------|--0----3------------2--|

--------------------------|-----------------------|
--------------------------|-----------------------|
----------8----7----------|----------7----5-------|
--2----5--8----7----------|--2----5--7----5----4--|
--2----5--6----5--<>7b----|--2----5--5----3----4--|
--0----3------------------|--0----3------------2--|

-------------------------------------|-----------------------|
-------------------------------------|-----------------------|
-------------------------------------|----------7----5-------|
------7------9------10------9-----7--|--2----5--7----5----4--|
--5-8---7-10---8-12----7-10---5-8----|--2----5--5----3----4--|
-------------------------------------|--0----3------------2--|

--------------------------|-----------------------|
--------------------------|-----------------------|
----------8----7----------|----------7----5-------|
--2----5--8----7----------|--2----5--7----5----4--|
--2----5--6----5--<>7b----|--2----5--5----3----4--|
--0----3------------------|--0----3------------2--|

Outro
  TP TP TP TP TP TP TP TP TP TP    TP TP TP TP TP TP TP TP TP TP

--------------------------------|--------------------------------|
--------------------------------|--------------------------------|
--------------------------------|--------------------------------|
-----------------------2--3--2--|-----------------------2--3--2--|
-----------2--3--2--0-----------|-----------2--3--2--0-----------|
--1--4--0-----------------------|--1--4--0-----------------------|


  TP TP TP TP TP TP TP TP TP TP    TP TP TP TP TP TP TP TP TP TP

--------------------------------|--------------------------------|
--------------------------------|--------------------------------|
--------------------------------|--------------------------------|
-----------------------2--3--2--|-----------------------2--3--2--|
-----------2--3--2--0-----------|-----------2--3--2--0-----------|
--1--4--0-----------------------|--1--4--0-----------------------|


  TP TP TP TP TP TP TP TP TP TP    TP TP TP TP TP TP TP TP TP TP

--------------------------------|--------------------------------|
--------------------------------|--------------------------------|
--------------------------------|--------------------------------|
-----------------------2--3--2--|-----------------------2--3--2--|
-----------2--3--2--0-----------|-----------2--3--2--0-----------|
--1--4--0-----------------------|--1--4--0-----------------------|


  TP TP TP TP TP TP TP TP TP TP    TP TP TP TP TP TP TP TP TP TP

--------------------------------|--------------------------------|-----||
--------------------------------|--------------------------------|-----||
--------------------------------|--------------------------------|-----||
-----------------------2--3--2--|-----------------------2--3--2--|-----||
-----------2--3--2--0-----------|-----------2--3--2--0-----------|-----||
--1--4--0-----------------------|--1--4--0-----------------------|-----||


Duration Legend
---------------
W - whole
H - half
Q - quarter
E - 8th
S - 16th
T - 32nd
X - 64th
. - note dotted
|-n-|  - n-tuplets


Tablature Legend
----------------
L - tied note
x - dead note
g - grace note
(n) - ghost note
> - accentuded note
NH - natural harmonic
AH - artificial harmonic
TH - tapped harmonic
SH - semi harmonic
PH - pitch harmonic
h - hammer on
p - pull off
b - bend
br - bendRelease
pb - preBend
pbr - preBendRelease
brb - bendReleaseBend
\n/ - tremolo bar dip
\n - tremolo bar dive
-/n - tremolo bar Release up
/n\ - tremolo bar inverted dip
/n - tremolo bar return
-\n - tremolo bar Release down
S - shift slide
s - legato slide
/ -  slide into from below or out of upwards
\ -  slide into from above or out of downwards
~ - vibrato
W - wide vibrato
tr - trill
TP - tremolo picking
T - tapping
S - slap
P - pop
< - fade in
^ - brush up
v - brush down
comments
We did not receive enough feedback on this tab! Please rate:
1 2 3 4 5
3 comments total.
0 reply
BSM123456789 wrote on December 27 2008, 10:38 pm

great tab!! can you please do we stand? thanks

0 reply
Mr Lordi wrote on December 28 2008, 12:09 am

i'll look at that, i already thought about it before but if i remember they had a pretty decent tab on here, if not then i'll give it a shot

0 reply
slash556 wrote on April 5 2009, 12:34 am

thx bro nice tab, great job!

I want to post or [tab]
guest
You may want to rate the tab now too:
select rating
Please do not post tabs as comments. Select "correction" instead!