Oops, an error
Loading. Please wait.

I Die In Degrees Tab

7,056 views 3 this week
1 commentread comment
1 2 3 4 5
excellent!
x 5
Autoscroll
+/-
esc
set tempo
stop
Contributor
WARNING: You are trying to view
                                    content from Ultimate-Guitar.com
                                    in an unauthorized application,
                                    which is prohibited.

                                    Please use an official Ultimate
                                    Guitar Tabs application for iPhone,
                                    iPad or Android to access legitimate
                                    chords, guitar, bass, and drum tabs
                                    from Ultimate-Guitar.com database.

                                    Type "ultimate guitar tabs" in Apple
                                    App Store's or Android Market's
                                    search to find the application.
          F#5                Dsus2/A                E5                   B5
      2 4 x x x x          x x x 2 3 0          0 2 x x x x          x 2 4 x 0 x

          C5                 F#sus2               F#5/C#           F#sus2(type 2)
      x 3 5 x x x          2 4 4 1 x x          x 4 4 x x x          x x 4 1 2 x

          D5                   A5             F#sus2(type 3)            E5II
      x 5 7 x x x          x x x 2 5 5          x x 4 1 x x          x x 2 4 x x

          G#m                 F#5IV                 F#m                 D5/A
      4 x 6 4 x x          x x 4 6 x x          2 0 x x x x          5 5 x x x x

         E5/B                 G#mII                G5/F#
      7 7 x x x x          4 2 x x x x         x x x 11 8 10

Gtr I (D G C F A D) - 'Right Channel/Solo 1'
Gtr II (D G C F A D) - 'Left Channel/Solo 2'
Gtr III (D G C F A D) - 'Rhythm'
Gtr IV (D G C F A D) - 'Harmony Solo'
Gtr V (D G C F A D) - 'Clean 1 right'
Gtr VI (D G C F A D) - 'Clean 2 left'

 Intro
  Q=208
  N.C.
 4/4
  Gtr I
  W           +H      +Q   a  Q
|-----------|---------------------||
|-----------|---------------------||
|-----------|---------------------||
|-----------|---------------------||
|-----------|---------------------||
|-x\--------|-(x)\----(x)--2S12\--||
|
| Gtr II
| W           +H.             Q
|-----------|---------------------||
|-----------|---------------------||
|-----------|---------------------||
|-----------|---------------------||
|-x\--------|-(x)\------------9\--||
|-----------|---------------------||


   1st Verse
    N.C.
    Gtrs I, II
    PM  PM    PM--------|   PM    PM--------|   PM    PM
    E E E E E E S S E   E E E E E E S S E   E E E E E E E E
||--------------------|-------------------|-----------------|
||o-------------------|-------------------|-----------------|
||--------------------|-------------------|-----------------|
||--------------------|-------------------|-----------------|
||o---4---4h5---------|---4---4h5---------|---2---2-----1---|
||--2---2-----2-5-4-2-|-2---2-----2-5-4-3-|-0---0---3-0---2-|


  N.C.
  Gtr I
  PM  PM    PM        PM    PM
  E E E E E E E E  4x E E E E E E E E     E E E E E E E E
|------------------||-----------------||------------------|
|-----------------o||-----------------||o-----------------|
|------------------||---------4-7-6-4-||------6-----6-----|
|------------------||---3-6-3---------||----7-----7-----7-|
|---2---2-----1---o||-----------------||o-9-----9-----9---|
|-0---0---3-0---2--||-4---------------||------------------|
|
| Gtr II
|                     PM|   PM
| E E E E E E E E  4x E E E E E E E E     E E E E E E E E
|------------------||-----------------||------------------|
|-----------------o||-----------------||o-----------------|
|------------------||-----------------||------6-----6-----|
|------------------||-3---3---6-9-7-6-||----7-----7-----7-|
|---2---2-----1---o||---4---4---------||o-9-----9-----9---|
|-0---0---3-0---2--||-----------------||------------------|


                                     1.
  N.C.
  Gtrs I, II
  E E E E E E E E   E E E E E E E E   E E E E E E E E
|-----------------|-----------------|------------------||
|-----------------|-----------------|-----------------o||
|-6-----6---6-----|-----9-----9-----|-9-----9----------||
|-----7-----------|---7-----7-----7-|-----7---6-7-6----||
|---9-----9---9-7-|-5-----5-----5---|---5-----------7-o||
|-----------------|-----------------|------------------||


                     2nd Verse
  2.
  N.C.
                      PM  PM    PM--------|   PM    PM----|
  E E E E E E E E     E E E E E E S S E   E E E E E E S S E
|-----------------||--------------------|-------------------|
|-----------------||o-------------------|-------------------|
|-9-----9---------||--------------------|-------------------|
|-----7-----------||--------------------|-------------------|
|---5-----5-4-2---||o---4---4h5---------|---4---4h5---------|
|---------------5-||--2---2-----2-5-4-2-|-2---2-----2-5-3-2-|


  N.C.
  PM  PM    PM      PM  PM    PM
  E E E E E E E E   E E E E E E E E  4x
|-----------------|------------------||
|-----------------|-----------------o||
|-----------------|------------------||
|-----------------|------------------||
|---2---2-----1---|---2---2-----1---o||
|-0---0---3-0---2-|-0---0---3-0---2--||


   Chorus
    E5 N.C.B5C5N.C.
       PM|     PM    PM|   PM          PM  PM|   PM  PM
    Q  E E E E E E   E E E E E E Q     E E E E E E E E
||-----------------|-----------------|-----------------|
||o----------------|-----------------|-----------------|
||-----------------|-----------------|-----------------|
||---------4S5-----|-----2---5-4-5\--|---5-----5---5---|
||o-2------2S3-----|-----------------|-3---3-3---3---3-|
||--0--0-0-----0-3-|-0-0---0---------|-----------------|


  1.                  2.
  N.C.                                    E5 N.C.B5C5N.C.
  PM  PM|   PM        PM  PM|   PM           PM|     PM
  E E E E E E E E     E E E E E E E E     Q  E E E E E E
|------------------||-----------------||-----------------|
|-----------------o||-----------------||o----------------|
|------------------||-----------------||-----------------|
|---4-----4--------||---4-----4---4S2-||---------4S5-----|
|-5---5-5---5-5h7-o||-5---5-5---5-----||o-2------2S3-----|
|------------------||-----------------||--0--0-0-----0-3-|


                                     1.                   2.
  N.C.
  Gtr I
  PM|   PM          PM  PM|   PM  PM--|   PM|   PM        PM  PM|
  E E E E E E Q     E E E E E E E E   E E E E E E E E     E E E E E E E E
|-----------------|-----------------|------------------||-----------------||
|-----------------|-----------------|-----------------o||-----------------||
|-----------------|-----------------|------------------||-----------------||
|-----2---5-4-5\--|---5-----5---5---|---4-----4--------||---4-----6-7-6---||
|-----------------|-3---3-3---3---3-|-5---5-5---5-5h7-o||-5---5-5-------7-||
|-0-0---0---------|-----------------|------------------||-----------------||
|
| Gtr II
| PM|   PM          PM  PM|   PM  PM--|   PM|   PM        PM  PM|
| E E E E E E Q     E E E E E E E E   E E E E E E E E     E E E E E E E E
|-----------------|-----------------|------------------||-----------------||
|-----------------|-----------------|-----------------o||-----------------||
|-----------------|-----------------|------------------||-----------------||
|-----2---5-4-5\--|---5-----5---5---|---7-----7---7h9--||---7-----6-7-6---||
|-----------------|-7---7-7---7---7-|-9---9-9---9-----o||-9---9-9-------7-||
|-0-0---0---------|-----------------|------------------||-----------------||


   Interlude
                                        1.
    F#5                                  Dsus2/A
    Gtr II
    W                 +W                 W
    |                  |                 |
    /                  /                 /

    Gtr I
    E E E E E E E E    E E E E E E E E   E E E E E E E E
||------------------|------------------|-----------------|
||o-----------------|------------------|-----------------|
||------6-----6-----|--6-----6---6-----|-----9-----9-----|
||----7-----7-----7-|------7-----------|---7-----7-----7-|
||o-9-----9-----9---|----9-----9---9-7-|-5-----5-----5---|
||------------------|------------------|-----------------|


                       2.
                       Dsus2/A                    N.C.
  +W                   W                 +H       H
   |                   |                  |       |
   /                   /                  /       o

   E E E E E E E E     E E E E E E E E    E E E E E E E E
|-------------------||-----------------|------------------|
|------------------o||-----------------|------------------|
|--9-----9----------||-----9-----9-----|--9-----9---------|
|------7---6-7-6----||---7-----7-----7-|------7---6-7-6---|
|----5-----------7-o||-5-----5-----5---|----5-----------7-|
|-------------------||-----------------|------------------|


    N.C.
    Gtr I
     E  E E  E  E E  E  E   E  E  E E  E E  E  E   E  E  E E  E  E E  E
||------------------------|----------------------|----------------------|
||o-----------------------|----------------------|----------------------|
||--------6-------6-------|-6-------6----6-------|-------9-------9------|
||------7-------7-------7-|-------7--------------|----7-------7-------7-|
||o--9-------9-------9----|----9-------9----9--7-|-5-------5-------5----|
||------------------------|----------------------|----------------------|
|
|   Gtr II
|    E  E E  E  E E  E  E   E  E  E E  E E  E  E   E  E  E E  E  E E  E
||------------------------|----------------------|----------------------|
||o-----------------------|----------------------|----------------------|
||--------9-------9-------|-9-------9----9-------|------13------13------|
||-----11------11------11-|------11--------------|---11------11------11-|
||o-12------12------12----|---12------12---12-11-|-9-------9-------9----|
||------------------------|----------------------|----------------------|


  1.                       2.
  N.C.
   E E  E  E E  E E  E      E E  E  E E E  E E
|-----------------------||---------------------|
|----------------------o||---------------------|
|--9-------9------------||--9-------9----------|
|-------7----6--7-6-----||-------7-------------|
|----5---------------7-o||----5-------5-4--2---|
|-----------------------||-------------------5-|
|
|  E E  E  E E  E E  E      E E  E  E E E  E E
|-----------------------||---------------------|
|----------------------o||---------------------|
|-13------13------------||-13------13----------|
|------11----9-11-9-----||------11-------------|
|----9--------------11-o||----9-------9-7------|
|-----------------------||----------------10-9-|


  F#sus2                                Dsus2/A
  Gtr I
  E E E E Q  E E   E E Q  E E  E   E    E E E E Q  E E
|----------------|--------------------|-0-0-0-0----0-0-|
|----------------|--------------------|-3-3-3-3----3-3-|
|-1-1-1-1----1-1-|-1-1----1-1--1---1--|-2-2-2-2----2-2-|
|-4-4-4-4----4-4-|-4-4----4-4--4---4--|----------------|
|-4-4-4-4----4-4-|-4-4----4-4--4---4--|----------------|
|-2-2-2-2----2-2-|-2-2----2-2--2---2--|----------------|
|
| Gtr II
| E E E E Q  E E   E E Q  E E  E   E    E E E E Q  E E
|----------------|--------------------|-0-0-0-0----0-0-|
|----------------|--------------------|-3-3-3-3----3-3-|
|-1-1-1-1----1-1-|-1-1----1-1---------|-2-2-2-2----2-2-|
|-4-4-4-4----4-4-|-4-4----4-4-<4>-<4>-|----------------|
|-4-4-4-4----4-4-|-4-4----4-4---------|----------------|
|-2-2-2-2----2-2-|-2-2----2-2---------|----------------|


                   F#sus2
  Gtrs I, II
  E E Q  E E E E   E E E E Q  E E   E E Q  E E E E
|-0-0----0-0-0-0-|----------------|----------------|
|-3-3----3-3-3-3-|----------------|----------------|
|-2-2----2-2-2-2-|-1-1-1-1----1-1-|-1-1----1-1-1-1-|
|----------------|-4-4-4-4----4-4-|-4-4----4-4-4-4-|
|----------------|-4-4-4-4----4-4-|-4-4----4-4-4-4-|
|----------------|-2-2-2-2----2-2-|-2-2----2-2-2-2-|


  Dsus2/A
  E E E E Q  E E   E E Q  E E E E
|-0-0-0-0----0-0-|-0-0----0-0-0-0-||
|-3-3-3-3----3-3-|-3-3----3-3-3-3-||
|-2-2-2-2----2-2-|-2-2----2-2-2-2-||
|----------------|----------------||
|----------------|----------------||
|----------------|----------------||


 Guitar Solo
  F#5            F#5/C#                F#sus2(type 2)                     N.C.
 4/4
  Gtr III
   PM------|                                                              PM
   E     E   E     E             Q      Q             +H.             +E  E
|--------------------------------------------------|------------------------|
|---------------------------------------2----------|--(2)-------------(2)---|
|---------------------------------------1----------|--(1)-------------(1)---|
|------------------4--------------------4----------|--(4)-------------(4)---|
|--4-----4---4-----4-------------------------------|------------------------|
|--2-----2---2-------------------------------------|----------------------2-|
|
| Gtrs I, II
|                                                              \2/
|  Q        +E    +S       +S   +E   E  E      +E     +Q    a  H       Q
|--------------------------------------------------|------------------------|
|--------------------------------------------------|------------------------|
|-13b14====(13)r-(13)b14==(13)r(13)p11-13b14==(13)r|=(13)--13S14------16----|
|--------------------------------------------------|------------------------|
|--------------------------------------------------|------------------------|
|--------------------------------------------------|------------------------|


  D5                               A5
   PM-------------|
   E   E            E  E  Q         Q
|----------------------------------!5----|
|----------------------------------!5----|
|----------------------------------!2----|
|--7---7------------7--7-----------------|
|--5---5------------5--5-----------------|
|----------------------------------------|
|
|                         \1.5/
|  E  +S   +S      +Q     E      E  E  E
|----------------------------------------|
|----------------------------------19p17-|
|-18-(18)-(18)b19r(18)---19p====18-------|
|----------------------------------------|
|----------------------------------------|
|----------------------------------------|


                                                       N.C.
  +H.                                              +E   E
|-(5)----------------------------------------------(5)-----|
|-(5)----------------------------------------------(5)-----|
|-(2)----------------------------------------------(2)-----|
|----------------------------------------------------------|
|-------------------------------------------------------5--|
|----------------------------------------------------------|
|
|       \1___________________/3.5___________________|
|  S   +S    +S   +S   +S   +S      +E   +E.  +S   +E   E
|----------------------------------------------------------|
|-19--(19)--(19)-(19)-(19)-(19)----(19)-(19)-(19)-(19)-22\-|
|----------------------------------------------------------|
|----------------------------------------------------------|
|----------------------------------------------------------|
|----------------------------------------------------------|


  F#5                                         F#5/C#                  F#sus2(type
   PM-----------------|
   E  E                 E                       E              Q       Q
|---------------------------------------------------------------------------|
|----------------------------------------------------------------------2----|
|----------------------------------------------------------------------1----|
|-----------------------------------------------4----------------------4----|
|--4--4-----------------4-----------------------4---------------------------|
|--2--2-----------------2---------------------------------------------------|
|
|                                                                   PM---|
|  E.    +T       +T   +T   +T   +T       +T   +T   +T   +S   +E    E  E  E
|---------------------------------------------------------------------------|
|-14----(14)b15==(14)-(14)r(14)-(14)b15==(14)-(14)r(14)-(14)-(14)\----------|
|---------------------------------------------------------------------------|
|------------------------------------------------------------------------11-|
|---------------------------------------------------------------------12----|
|------------------------------------------------------------------14-------|


      2)                   N.C.
                            PM
  +H.                  +E   E
|-----------------------------|
|-(2)------------------(2)----|
|-(1)------------------(1)----|
|-(4)------------------(4)----|
|-----------------------------|
|---------------------------2-|
|
|              PM---|
|              |--3--|
|  E  E  E  E  E  E  E  E   E
|-------12--------------------|
|--------------------------12-|
|-13h14----------------14-----|
|----------------11-14--------|
|----------11-12--------------|
|-----------------------------|


  D5            A5
   PM---|
   E  E  E E Q    Q
|---------------!-5-----------|
|---------------!-5-----------|
|---------------!-2-----------|
|--7--7--7-7------------------|
|--5--5--5-5------------------|
|-----------------------------|
|
|  E  E  H       +E   +E
|-----------------------------|
|-14--------------------------|
|----14-13------(13)-(13)b14==|
|-----------------------------|
|-----------------------------|
|-----------------------------|
|
| Gtr III
|  W
|-----------------------------|
|-----------------------------|
|-----------------------------|
|-----------------------------|
|-----------------------------|
|-----------------------------|


                                                            N.C.
   +H.                                             +E         E
|--(5)---------------------------------------------(5)-----------|
|--(5)---------------------------------------------(5)-----------|
|--(2)---------------------------------------------(2)-----------|
|----------------------------------------------------------------|
|-------------------------------------------------------------5--|
|----------------------------------------------------------------|
|
|  +S   +S   +E   +E   +E       +S   +S   +E       +S   +S   +E
|----------------------------------------------------------------|
|----------------------------------------------------------------|
|-(13)r(13)-(13)-(13)-(13)b14==(13)r(13)-(13)b14==(13)r(13)-(13)-|
|----------------------------------------------------------------|
|----------------------------------------------------------------|
|----------------------------------------------------------------|
|
|   H                            Q                  E         E
|----------------------------------------------------------------|
|----------------------------------------------------------------|
|----------------------------------------------------------------|
|----------------------------------------------------------------|
|------------------------------------------------------------14--|
|----------------------------------------------------------------|


  F#5      F#5/C#     F#sus2(type 2)                    N.C.
  Gtr III
   PM---|                                                PM
   E  E  E  E  Q      Q       +H.                   +E   E
|---------------------------|-------------------------------|
|---------------------2-----|-(2)-------------------(2)-----|
|---------------------1-----|-(1)-------------------(1)-----|
|-----------4---------4-----|-(4)-------------------(4)-----|
|--4--4--4--4---------------|-------------------------------|
|--2--2--2------------------|----------------------------2--|
|
| Gtrs I, II
|              |-3--| |-3-|          |-3-|
|  E  E  E  E  E E  E E E E    E  E  E E E E +E     +E  +E
|----------14-12p9----------|-------------------------------|
|-------12---------10-------|-------------------------------|
|----13---------------9p6---|-------------------------------|
|-11----------------------7-|-------------------------------|
|---------------------------|--9--7-------------------------|
|---------------------------|-------10p9p7-9-(9)b10r(9)-(9)-|


  D5                        A5                                         N.C.
  Gtr III
  PM-------|
  E    E   E   E    Q        Q       +H.                        +E     E
|---------------------------!5-----|-(5)------------------------(5)---------|
|---------------------------!5-----|-(5)------------------------(5)---------|
|---------------------------!2-----|-(2)------------------------(2)---------|
|-7----7---7---7-------------------|----------------------------------------|
|-5----5---5---5-------------------|-----------------------------------5----|
|----------------------------------|----------------------------------------|
|
| Gtrs I, II
| |--3---|          |--3--|  |-3-|                      |--3--|  |---3----|
| E E.   S S S S S +S  E. E  E E E    E  S  S  S  S  E  E  E  E  E   E    E
|--------------------------------9-|-----9h12S16p12-------16h19p16----------|
|------------------------------7---|-10-------------14S17-----------17------|
|-------------------------6--7-----|-------------------------------------18-|
|--------6h7p4---4-(4)-7-----------|----------------------------------------|
|-4-7----------5-------------------|----------------------------------------|
|----------------------------------|----------------------------------------|


  F#5                F#5/C#                                F#sus2(type 2)
   PM--|
   E E   E             E         Q                           Q
|---------------------------------------------------------------------------------|
|------------------------------------------------------------2--------------------|
|------------------------------------------------------------1--------------------|
|----------------------4-------------------------------------4--------------------|
|--4-4---4-------------4----------------------------------------------------------|
|--2-2---2------------------------------------------------------------------------|
|
|  Q    +S   +S       +S   +S   +S       +S   +S   +S       +S   +S   +S      +S
|---------------------------------------------------------------------------------|
|-19---(19)-(19)b21==(19)r(19)-(19)b21==(19)r(19)-(19)b21==(19)r(19)-(19)b21-(19)-|
|---------------------------------------------------------------------------------|
|---------------------------------------------------------------------------------|
|---------------------------------------------------------------------------------|
|---------------------------------------------------------------------------------|


                                     N.C.
                                     PM
  +H.                         +E     E
|-----------------------------------------|
|-(2)-------------------------(2)---------|
|-(1)-------------------------(1)---------|
|-(4)-------------------------(4)---------|
|-----------------------------------------|
|------------------------------------2----|
|
|                     PM---|
|  |--3---|  |--3--|  |--3--|  |---3----|
|  E   E  E  E  E  E  E  E  E  E   E    E
|-----------------------------------------|
|-----------------------------------------|
|-11--13-14-11-13-----------------13---14-|
|-----------------14----11----14----------|
|--------------------12----12-------------|
|-----------------------------------------|


  D5               A5
  Gtr III
   PM--|
   E E   E   E Q    Q     +W
|------------------!5---|-(5)------------------------------|
|------------------!5---|-(5)------------------------------|
|------------------!2---|-(2)------------------------------|
|--7-7---7---7----------|----------------------------------|
|--5-5---5---5----------|----------------------------------|
|-----------------------|----------------------------------|
|
| Gtrs I, II
|              |--3---|                            |--3--|
|  H           Q Q    Q    H      E      +S   +S   E  E  E
|-----------------------|----------------------------------|
|-----------------------|----------------------------------|
|--------------6-7----9-|--------16b18==(16)r(16)-14h16p14-|
|-----------------------|--9-------------------------------|
|-----------------------|----------------------------------|
|-----------------------|----------------------------------|
|
| Gtr IV
|              |--3---|                            |--3--|
|  Q    +Q     Q Q    Q    H      E      +S   +S   E  E  E
|-14---(14)\------------|----------------------------------|
|----------------7----9-|--------15b17==(15)r(15)-14h15p14-|
|--------------9--------|--9-------------------------------|
|-----------------------|----------------------------------|
|-----------------------|----------------------------------|
|-----------------------|----------------------------------|


  F#5
  Gtr III
   W                                      +W
   |                                       |
   /                                       /

  Gtrs I, II
          /    |               /    |             /    |
   Q.    +S   +S   +Q    +E   +S   +S     +Q.    +S   +S   +H
|--------------------------------------|--------------------------|
|--------------------------------------|--------------------------|
|-13----(13)-(13)-(13)--(13)-(13)-(13)-|-(13)---(13)-(13)-(13)----|
|--------------------------------------|--------------------------|
|--------------------------------------|--------------------------|
|--------------------------------------|--------------------------|
|
| Gtr IV
|         /    |               /    |             /    |
|  Q.    +S   +S   +Q    +E   +S   +S     +Q.    +S   +S   +H
|--------------------------------------|--------------------------|
|-14----(14)-(14)-(14)--(14)-(14)-(14)-|-(14)---(14)-(14)-(14)----|
|--------------------------------------|--------------------------|
|--------------------------------------|--------------------------|
|--------------------------------------|--------------------------|
|--------------------------------------|--------------------------|


  Dsus2/A
  W          +W
  |           |
  /           /

  W          +Q   Q   Q   Q
|----------|-----------------|
|----------|-----------------|
|-9--------|-(9)-------------|
|----------|------9--11--12--|
|----------|-----------------|
|----------|-----------------|
|
| W          +Q   Q   Q   Q
|----------|-----------------|
|-9--------|-(9)--7---9--10--|
|----------|-----------------|
|----------|-----------------|
|----------|-----------------|
|----------|-----------------|


  F#5
   W                  +W
   |                   |
   /                   /

   H     +E   E  Q     Q  Q   Q   Q
|-------------------|----------------|
|-------------------|----------------|
|-------------------|----------------|
|-11----(11)-11-11--|-11--9----------|
|-------------------|--------12--11--|
|-------------------|----------------|
|
|  H     +E   E  Q     Q  Q   Q   Q
|-------------------|----------------|
|--9-----(9)--9--9--|----------------|
|-------------------|-11--9----------|
|-------------------|--------11---9--|
|-------------------|----------------|
|-------------------|----------------|


  Dsus2/A             N.C.
   W             +Q   Q  H
   |              |   |  |
   /              /   x  o

   H     Q  Q    +W
|--------------|--------------||
|--------------|--------------||
|--------------|--------------||
|--------------|--------------||
|-11----12--7--|-(7)----------||
|--------------|--------------||
|
|  H     Q  Q    +W
|--------------|--------------||
|--------------|--------------||
|--------------|--------------||
|--9----11--9--|-(9)----------||
|--------------|--------------||
|--------------|--------------||


  F#5                                           Dsus2/A
  W                          +W                 W
  |                           |                 |
  /                           /                 /

  Gtrs I, II
  PM|           ~~~~~~~PM|                PM------|                   PM|
  E E E    +E  +E  +E  E E    E E E E E E E E   E E E     +E  +E  +E  E E
|--------------------------|------------------|---------------------------|
|--------------------------|------------------|---------------------------|
|-----6b7==(6)r(6)-(6)-----|--9---7---6-------|-----9b11==(9)r(9)-(9)---9-|
|-4-7------------------4-7-|----7---7---7-----|---7-------------------7---|
|--------------------------|--------------9-7-|-5-------------------------|
|--------------------------|------------------|---------------------------|


                     F#5
  +W                 W                            +W
   |                 |                             |
   /                 /                             /

                     PM|             ~~~~~~~PM|                PM|
   E E E E E E E E   E E  E     +E  +E  +E  E E    E E E E E E E E
|------------------|----------------------------|------------------|
|-10---9---7-------|----------------------------|------------------|
|----9---9---9-7-6-|-----[6]b7==(6)r(6)-(6)-----|--9---7---6-------|
|------------------|-4-7--------------------4-7-|----7---7---7-----|
|------------------|----------------------------|--------------9-7-|
|------------------|----------------------------|------------------|


  Dsus2/A                                        F#5
  W                           +W                 W
  |                            |                 |
  /                            /                 /

  Gtr I
  PM|                   PM|                      PM|           ~~~~~~~PM|
  E E E     +E  +E  +E  E E    E E E E E E E E   E E E    +E  +E  +E  E E
|---------------------------|------------------|--------------------------|
|---------------------------|-10---9---7-------|--------------------------|
|-----9b11==(9)r(9)-(9)---9-|----9---9---9-7-6-|-----6b7==(6)r(6)-(6)-----|
|---7-------------------7---|------------------|-4-7------------------4-7-|
|-5-------------------------|------------------|--------------------------|
|---------------------------|------------------|--------------------------|
|
| Gtr II
| PM|                   PM|                      PM|           ~~~~~~~
| E E E     +E  +E  +E  E E    E E E E E E E E   E E E    +E  +E  +E  E E
|---------------------------|------------------|--------------------------|
|---------------------------|-10---9---7-------|--------------------------|
|-----9b11==(9)r(9)-(9)---9-|----9---9---9-7-6-|-----6b7==(6)r(6)-(6)---6-|
|---7-------------------7---|------------------|-4-7------------------7---|
|-5-------------------------|------------------|--------------------------|
|---------------------------|------------------|--------------------------|


                     Dsus2/A
  +W                 W                           +W
   |                 |                            |
   /                 /                            /

                     PM|                   PM|
   E E E E E E E E   E E E     +E  +E  +E  E E    E E E E  E E E E
|------------------|---------------------------|-------------------|
|------------------|---------------------------|-10---9----7-------|
|--9---7---6-------|-----9b11==(9)r(9)-(9)---9-|----9---9----9-7-6-|
|----7---7---7-----|---7-------------------7---|-------------------|
|--------------9-7-|-5-------------------------|-------------------|
|------------------|---------------------------|-------------------|
|
|                    PM|
|  E E E E E E E E   E E E     +E  +E  +E  E E    E E E E  E E E E
|------------------|---------------------------|-------------------|
|--9---7---5-------|---------------------------|-10---9---10-9-7---|
|----6---6---6-----|-----9b11==(9)r(9)-(9)---9-|----9---9--------9-|
|--------------7-6-|---7-------------------7---|-------------------|
|------------------|-5-------------------------|-------------------|
|------------------|---------------------------|-------------------|


  F#5                                             Dsus2/A
  W                            +W                 W
  |                             |                 |
  /                             /                 /

  PM|             ~~~~~~~PM|                PM|
  E E  E     +E  +E  +E  E E    E E E E E E E E   E E E     +E  +E  +E  E E
|----------------------------|------------------|---------------------------|
|----------------------------|------------------|---------------------------|
|-----[6]b7==(6)r(6)-(6)-----|--9---7---6-------|-----9b11==(9)r(9)-(9)---9-|
|-4-7--------------------4-7-|----7---7---7-----|---7-------------------7---|
|----------------------------|--------------9-7-|-5-------------------------|
|----------------------------|------------------|---------------------------|
|
| PM|             ~~~~~~~                         PM|
| E E  E     +E  +E  +E  E E    E E E E E E E E   E E E     +E  +E  +E  E E
|----------------------------|------------------|---------------------------|
|----------------------------|--9---7---5-------|---------------------------|
|-----[6]b7==(6)r(6)-(6)---6-|----6---6---6-----|-----9b11==(9)r(9)-(9)---9-|
|-4-7--------------------7---|--------------7-6-|---7-------------------7---|
|----------------------------|------------------|-5-------------------------|
|----------------------------|------------------|---------------------------|


                      Interlude
                       F#5
                       Gtr II
  +W                   W                 +W
   |                   |                  |
   /                   /                  /

   E E E E  E E E E    E E E E E E E E    E  E E E E E E E
|-------------------||-----------------|-------------------|
|-10---9----7-------||-----------------|-------------------|
|----9---9----9-7-6-||-----6-----6-----|--6------6---6-----|
|-------------------||---7-----7-----7-|-------7-----------|
|-------------------||-9-----9-----9---|-----9-----9---9-7-|
|-------------------||-----------------|-------------------|
|
|                      Gtr IV
|  E E E E  E E E E    W                 +W
|-------------------||-----------------|-------------------|
|-10---9---10-9-7---||-----------------|-------------------|
|----9---9--------9-||-6---------------|-(6)---------------|
|-------------------||-----------------|-------------------|
|-------------------||-----------------|-------------------|
|-------------------||-----------------|-------------------|


  Dsus2/A                                 F#5
   W                  +W                  W
   |                   |                  |
   /                   /                  /

   E  E E E E E E E    E  E E E E E E E   E E E E E E E E
|-------------------|-------------------|-----------------|
|-------------------|-------------------|-----------------|
|-------9-----9-----|--9------9---------|-----6-----6-----|
|-----7-----7-----7-|-------7---6-7-6---|---7-----7-----7-|
|--5------5-----5---|-----5-----------7-|-9-----9-----9---|
|-------------------|-------------------|-----------------|
|
| +W                  +W                  W
|-------------------|-------------------|-----------------|
|-------------------|-------------------|-----------------|
|-(6)---------------|-(6)---------------|-----------------|
|-------------------|-------------------|-----------------|
|-------------------|-------------------|-----------------|
|-------------------|-------------------|-----------------|


                     Dsus2/A                    N.C.
  +W                 W                 +H       H
   |                 |                  |       |
   /                 /                  /       o

   E E E E E E E E   E E E E E E E E    E E E E E E E E
|------------------|-----------------|------------------|
|------------------|-----------------|------------------|
|--6-----6---6-----|-----9-----9-----|--9-----9---------|
|------7-----------|---7-----7-----7-|------7---6-7-6---|
|----9-----9---9-7-|-5-----5-----5---|----5-----------7-|
|------------------|-----------------|------------------|


    N.C.
    Gtr I
     E  E E  E  E E  E  E   E  E  E E  E E  E  E   E  E  E E  E  E E  E
||------------------------|----------------------|----------------------|
||o-----------------------|----------------------|----------------------|
||--------9-------9-------|-9-------9----9-------|------13------13------|
||-----11------11------11-|------11--------------|---11------11------11-|
||o-12------12------12----|---12------12---12-11-|-9-------9-------9----|
||------------------------|----------------------|----------------------|
|
|   Gtr II
|    E  E E  E  E E  E  E   E  E  E E  E E  E  E   E  E  E E  E  E E  E
||------------------------|----------------------|----------------------|
||o-----------------------|----------------------|----------------------|
||--------6-------6-------|-6-------6----6-------|-------9-------9------|
||------7-------7-------7-|-------7--------------|----7-------7-------7-|
||o--9-------9-------9----|----9-------9----9--7-|-5-------5-------5----|
||------------------------|----------------------|----------------------|


  1.                       2.
  N.C.
   E E  E  E E  E E  E      E E  E  E   H
|-----------------------||--------------------||
|----------------------o||--------------------||
|-13------13------------||-13------13---------||
|------11----9-11-9-----||------11------------||
|----9--------------11-o||----9---------------||
|-----------------------||------------/14\----||
|
|  E E  E  E E  E E  E      E E  E  E   H
|-----------------------||--------------------||
|----------------------o||--------------------||
|--9-------9------------||--9-------9---------||
|-------7----6--7-6-----||-------7------------||
|----5---------------7-o||----5---------------||
|-----------------------||------------/17\----||


    F#5         F#sus2(type 3)        N.C.    E5II    N.C.G#m
    Gtr I
            PM                        PM              PM
    H       Q   Q       +H.           Q       H       Q   Q
||--------------------|---------------------|-----------------|
||o-------------------|---------------------|-----------------|
||--------------1-----|-(1)-----------------|-4---------------|
||--------------4-----|-(4)-----------------|-2---------------|
||o-4-------4---------|---------------------|-----------------|
||--2-------2---------|---------------0-----|---------0---4---|
|
|   Gtr III
|           PM                        PM              PM
|   H       Q   Q       +H.           Q       H       Q   Q
||--------------------|---------------------|-----------------|
||o-------------------|---------------------|-----------------|
||--------------1-----|-(1)-----------------|-4-----------4---|
||--------------4-----|-(4)-----------------|-2-----------6---|
||o-4-------4---------|---------------------|-----------------|
||--2-------2---------|---------------0-----|---------0-------|
|
|   Gtr II
|   PM  PM    PM--------|     PM    PM--------|   PM    PM
|   E E E E E E S S E    E  E E E E E S S E   E E E E E E E E
||--------------------|---------------------|-----------------|
||o-------------------|---------------------|-----------------|
||--------------------|---------------------|-----------------|
||--------------------|---------------------|-----------------|
||o---4---4h5---------|-----4---4-5---------|---2---2-----1---|
||--2---2-----2-5-4-2-|--2----2-----2-5-4-3-|-0---0---3-0---2-|


                     1.
                N.C.  F#5IV   N.C.F#m                 F#5 D5/A
                PM            PM                      PM
  +H.           Q     H       Q   Q       +Q    +Q    Q   Q
|-------------------|-------------------|-----------------------|
|-------------------|-------------------|-----------------------|
|-------------------|-6-----------------|-----------------------|
|-------------------|-4-----------------|-----------------------|
|-------------------|-------------0-----|-(0)---(0)---4---------|
|-(4)-----------0---|---------0---2-----|-(2)---(2)---2---5-----|
|
|               PM            PM                      PM
| +H.           Q     H       Q   Q       +Q     Q    Q   Q
|-------------------|-------------2-----|-(2)-------------------|
|-------------------|-------------------|--------2--------------|
|-(4)---------------|-6-----------------|-----------------------|
|-(6)---------------|-4-----------------|-----------------------|
|-------------------|-------------------|-------------4---5-----|
|---------------0---|---------0---------|-------------2---------|
|
|  PM   PM    PM      PM  PM    PM--------|      PM     PM----|
|  E  E E E E E E E   E E E E E E S S E    E  E  E  E E E S S E
|-------------------|-------------------|-----------------------|
|-------------------|-------------------|-----------------------|
|-------------------|-------------------|-----------------------|
|-------------------|-------------------|-----------------------|
|-----2---2-----1---|---4---4h5---------|-----4-----4-5---------|
|--0----0---3-0---2-|-2---2-----2-5-4-2-|--2-----2------2-5-4-3-|


                                            2.
    E5/B    N.C.G#mII                       F#5IV   N.C.F#m
            PM                                      PM
  a H       Q   Q     +W                    H       Q   Q
|-------------------|--------------------||-------------------|
|-------------------|-------------------o||-------------------|
|-------------------|--------------------||-6-----------------|
|-------------------|--------------------||-4-----------------|
|-----------2---2---|-(2)---------------o||-------------0-----|
|-5S7---------------|--------------------||---------0---2-----|
|
|           PM                                      PM
| a H       Q   Q     +W                    H       Q   Q
|-------------------|--------------------||-------------------|
|-------------------|-------------------o||-------------2-----|
|-------------------|--------------------||-6-----------------|
|-------------------|--------------------||-4-----------------|
|-5S7-------2-------|-------------------o||-------------------|
|---------------4---|-(4)----------------||---------0---------|
|
|   PM  PM    PM       PM   PM    PM        PM  PM    PM----|
|   E E E E E E E E    E  E E E E E E E     E E E E E E S S E
|-------------------|--------------------||-------------------|
|-------------------|-------------------o||-------------------|
|-------------------|--------------------||-------------------|
|-------------------|--------------------||-------------------|
|-----2---2-----1---|-----2---2-----1---o||---4---4h5---------|
|---0---0---3-0---2-|--0----0---3-0---2--||-2---2-----2-5-4-2-|


              F#5 D5/A      E5/B
              PM
  +Q    +Q    Q   Q       a W                 +W
|-----------------------|-------------------|-------------------||
|-----------------------|-------------------|-------------------||
|-----------------------|-------------------|-------------------||
|-----------------------|-------------------|-------------------||
|-(0)---(0)---4---------|-------------------|-------------------||
|-(2)---(2)---2---5-----|-5S7---------------|-(7)---------------||
|
|             PM
| +Q     Q    Q   Q       a W                 +W
|-----------------------|-------------------|-------------------||
|-(2)-------------------|-------------------|-------------------||
|--------2--------------|-------------------|-------------------||
|-----------------------|-------------------|-------------------||
|-------------4---5-----|-5S7---------------|-(7)---------------||
|-------------2---------|-------------------|-------------------||
|
|  PM    PM     PM----------|   PM    PM       PM   PM    PM
|  E  E  E  E E E S S E     E E E E E E E E    E  E E E E E E E
|-----------------------|-------------------|-------------------||
|-----------------------|-------------------|-------------------||
|-----------------------|-------------------|-------------------||
|-----------------------|-------------------|-------------------||
|-----4-----4-5---------|-----2---2-----1---|-----2---2-----1---||
|--2-----2------2-5-4-3-|---0---0---3-0---2-|--0----0---3-0---2-||


 Outro
  E5                             N.C.
  Gtr II
   W              +W             +W
   |               |
   /               /

  Gtr I
  +W              +W              W
|---------------|--------------|--------------|
|---------------|--------------|--------------|
|---------------|--------------|--------------|
|---------------|--------------|--------------|
|---------------|--------------|--------------|
|-(7)-----------|-(7)----------|--------------|
|
| Gtr III
| +W              +W              W
|---------------|--------------|--------------|
|---------------|--------------|--------------|
|---------------|--------------|--------------|
|---------------|--------------|--------------|
|-(7)-----------|-(7)----------|--------------|
|---------------|--------------|--------------|
|
| Gtrs V, VI
|  Q   Q  Q  Q    +Q   H    Q     Q  Q  Q  Q
|------------0--|-(0)----------|--------------|
|------1--------|--------------|--------3-----|
|---------4-----|------4----0--|-----------4--|
|--2------------|--------------|-----5--------|
|---------------|--------------|--3-----------|
|---------------|--------------|--------------|


  N.C.
  Gtrs V, VI
  +W           Q  Q  Q  Q    +Q   H    Q
|------------|----------0--|-(0)----------|
|------------|----1--------|--------------|
|-(4)--------|-------4-----|------4----0--|
|------------|-2-----------|--------------|
|------------|-------------|--------------|
|------------|-------------|--------------|


  N.C.
  Gtr V
  Q  Q  Q  Q    +W           Q  Q  Q  Q
|-------------|------------|----0-----0--|
|-------3-----|------------|-------3-----|
|----------4--|-(4)--------|-------------|
|----5--------|------------|-5-----------|
|-3-----------|------------|-------------|
|-------------|------------|-------------|
|
| Gtr VI
| Q  Q  Q  Q    +W           Q  Q  Q  Q
|-------------|------------|----------0--|
|-------3-----|------------|----1--------|
|----------4--|-(4)--------|-------4-----|
|----5--------|------------|-2-----------|
|-3-----------|------------|-------------|
|-------------|------------|-------------|


  N.C.
  +Q   H    Q    Q  Q  Q   Q     +W
|-(0)----------|----------10--|-(10)----|
|--------------|----7--8------|---------|
|------4-------|-9------------|---------|
|-----------5--|--------------|---------|
|--------------|--------------|---------|
|--------------|--------------|---------|
|
| +Q   H    Q    Q  Q  Q   Q     +W
|-(0)----------|----------10--|-(10)----|
|--------------|----7---------|---------|
|------4----0--|-9-----7------|---------|
|--------------|--------------|---------|
|--------------|--------------|---------|
|--------------|--------------|---------|


  N.C.                           G5/F#
  Q  Q  Q  Q    +Q     H     +S    E.    +W
|----0-----0--|-(0)--------------^10--|-(10)----|
|-------3-----|------------------^-8--|--(8)----|
|-------------|--------4-----(4)-^11--|-(11)----|
|-5-----------|-----------------------|---------|
|-------------|-----------------------|---------|
|-------------|-----------------------|---------|
|
|                                Gtr IV
|                                  <
| Q  Q  Q  Q    +Q     H     +S    E.    +W
|----------0--|-(0)---------------15--|-(15)----|
|----1--------|-----------------------|---------|
|-------4-----|------^-4-----(4)------|---------|
|-2-----------|------^(2)----(2)------|---------|
|-------------|-----------------------|---------|
|-------------|-----------------------|---------|


  Gtrs V, VI
   +W            +W            +W            +W
|-(10)--------|-(10)--------|-(10)--------|-(10)----*|
|--(8)--------|--(8)--------|--(8)--------|--(8)----*|
|-(11)--------|-(11)--------|-(11)--------|-(11)----*|
|-------------|-------------|-------------|---------*|
|-------------|-------------|-------------|---------*|
|-------------|-------------|-------------|---------*|
|
| Gtr IV
|  +W            +W            +W            +W
|-(15)--------|-(15)--------|-(15)--------|-(15)----*|
|-------------|-------------|-------------|---------*|
|-------------|-------------|-------------|---------*|
|-------------|-------------|-------------|---------*|
|-------------|-------------|-------------|---------*|
|-------------|-------------|-------------|---------*|


Duration Legend
---------------
W - whole; H - half; Q - quarter; E - 8th; S - 16th; T - 32nd; X - 64th; a - acciaccatura
+ - note tied to previous; . - note dotted; .. - note double dotted
Uncapitalized letters represent notes that are staccato (1/2 duration)
Irregular groupings are notated above the duration line
Duration letters will always appear directly above the note/fret number it represents the
duration for.  Duration letters with no fret number below them represent rests.  Multi-
bar rests are notated in the form Wxn, where n is the number of bars to rest for.  Low
melody durations appear below the staff

Tablature Legend
----------------
 h   - hammer-on
 p   - pull-off
 b   - bend
 pb  - pre-bend
 r   - bend release (if no number after the r, then release immediately)
 /\  - slide into or out of (from/to "nowhere")
 s   - legato slide
 S   - shift slide
  - natural harmonic
[n]  - artificial harmonic
n(n) - tapped harmonic
 ~   - vibrato
 tr  - trill
 T   - tap
 TP  - trem. picking
 PM  - palm muting
\n/  - tremolo bar dip; n = amount to dip
 \n  - tremolo bar down
 n/  - tremolo bar up
/n\  - tremolo bar inverted dip
 =   - hold bend; also acts as connecting device for hammers/pulls
 <>  - volume swell (louder/softer)
 x   - on rhythm slash represents muted slash
 o   - on rhythm slash represents single note slash

Misc Legend
-----------
 |  - bar
||  - double bar
||o - repeat start
o|| - repeat end
*|  - double     ( nding)
 :  - bar (freetime)
 $  - Segno
 &  - Coda
                             ((PLEASE RATE))
comments
print report bad tab
1 comment total.
0 reply
MANNN wrote on May 31 2011, 10:22 pm

well done!!!

I want to post or [tab]
guest
You may want to rate the tab now too:
select rating
Please do not post tabs as comments. Select "correction" instead!