Oops, an error
Loading. Please wait.

Indictment Tab

ver3
ver3

Intro

Whole song

Interactive

More versions @911Tabs.com
3,063 views 1 this week
no commentswrite comment
1 2 3 4 5
accurate
x 5
Autoscroll
+/-
esc
set tempo
stop
Contributor
Difficulty
novice
Hey! There's an official Ultimate Guitar app which is ideal
for learning songs when you're away from computer. Get the app
WARNING: You are trying to view
                                    content from Ultimate-Guitar.com
                                    in an unauthorized application,
                                    which is prohibited.

                                    Please use an official Ultimate
                                    Guitar Tabs application for iPhone,
                                    iPad or Android to access legitimate
                                    chords, guitar, bass, and drum tabs
                                    from Ultimate-Guitar.com database.

                                    Type "ultimate guitar tabs" in Apple
                                    App Store's or Android Market's
                                    search to find the application.
          High To Low tuning (D-G-C-F-A-D

D|----------------------------------------|-----------------------------------|
G|----------------------------------------|-----------------------------------|
C|--------------------------9\-10/-9------|--------------12/-10/-9--------7\9-|
F|--------------------------X---X--X------|--------------X---X---X--------X-X-|
A|--------------------------7\--8/-7------|--------------10/-8/--7--------5\7-|
D|--0--0--0--0--0--0--0--0------------0--0|--0--0--0--0-------------0--0------|
    .  .  .  .  .  .  .  .            .  .   .  .  .  .             .  .

D|-------------------------------------------------------------|
G|-------------------------------------------------------------|
C|--------------------------9/-10\9----------------------------|
F|--------------------------X--X--X----------------------------|
A|--------------------------7/-8\-7--------5h7--------------3h5|
D|--0--0--0--0--0--0--0--0-----------0--0-------0--0--0--0-----|
    .  .  .  .  .  .  .  .           .  .       .  .  .  .

D|---------------------------------------|
G|---------------------------------------|
C|--------------------------9/10\9-------|
F|--------------------------X-X--X-------|
A|--------------------------7/8\-7-------|
D|--0--0--0--0--0--0--0--0----------0--0-|
    .  .  .  .  .  .  .  .          .  .


D|--------------------------------|-----------------------------------|
G|--------------------------------|-----------------------------------|
C|--------------12\10\9-------7/9-|-----------------------------------|
F|--------------X---X-X-------X-X-|-----------------------------------|
A|--------------10\-8\7-------5/7-|--------------7\5--------------5/3-|
D|--0--0--0--0----------0--0------|--8--8--8--8-------7--7--7--7------|
    .  .  .  .          .  .         .  .  .  .       .  .  .  .

D|----------------------|
G|----------------------|
C|----------------------|
F|----------7\5---------|
A|--5/7-----5\3-----3/5-|
D|--3/5--0-------0--1/3-|
         .       .

D|------------------------------------------|----------------|
G|------------------------------------------|----------------|
C|------------------------------------------|----------------|
F|------------------------------------------|----------------|
A|------------------------------------------|----------------|
D|--0--0--0--0--0--0--0--0--0----0--0--0--0-|--0--0--0--0--0-|
    .  .  .  .  .  .  .  .  .    .  .  .  .    .  .  .  .  .

D|------------------------------------------------------------|
G|------------------------------------------------------------|
C|------------------------------------------------------------|
F|------------------------------------------------------------|
A|------------------------------------------------------------|
D|--0--0--0--0--0--0--0--0--0-----0--0--0--0----0--0--0--0--0-|
    .  .  .  .  .  .  .  .  .     .  .  .  .    .  .  .  .  .

D|---------------------------------------------------------------------------|
G|---------------------------------------------------------------------------|
C|---------------------------------------------------------------------------|
F|--------------------------------------------------------------------7\5----|
A|------------------------------------------------------------3/7-----5\3----|
D|--0--0--0--0--0--0--0--0--0----0--0--0--0----0--0--0--0--0--5/5--0-------0-|
    .  .  .  .  .  .  .  .  .    .  .  .  .    .  .  .  .  .       .       .

D|----------------------------|------------------------------------------|
G|----------------------------|------------------------------------------|
C|----------------------------|---------------12\11---------------14--14-|
F|----------------------------|---------------X--X----------------X---X--|
A|--3/5---2--2--2--4--3--2--2-|---------------10\9----------------12--12-|
D|--1/3---0--0--0--2--1--0--0-|--0--0--0--0----------0--0--0--0----------|
             .  .  .  .  .  .    .  .  .  .          .  .  .  .


D|-------------------------------------------------------------|-------------|
G|-------------------------------------------------------------|-------------|
C|-------------------------------------------------------------|-------------|
F|---------------9-----9--9--9--5----5--5----------------------|-------------|
A|---------------7\6---6--6--6--3\2--2--2--2--2--2--4--3--2--2-|-------------|
D|--0--0--0--0-----------------------------0--0--0--2--1--0--0-|--0--0--0--0-|
    .  .  .  .                                .  .  .  .  .  .    .  .  .  .

D|----------------------------------------------------------------------|
G|----------------------------------------------------------------------|
C|--9/8---------------11--11--------------------------------------------|
F|--X-X----------------X--X-----------------14/13--13-13-13--10\9--9--9-|
A|--7/6----------------9--9-----------------10/9---9--9--9---7-----7--7-|
D|--------0--0--0--0-----------0--0--0--0-------------------------------|
          .  .  .  .           .  .  .  .

D|-------------------|-----------------------------|-------------------------|
G|-------------------|-----------------------------|-------------------------|
C|-------------------|-----------------------------|-------------------------|
F|-------------------|-----------------------------|-------------------------|
A|--2--2--2--4--3--2-|--2--------2----------2------|--2----------2--------2--|
D|--0--0--0--2--1--0-|--0--0--0--0----0--0--0--0--0|--0----0--0--0--0--0--0--|
       .  .  .  .  .    .  .  .  .    .  .  .  .  .   .    .  .  .  .  .  .

D|------|-----------------------------------------------------|-------------|
G|------|-----------------------------------------------------|-------------|
C|------|-----------------------------------------------------|-------------|
F|------|-----------------------------------------------------|-------------|
A|------|--10-------------9-------------6/7---2--2--2--4--3--2|--2--------2-|
D|--0--0|-------0--0--0-------0--0--0---------0--0--0--2--1--0|--0--0--0--0-|
    .  .        .  .  .       .  .  .            .  .  .  .  .   .  .  .  .

D|---------------|-----------------------------|-----------------------------|
G|---------------|-----------------------------|-----------------------------|
C|---------------|-----------------------------|-----------------------------|
F|---------------|-----------------------------|-----------------------------|
A|--------2------|--2----------2--------2------|--14------------12-----------|
D|--0--0--0--0--0|--0----0--0--0--0--0--0--0--0|-------0--0--0-------0--0--0-|
    .  .  .  .  .   .    .  .  .  .  .  .  .  .        .  .  .       .  .  .

D|-------------------------|-----------------------------|------------------|
G|-------------------------|-----------------------------|------------------|
C|-------------------------|-----------------------------|------------------|
F|-------------------------|-----------------------------|------------------|
A|--9/10---2--2--2--4--3--2|--2--------2----------2------|--2----------2----|
D|---------0--0--0--2--1--0|--0--0--0--0----0--0--0--0--0|--0----0--0--0--0-|
              .  .  .  .  .   .  .  .  .    .  .  .  .  .   .    .  .  .  .

D|-------------|-------------------------------------|-------------------|
G|-------------|-------------------------------------|-------------------|
C|-------------|-------------------------------------|-------------------|
F|-------------|-------------------------------------|-------------------|
A|-----2-------|--14-------------12-------------9\10-|--2--2--2--4--3--2-|
D|--0--0--0--0-|-------0--0--0--------0--0--0--------|--0--0--0--2--1--0-|
    .  .  .  .         .  .  .        .  .  .              .  .  .  .  .

D|-----------------------------|------------------------------|--------------|
G|-----------------------------|------------------------------|--------------|
C|-----------------------------|------------------------------|--------------|
F|-----------------------------|------------------------------|--------------|
A|--2--------2----------2------|--2----------2--------2-------|--10----------|
D|--0--0--0--0----0--0--0--0--0|--0----0--0--0--0--0--0--0--0-|------0--0--0-|
    .  .  .  .    .  .  .  .  .   .    .  .  .  .  .  .  .  .        .  .  .

D|--------------------|--------------------------|---------------------------|
G|--------------------|--------------------------|---------------------------|
C|--------------------|--9--9---------------8--8-|---------------11--11------|
F|--------------------|--X--X---------------X--X-|---------------X---X-------|
A|--9-------------6\7-|--7--7---------------6--6-|---------------9---9-------|
D|------0--0--0-------|---------0--0--0--0-------|--0--0--0--0----------0--0-|
        .  .  .                 .  .  .  .          .  .  .  .          .  .

D|-----------------------------|----------------------------|----------------|
G|-----------------------------|----------------------------|----------------|
C|--12--12---------------11--11|---------------14--14-------|--12--12--------|
F|--X---X----------------X---X-|---------------X---X--------|--X---X---------|
A|--10--10---------------9---9-|---------------12--12-------|--10--10--------|
D|-----------0--0--0--0--------|--0--0--0--0-----------0--0-|-----------0--0-|
             .  .  .  .           .  .  .  .           .  .             .  .

D|---------------|----------------------------------------------------------|
G|---------------|----------------------------------------------------------|
C|---------11--11|---------------14--14----------16--16--------------14--14-|
F|---------X---X-|---------------X---X-----------X---X---------------X---X--|
A|---------9---9-|---------------12--12----------14--14--------------12--12-|
D|--0--0---------|--0--0--0--0------------0--0-----------0--0--0--0---------|
    .  .            .  .  .  .            .  .           .  .  .  .


          Guitar Solo


D|--------------|----------------|---------------------------------------|
G|--14--14b1/2v-|----------------|---------------------------------------|
C|--14--14b1/2v-|----------------|--7h9p7--------------------------------|
F|--------------|--12h14p12--14v-|---------9--7h9p7----------------------|
A|--------------|----------------|-------------------9--7h9p7\6--6br1/2v-|
D|-----------------------------------------------------------------------|

D|---------------------------|--------------------------|
G|---------------------------|--------------7h8p7-------|
C|---------------7h9p7-------|--------7--9---------9--7-|
F|--------7--9----------9--7-|--7--9--------------------|
A|--7--9---------------------|--------------------------|
D|---------------------------|--------------------------|
    .  .  .  .                  .  .   .  .

D|---------------------------------------------------------------------------|
G|--17-16-13-13-16-13-13-13-13-----------------------------------------------|
C|-------------------------------16-14-12-12-14-12-12-12---------------------|
F|---------------------------------------------------------16-14-13-13-14-13-|
A|---------------------------------------------------------------------------|
D|---------------------------------------------------------------------------|

D|------------|---------------------|----------------------------------------|
G|------------|--15b--15b--15b--15bv|--12h13p12------------------------------|
C|------------|---------------------|------------14--12h14p12----------------|
F|--13-13-14V-|---------------------|--------------------------14--12h14--12-|
A|------------|---------------------|----------------------------------------|
D|------------|---------------------|----------------------------------------|

D|---------------|----|-------|----------------------------------------------|
G|---------------|----|-------|----------------------------------------------|
C|---------------|----|-------|----------------------------------------------|
F|--14--14br-14v-|--5-|-------|----------------------------------------------|
A|---------------|--2-|--3h7/-|--2--2--2--4--3--2|--2--------2----------2----|
D|---------------|----|--3h7/-|--0--0--0--2--1--0|--0--0--0--0----0--0--0--0-|
                                    .  .  .  .  .   .  .  .  .    .  .  .  .

D|------|-------|-----------------------|----------|-------------------|
G|------|-------|-----------------------|----------|-------------------|
C|------|-------|-----------------------|----------|-------------------|
F|----9-|-------|-----------------------|--5--4----|-------------------|
A|----7-|--3h7/-|--2----------2--------2|--3--2--5-|--2--2--2--4--3--2-|
D|--0---|--3h7/-|--0----0--0--0--0--0--0|--------3-|--0--0--0--2--1--0-|
    .              .    .  .  .  .  .  .   .  .  .    .  .  .  .  .  .

D|------------------------------|-----------------------|-----|--------|----|
G|------------------------------|-----------------------|-----|--------|----|
C|------------------------------|-----------------------|-----|--------|----|
F|------------------------------|-----------------------|-----|--5--4--|----|
A|--2--------2-----------2------|--2----------2--------2|-----|--3--2-5|--2-|
D|--0--0--0--0-----0--0--0--0--0|--0----0--0--0--0--0--0|--3bv|-------3|--0-|
    .  .  .  .     .  .  .  .  .   .    .  .  .  .  .  .
comments
print report bad tab
I want to post or [tab]
guest
You may want to rate the tab now too:
select rating
Please do not post tabs as comments. Select "correction" instead!