Oops, an error
Loading. Please wait.

It Dwells On Me Tab

ver3
ver3

Whole song

Interactive

More versions @911Tabs.com
4,624 views 1 this week
no commentswrite comment
1 2 3 4 5
excellent!
x 2
Autoscroll
+/-
esc
set tempo
stop
Contributor
Hey! There's an official Ultimate Guitar app which is ideal
for learning songs when you're away from computer. Get the app
WARNING: You are trying to view
                                    content from Ultimate-Guitar.com
                                    in an unauthorized application,
                                    which is prohibited.

                                    Please use an official Ultimate
                                    Guitar Tabs application for iPhone,
                                    iPad or Android to access legitimate
                                    chords, guitar, bass, and drum tabs
                                    from Ultimate-Guitar.com database.

                                    Type "ultimate guitar tabs" in Apple
                                    App Store's or Android Market's
                                    search to find the application.
-------------------------------------------------------------------------------
                           "It Dwells In Me" --- All That Remains
-------------------------------------------------------------------------------

Tabbed by: [travis]


Key: G Major (G A B C D E F#)


Tuning: Drop D Standard == D G C F A D (low to high)

Legend:

... = palm mute
h = hammer on
p = pull off
b = bend
* = pinch harmonic
/ = slide up
\ = slide down
h/ = pick once
p\ = pick once
__ = hold bend / hold note during tapped harmonics
() = bring bent note back to normal/note not picked
~ = vibrato
x/x/x = pickslide
[] = harmonic
.5 = half step bend
1 = whole step bend
T = Tap
H = Tapped harmonic (lightly tap note with H over it to produce harmonic)


==================================
Verse 1:
Verse 2: Second Time

Guitar 1:
D|------------------------------------------------------------------------------------------------|
A|------------------------------------------------------------------------------------------------|
F|------------------------------------------------------------------------------------------------|
C|------------------------------------------------------------------------------------------------|
G|7-------------------------7---9--7-------------------------7---9-7-----7-----7---9-----9-----9--|
D|7-0-0000-0-0-0000-0-0-0-0--8-7---7-0-0000-0-0-0000-0-0-0-0--8-7----8-8---8-8---8---7-7---7-7---7|
    .......................          .......................         ...   ...   .   ...   ...   .

Guitar 2:
D|------------------------------------------------------------------------------------------------|
A|------------------------------------------------------------------------------------------------|
F|------------------------------------------------------------------------------------------------|
C|------------------------------------------------------------------------------------------------|
G|7-------------------------2---5--7-------------------------2---5-2-----2-----2---5-----5-----5--|
D|7-0-0000-0-0-0000-0-0-0-0--3-2---7-0-0000-0-0-0000-0-0-0-0--3-2----3-3---3-3---3---2-2---2-2---2|
    .......................  ...     .......................  ...    ...   ...   .   ...   ...   .

====================================
Guitar 1:
D|------------------------------------------------------------------------------------------------|
A|------------------------------------------------------------------------------------------------|
F|------------------------------------------------------------------------------------------------|
C|------------------------------------------------------------------------------------------------|
G|7-------------------------7---9--7-------------------------7---9-7-----7-----7---9-----9-----9--|
D|7-0-0000-0-0-0000-0-0-0-0--8-7---7-0-0000-0-0-0000-0-0-0-0--8-7----8-8---8-8---8---7-7---7-7---7|
    .......................          .......................         ...   ...   .   ...   ...   .

Guitar 2:
D|------------------------------------------------------------------------------------------------|
A|------------------------------------------------------------------------------------------------|
F|------------------------------------------------------------------------------------------------|
C|------------------------------------------------------------------------------------------------|
G|7-------------------------2---5--7-------------------------2---5-2-----2-----2---5-----5-----5--|
D|7-0-0000-0-0-0000-0-0-0-0--3-2---7-0-0000-0-0-0000-0-0-0-0--3-2----3-3---3-3---3---2-2---2-2---2|
    .......................  ...     .......................  ...    ...   ...   .   ...   ...   .

====================================
Guitars 1 and 2:
D|-----------------------------------|
A|-----------------------------------|
F|-----------------------------------|
C|-----------------------------------|
G|-7-----------------2-2-2-2-2-2-2-2-|
D|-7-0-0000-0-0-0000-0-0-0-0-0-0-0-0-|
     ...............................

End of Verse 1.
End of Verse 2.
====================================
Chorus 1:
Chorus 2: Second Time.

Guitars 1 and 2:
D|-----------------------------------------------------------------------|
A|-3-----5~~~------------------------3-----5~~~--------------------------|
F|-2-----4~~~------------------------2-----4~~~----7---------------------|
C|-0-----2~~~------------------------0-----2~~~----7---------------------|
G|---------------7~~~-------5-3-2------------------5-----10---9----------|
D|----0-------0--7~~~-0-2-3-------3-----0-------0------0----0---0-10-0-0-|
      .       .       .............     .       .      .    .   .    ...

Guitar 3:
D|-----------------------------------------------------------------------|
A|-----------------------------------------------------------------------|
F|-----------------------------------------------------------------------|
C|---------------2~~~~~~~~~~~~~~~~~~~~~~~~~~~~~~~~~~~~~~~~---------------|
G|---------------2~~~~~~~~~~~~~~~~~~~~~~~~~~~~~~~~~~~~~~~~---------------|
D|---------------0~~~~~~~~~~~~~~~~~~~~~~~~~~~~~~~~~~~~~~~~---------------|

====================================
Guitars 1 and 2:
D|----------------------------------------------------------|
A|-3-----5~~~-----------------------------------------------|
F|-2-----4~~~-----------------------------------------------|
C|-0-----2~~~-----------------------2-----------2~~~~~~~~~~~|
G|---------------7~~~-------5-3-2-----5-3-2~~~--2~~~~~~~~~~~|
D|----0-------0--7~~~-0-2-3-------3-----------3-0~~~~~~~~~~~|
      .       .       .............

Guitar 3: Play the pickslide only on the first time.
D|-----------------------------------------------|-----------|
A|-----------------------------------------------|-----------|
F|-----------------------------------------------|-----------|
C|---------------2~~~~~~~~~~~~~~~~~~~~~~~~~~~~~~~|x\x\x\x\x\x|
G|---------------2~~~~~~~~~~~~~~~~~~~~~~~~~~~~~~~|x\x\x\x\x\x|
D|---------------0~~~~~~~~~~~~~~~~~~~~~~~~~~~~~~~|-----------|

Go back to the top for Verse 2, and play all the way back to here and continue.

End of Chorus 1.
====================================
Chorus 2 Continued:

Guitar 1:
D|-----------------------------------------------------------------------|
A|-3-----5~~~------------------------3-----5~~~--------------------------|
F|-2-----4~~~------------------------2-----4~~~----7---------------------|
C|-0-----2~~~------------------------0-----2~~~----7---------------------|
G|---------------7~~~-------5-3-2------------------5-----10---9----------|
D|----0-------0--7~~~-0-2-3-------3-----0-------0------0----0---0-10-0-0-|
      .       .       .............     .       .      .    .   .    ...

Guitar 2:
D|---------------------------------------------------------------------|
A|-3-----5~~~------------------------3-----5~~~------------------------|
F|-2-----4~~~------------------------2-----4~~~----7-------------------|
C|-0-----2~~~------------------------0-----2~~~----7-----9---7---------|
G|---------------7~~~-------5-3-2------------------5-------------9-----|
D|----0-------0--7~~~-0-2-3-------3-----0-------0------0---0---0---0-0-|
      .       .       .............     .       .      .   .   .   ...


Guitar 3:
D|---------------------------------------------------------------------|
A|---------------------------------------------------------------------|
F|---------------------------------------------------------------------|
C|---------------2~~~~~~~~~~~~~~~~~~~~~~~~~~~~~~~~~~~~~~~~-------------|
G|---------------2~~~~~~~~~~~~~~~~~~~~~~~~~~~~~~~~~~~~~~~~-------------|
D|---------------0~~~~~~~~~~~~~~~~~~~~~~~~~~~~~~~~~~~~~~~~-------------|

=====================================
Guitar 1:
D|----------------------------------------------------------|
A|-3-----5~~~-----------------------------------------------|
F|-2-----4~~~-----------------------------------------------|
C|-0-----2~~~-----------------------2-----------2~~~~~~~~~~~|
G|---------------7~~~-------5-3-2-----5-3-2~~~--2~~~~~~~~~~~|
D|----0-------0--7~~~-0-2-3-------3-----------3-0~~~~~~~~~~~|
      .       .       .............


Guitar 2:
D|----------------------------------------------------------|
A|-3-----5~~~-----------------------------------------------|
F|-2-----4~~~-----------------------------------------------|
C|-0-----2~~~-----------------------2-----------2~~~~~~~~~~~|
G|---------------7~~~-------5-3-2-----5-3-2~~~--2~~~~~~~~~~~|
D|----0-------0--7~~~-0-2-3-------3-----------3-0~~~~~~~~~~~|
      .       .       .............

Guitar 3:
D|-------------------------------------------------------|
A|-------------------------------------------------------|
F|-------------------------------------------------------|
C|---------------2~~~~~~~~~~~~~~~~~~~~~~~~~~~~~~~~-------|
G|---------------2~~~~~~~~~~~~~~~~~~~~~~~~~~~~~~~~--3h/7-|
D|---------------0~~~~~~~~~~~~~~~~~~~~~~~~~~~~~~~~--3h/7-|

End of Chorus 2.
======================================
Interlude:

Guitars 1 and 2:
D|--------------------------------------------------------------------------|
A|--------------------------------------------------------------------------|
F|--------------------------------------------------------------------------|
C|------5------5---5---5---5-------5h/7-------------------------------------|
G|-3333-3------3---3---3---3--3333-3h/5------------------------------12~~~~-|
D|--------------------------------------0000-7-00-7-8-5-00-0-7-0-8-0-10~~~~-|
   ....                       ....      ....   ..       ....   .   .

=======================================
Guitars 1 and 2:
D|-------------------------------------------------------------------------|
A|-------------------------------------------------------------------------|
F|-------------------------------------------------------------------------|
C|------5------5---5---5---5-------5h/7------------------------------------|
G|-3333-3------3---3---3---3--3333-3h/5---------------12~~~--------5-3-2---|
D|--------------------------------------0000-7-00-7-8-10~~~--0-2-3-------3-|
   ....                       ....      ....   ..            .............

End of Interlude.
=======================================
Guitar Solo:

Guitar 1: hold the 9th fret on the C string while lightly tapping the 21st, 16th, and 14th frets
          to produce tapped harmonics.
                                                                                   H     H    H
     1___                                          .5__      .5____             ___________________
D|-------------------------------------------------------------------------------------------------|
A|-------------------------------------------------------------------------------------------------|
F|-14b---(14)---14---12h14p12p11-12~~~~11h12p11p9-11b--(11)-11b~~~~(11)-9h11p9---------------------|
C|-----------------------------------------------------------------------------9~~~21~~~~16~~~14~~~|
G|-------------------------------------------------------------------------------------------------|
D|-------------------------------------------------------------------------------------------------|

Guitar 1:
                         T                             
D|-----------------12h15-20p15p12----------------------------8-10-12/15-14-12----------------------|
A|---------------13--------------13----------------------7-8-----------------15-13-12--------------|
F|-/17~~~~~----12------------------12-------------------9----------------------------14-16-17-16-14|
C|-----------14----------------------14---------------10-------------------------------------------|
G|---------15--------------------------15-----------10---------------------------------------------|
D|---------------------------------------15-12p\8-12-----------------------------------------------|

Guitar 1:
D|--------------------------------------------------------|
A|--------------------------------------------------------|
F|--------------------------------------------------------|
C|-17-16-14--14-16-14----------------------------------12-|
G|---------17---------17-15-14-----------------12-14-15---|
D|----------------------------17-15-14-12-14-15-----------|
                                    .....................

===========
Guitar 1:
D|--------------------------------------------10--12----------------14----------------|
A|------------------------10--12--13--12--13------------------------------------------|
F|----------11~~~~~~~12------------------------------12----12----12----14----14----14-|
C|-14*~~~~~~--------------------------------------------14----16----------16----17----|
G|------------------------------------------------------------------------------------|
D|------------------------------------------------------------------------------------|
                                                        ...........       ...........  

Guitar 3:
D|----------------------------10--12--10------------------------10----------------|
A|----------10~~~~~~~12---13--------------10------12------------------------------|
F|-12~~~~~~~----------------------------------11-----9---9----9----11----11----11-|
C|-----------------------------------------------------9---12---------12----14----|
G|--------------------------------------------------------------------------------|
D|--------------------------------------------------------------------------------|
                                                       ........       ...........

==========
Guitar 1:
                      .5______
D|-------------------19b~~~~~(19)~~~~|
A|-20--------------------------------|
F|----16----16----16-----------------|
C|-------17----19--------------------|
G|-----------------------------------|
D|-----------------------------------|
         ...........

Guitar 3:
                       1_____
D|-12----------------15b~~~~~(15)~~~~|
A|-----------------------------------|
F|----12----12----12-----------------|
C|-------14----16--------------------|
G|-----------------------------------|
D|-----------------------------------|

===========
Guitar 1:
D|-----------------------------------------------------------------------------------|
A|------------------------------------------------------------17------------------19-|
F|-------------------11------------------16---------17------------------19-----------|
C|---------12------------------17-----------14h16h17--17p16p14--16h17h19--19p17p16---|
G|---------------------14h15h17--17p15p14--------------------------------------------|
D|-12h14h15--15p14p12----------------------------------------------------------------|


Guitar 1:
                                       1.5____1_____   1____
D|-12-00000-14-00000-15-00000-17-00000-19b---(19)--(19)b---(19)~~~~|
A|-----------------------------------------------------------------|
F|-----------------------------------------------------------------|
C|-----------------------------------------------------------------|
G|-----------------------------------------------------------------|
D|-----------------------------------------------------------------|

==========
Guitar 1:
D|---------------------------------------------------------------------------------|
A|-17p13--13-15p13--13-17p13--13-15p13--13-17p13--13-15p13--13-17p13--13-15p13--13-|
F|------16--------16--------16--------16--------16--------16--------16--------16---|
C|---------------------------------------------------------------------------------|
G|---------------------------------------------------------------------------------|
D|---------------------------------------------------------------------------------|

Guitar 3:
D|---------------------------------------------------------------------------------|
A|-20p17--17-19p17--17-20p17--17-19p17--17-20p17--17-19p17--17-20p17--17-19p17--17-|
F|------19--------19--------19--------19--------19--------19--------19--------19---|
C|---------------------------------------------------------------------------------|
G|---------------------------------------------------------------------------------|
D|---------------------------------------------------------------------------------|

==========
Guitar 1:
D|-12-----------------------------------------------------------------------|
A|-----15--13--12~~~-13\-/12~~~~~~~~17p13--13-15p13--13-17p13--13-15p13--13-|
F|---------------------------------------16--------16--------16--------16---|
C|--------------------------------------------------------------------------|
G|--------------------------------------------------------------------------|
D|--------------------------------------------------------------------------|

Guitar 3:
D|-15--14-------------------------------------------------------------------|
A|---------17--15~~~-17\-/15~~~~~~~~20p17--17-19p17--17-20p17--17-19p17--17-|
F|---------------------------------------19--------19--------19--------19---|
C|--------------------------------------------------------------------------|
G|--------------------------------------------------------------------------|
D|--------------------------------------------------------------------------|

==========
Guitar 1: The 21st fret and the 24th fret are both tapped harmonics.
                                                         H
                                                _____________________________
D|-12------------------------------------------------------------------------|
A|---15-13-15-13-12-13-12--12------------------------------------------------|
F|-----------------------14--14-12-14p12-11-12-9~~~~~~~~~21~~~~~~~~~~~~~~~~~~|
C|---------------------------------------------------------------------------|
G|---------------------------------------------------------------------------|
D|---------------------------------------------------------------------------|

Guitar 3:
                                                         H
                                                 ____________________________
D|-15-14-12-14-12--12--------------------------------------------------------|
A|---------------15--15-13-15-13-12-13p12-10-12------------------------------|
F|---------------------------------------------12~~~~~~~~24~~~~~~~~~~~~~~~~~~|
C|---------------------------------------------------------------------------|
G|---------------------------------------------------------------------------|
D|---------------------------------------------------------------------------|

End of Guitar Solo.
==========
Rhythm For Guitar Solo:


Guitars 2 and 4:
D|--------------------------------------------------------------------------|
A|--------------------------------------------------------------------------|
F|--------------------------------------------------------------------------|
C|------5------5---5---5---5-------5h/7-------------------------------------| ---
G|-3333-3------3---3---3---3--3333-3h/5------------------------------12~~~~-|   |
D|--------------------------------------0000-7-00-7-8-5-00-0-7-0-8-0-10~~~~-|   |
   ....                       ....      ....   ..       ....   .   .            |
                                                                                |
                                                                                |-- x3
Guitars 2 and 4:                                                                |
D|-------------------------------------------------------------------------|    |
A|-------------------------------------------------------------------------|    |
F|-------------------------------------------------------------------------|    |
C|------5------5---5---5---5-------5h/7------------------------------------| ---|
G|-3333-3------3---3---3---3--3333-3h/5---------------12~~~--------5-3-2---|
D|--------------------------------------0000-7-00-7-8-10~~~--0-2-3-------3-|
   ....                       ....      ....   ..            .............



=====================================================
=====================================================
Interlude 2:

Guitars 1 and 2: Lightly Palm mute on the ~ chords.
D|-------------------------------------------------------------|
A|-------------------------------------------------------------|
F|-------------------------------------------------------------|
C|-------------------------------------------------------------|
G|------2~~--2--2~~-2--2------2-------2~~-2--2~~-------5-3-2---|
D|-0000-0~~--0--0~~-0--0-0000-0--0000-0~~-0--0~~-0-2-3-------3-|
   ...........................................................

Guitars 1 and 2: Lightly Palm mute on the ~ chords.
D|--------------------------------------------------------------------------------|
A|--------------------------------------------------------------------------------|
F|--------------------------------------------------------------------------------|
C|----------------------------------------------2---------------------------------|
G|------2~~--2--2~~-2--2------2-------2~~-2--2----5-3-2~~~----------2~~~--2--2~~~-|
D|-0000-0~~--0--0~~-0--0-0000-0--0000-0~~-0--0------------3-0--0000-0~~~--0--0~~~-|
   ...........................................                 ...................

Guitars 1 and 2:
D|-----------------------------------------------------------------------------|
A|-----------------------------------------------------------------------------|
F|-----------------------------------------------------------------------------|
C|-----------------------------------------------------------------------------|
G|-2--2------2-------2~~--2--2~~-------5-3-2---------2~~--2--2~~--2--2-------2-|
D|-0--0-0000-0--0000-0~~--0--0~~-0-2-3-------3--0000-0~~--0--0~~--0--0--0000-0-|
   ...........................................................................

Guitars 1 and 3:
D|------------------------------|
A|------------------------------|
F|------------------------------|
C|----------------2-------------|
G|------2~~--2--2---5-3-2~~~----|
D|-0000-0~~--0--0-----------3-0-|
   ..............

=============================
Guitar 1:
D|-----------------------------------------------------------|
A|-----------------------------------------------------------|
F|--------------------12~~~~~~~~~~~-16~~~-17~~~-14~~~~~~~~~~-|
C|-16~~~~~~~--14~~~~--12~~~~~~~~~~~-14~~~-17~~~-14~~~~~~~~~~-|
G|-12~~~~~~~--12~~~~--10~~~~~~~~~~~-14~~~-15~~~-12~~~~~~~~~~-|
D|-12~~~~~~~--12~~~~-----------------------------------------|

Guitar 2:
D|----------------------------------------------------------------|
A|----------------------------------------------------------------|
F|----------------------------------------------------------------|
C|------2----2---2---2---2------2-------2---2---2-----------------|
G|------2----2---2---2---2------2-------2---2---2---------5-3-2---|
D|-0000-0----0---0---0---0-0000-0--0000-0---0---0---0-2-3-------3-|
   ....                    ....    ....             .............

=============================
Guitar 1:
D|---------------------------------------------------------------|
A|---------------------------------------------------------------|
F|---------------------12~~~~~~~~~~~-12~~~~11~~~~-9~~~~~~~~~~~~~-|
C|-16~~~~~~~~--14~~~~--12~~~~~~~~~~~--x-----x-----x--------------|
G|-12~~~~~~~~--12~~~~--10~~~~~~~~~~~-10~~~~-9~~~~-7~~~~~~~~~~~~~-|
D|-12~~~~~~~~--12~~~~--------------------------------------------|

Guitar 2:
D|--------------------------------------------------------------|
A|--------------------------------------------------------------|
F|--------------------------------------------------------------|
C|------2---2---2---2---2------2-------2---2---2--2-------------|
G|------2---2---2---2---2------2-------2---2---2----5-3-2~~~----|
D|-0000-0---0---0---0---0-0000-0--0000-0---0---0------------3-0-|
   ....                           .... 

=============================
Chorus 3:

Guitar 1:
D|-----------------------------------------------------------------------|
A|-3-----5~~~------------------------3-----5~~~--------------------------|
F|-2-----4~~~------------------------2-----4~~~----7---------------------|
C|-0-----2~~~------------------------0-----2~~~----7---------------------|
G|---------------7~~~-------5-3-2------------------5-----10---9----------|
D|----0-------0--7~~~-0-2-3-------3-----0-------0------0----0---0-10-0-0-|
      .       .       .............     .       .      .    .   .    ...

Guitar 2:
D|---------------------------------------------------------------------|
A|-3-----5~~~------------------------3-----5~~~------------------------|
F|-2-----4~~~------------------------2-----4~~~----7-------------------|
C|-0-----2~~~------------------------0-----2~~~----7-----9---7---------|
G|---------------7~~~-------5-3-2------------------5-------------9-----|
D|----0-------0--7~~~-0-2-3-------3-----0-------0------0---0---0---0-0-|
      .       .       .............     .       .      .   .   .   ...


Guitar 3:
D|---------------------------------------------------------------------|
A|---------------------------------------------------------------------|
F|---------------------------------------------------------------------|
C|---------------2~~~~~~~~~~~~~~~~~~~~~~~~~~~~~~~~~~~~~~~~-------------|
G|---------------2~~~~~~~~~~~~~~~~~~~~~~~~~~~~~~~~~~~~~~~~-------------|
D|---------------0~~~~~~~~~~~~~~~~~~~~~~~~~~~~~~~~~~~~~~~~-------------|

=====================================
Guitar 1:
D|----------------------------------------------------------|
A|-3-----5~~~-----------------------------------------------|
F|-2-----4~~~-----------------------------------------------|
C|-0-----2~~~-----------------------2-----------2~~~~~~~~~~~|
G|---------------7~~~-------5-3-2-----5-3-2~~~--2~~~~~~~~~~~|
D|----0-------0--7~~~-0-2-3-------3-----------3-0~~~~~~~~~~~|
      .       .       .............


Guitar 2:
D|----------------------------------------------------------|
A|-3-----5~~~-----------------------------------------------|
F|-2-----4~~~-----------------------------------------------|
C|-0-----2~~~-----------------------2-----------2~~~~~~~~~~~|
G|---------------7~~~-------5-3-2-----5-3-2~~~--2~~~~~~~~~~~|
D|----0-------0--7~~~-0-2-3-------3-----------3-0~~~~~~~~~~~|
      .       .       .............

Guitar 3:
D|-------------------------------------------------------|
A|-------------------------------------------------------|
F|-------------------------------------------------------|
C|---------------2~~~~~~~~~~~~~~~~~~~~~~~~~~~~~~~~-------|
G|---------------2~~~~~~~~~~~~~~~~~~~~~~~~~~~~~~~~--3h/7-|
D|---------------0~~~~~~~~~~~~~~~~~~~~~~~~~~~~~~~~--3h/7-|

End of Chorus 3.
======================================
Outro:

Guitars 1 and 2:
     1
D|-----------------------------------------------------------------|
A|-----------------------------------------------------------------|
F|-----------------------------------------------------------------|
C|-----------------------------------------------------------------|
G|-----------------------------------------------------------------|
D|-3*b-0000000-0000000-000000-0-0-00-0000000-0000000-000000-0-0-00-|
       ...........................................................

======================================
Guitars 1 and 2:
D|------------------------------------------------------------|
A|------------------------------------------------------------|
F|------------------------------------------------------------|
C|------------------------------------------------------------|
G|---------------------------------------------------------5\-|
D|---0000000-0000000-000000-0-0-00--0000000-0000000-000000-5\-|
     .....................................................

======================================
Guitars 1 and 2:
D|----------------------------------------------------------------------|
A|----------------------------------------------------------------------|
F|----------------------------------------------------------------------|
C|----------------------------------------------------------------------|
G|----------2--------2------------------------2--------2----------------|
D|---000000-0-000000-0-000000-0-0-0-0--000000-0-000000-0-000000-0-0-0-0-|
     ..................................................................

======================================
Guitars 1 and 2:
D|-------------------------------------------------------------------------|
A|-------------------------------------------------------------------------|
F|---------------------------------------------------------------[5]-------|
C|---------------------------------------------------------------[5]-------|
G|-----------2--------2------------------------2--------2--------[5]-------|
D|----000000-0-000000-0-000000-0-0-0-0--000000-0-000000-0-000000-----0-0-0-|
      ..........................................................     .....

That's It.

Please Rate and Comment My Tab.
Thanks.
[travis]

comments
We did not receive enough feedback on this tab! Please rate:
print report bad tab
1 2 3 4 5
I want to post or [tab]
guest
You may want to rate the tab now too:
select rating
Please do not post tabs as comments. Select "correction" instead!