Oops, an error
Loading. Please wait.

Not Alone Tab

ver2
ver2

Intro

Solo

Whole song

More versions @911Tabs.com
20,245 views 12 this week
7 commentsread comments
1 2 3 4 5
excellent!
x 5
Autoscroll
+/-
esc
set tempo
stop
Contributor
Difficulty
Tuning
advanced
D G C F A D
Hey! There's an official Ultimate Guitar app which is ideal
for learning songs when you're away from computer. Get the app
WARNING: You are trying to view
                                    content from Ultimate-Guitar.com
                                    in an unauthorized application,
                                    which is prohibited.

                                    Please use an official Ultimate
                                    Guitar Tabs application for iPhone,
                                    iPad or Android to access legitimate
                                    chords, guitar, bass, and drum tabs
                                    from Ultimate-Guitar.com database.

                                    Type "ultimate guitar tabs" in Apple
                                    App Store's or Android Market's
                                    search to find the application.
-----------------------------------------------------------------------------
                             Not Alone - All That Remains
-----------------------------------------------------------------------------
Tabbed by:Marc Moore
Email:combatarms45344@rocketmail.com

Tuning:DGCFAd
played in 6/4 time
Guitar 1 intro pt1
d|---12---------8------------7---8------------------------------------------|
A|-----13--------12-----10---------10---------------------------------------|
F|--------16-------9-------9---9------9-------------------------------------|
C|--------------------------------------------------------------------------|
G|-0----------0-------0-----------------------------------------------------|
D|--------------------------------------------------------------------------|
   .          .       .




intro pt2 X5 
Guitar 1
d|---12---------8------------7---8------------------------------------------|
A|-----13--------12-----10---------10---------------------------------------|
F|--------16-------9-------9---9------9-------------------------------------|
C|--------------------------------------------------------------------------|
G|-0----------0-------0-----------------------------------------------------|
D|--------------------------------------------------------------------------|
   .          .       .
Guitar 2
d|7p5--------------------------------5--------------------------------------|
A|-----5----------5-8---6----5-----5----------------------------------------|
F|---------5----5----------------5------------------------------------------|
C|------------7-------7----7---7--------------------------------------------|
G|--------------------------------------------------------------------------|
D|--------------------------------------------------------------------------|
              . . .   .    .   . . .




Pre-verse X2
guitar 1&2
d|--------------------------------------------------------------------------|
A|--------------------------------------------------------------------------|
F|--------------------------------------------------------------------------|
C|------7--7-7------2------9--9-9------7------2-----------------------------|
G|------3--3-3------2------5--5-5------3------2-----------------------------|
D|-0000--------0000---0000--------0000---0000-------------------------------|
   ....        ....   ....        ....   ....





verse X4
Guitar 1
d|--------------------------------------------------------------------------|
A|--------------------------------------------------------------------------|
F|--------------------------------------------------------------------------|
C|-----10-1010------9-----12-1212-----10------9-----------------------------|
G|------9--9-9------7------8--8-8------7------7-----------------------------|
D|-0000--------0000---0000--------0000---0000-------------------------------|
   ....        ....   ....        ....   ....
Guitar 2
d|--------------------------------------------------------------------------|
A|--------------------------------------------------------------------------|
F|--------------------------------------------------------------------------|
C|------7--7-7------2------9--9-9------7------2-----------------------------|
G|------3--3-3------2------5--5-5------3------2-----------------------------|
D|-0000--------0000---0000--------0000---0000-------------------------------|
   ....        ....   ....        ....   ....



Chorus
Guitar 1
d|-0------------------------------------------------------------------------|
A|-0------------10--------------12--------------8---------------------------|
F|-9-------------9---------------9--------------7---------------------------|
C|-7-------------7--------------10-------------10---------------------------|
G|-0------------------------------------------------------------------------|
D|-----------0-0-------------0-0------------0-0-------------0-0-------------|
             . .             . .            . .             . .
Guitar 2
d|--------------------------------------------------------------------------|
A|--------------------------------------------------------------------------|
F|--------------------------------------------------------------------------|
C|-2-------------2--------2------5--------------5--------5------------------|
G|-0-------------0--------0------3--------------3--------3------------------|
D|-----------0-0-----0-0-----0-0------------0-0-----0-0-----0-0-------------|
             . .     . .     . .            . .     . .     . .


Guitar 1
d|--------------------------------------------------------------------------|
A|-6-6-------6---6---6-----6-6-6-6------------------------------------------|
F|-5-5-------5---5---5-----5-5-5-5---------------4--------------------------|
C|-3-3-3-3-3-3-3-3-3-3-3-3-3-3-3-3-7-7-------7---7-----7---9-7--------------|
G|---------------------------------5-5-------5-5---------------10-7---------|
D|---------------------------------3-3-3-3-3-------0-0---0------------------|
       . . .   .   .   . .             . . .   .   . .   .
Guitar 2
d|--------------------------------------------------------------------------|
A|--------------------------------------------------------------------------|
F|--------------------------------------------------------------------------|
C|--------------------------------------------------------------------------|
G|-3-3-------3---3---3-----3-3-3-3-5-5-------5---5-----7---7-5--3-0---------|
D|-1-1-1-1-1-1-1-1-1-1-1-1-1-1-1-1-3-3-3-3-3-3-3-3-0-0---0------------------|
       . . .   .   .   . .             . . .   .   . .   .



Guitar 1
d|--------------------------------------------------------------------------|
A|-6-6-------6---6---6-----6-6-6-6------------------------------------------|
F|-5-5-------5---5---5-----5-5-5-5---------------4--------------------------|
C|-3-3-3-3-3-3-3-3-3-3-3-3-3-3-3-3-7-7-------7---7-----7---9-7--------------|
G|---------------------------------5-5-------5-5---------------10-7---------|
D|---------------------------------3-3-3-3-3-------0-0---0------------------|
       . . .   .   .   . .             . . .   .   . .   .
Guitar 2
d|--------------------------------------------------------------------------|
A|--------------------------------------------------------------------------|
F|--------------------------------------------------------------------------|
C|--------------------------------------------------------------------------|
G|-3-3-------3---3---3-----3-3-3-3-5-5-------5---5-----7---7-5--3-0---------|
D|-1-1-1-1-1-1-1-1-1-1-1-1-1-1-1-1-3-3-3-3-3-3-3-3-0-0---0------------------|
       . . .   .   .   . .             . . .   .   . .   .




preverse X2
guitar 1&2
d|--------------------------------------------------------------------------|
A|--------------------------------------------------------------------------|
F|--------------------------------------------------------------------------|
C|------7--7-7------2------9--9-9------7------2-----------------------------|
G|------3--3-3------2------5--5-5------3------2-----------------------------|
D|-0000--------0000---0000--------0000---0000-------------------------------|
   ....        ....   ....        ....   ....



Verse X2
Guitar 1
d|--------------------------------------------------------------------------|
A|--------------------------------------------------------------------------|
F|--------------------------------------------------------------------------|
C|-----10-1010------9-----12-1212-----10------9--///------------------------|
G|------9--9-9------7------8--8-8------7------7--///------------------------|
D|-0000--------0000---0000--------0000---0000-------------------------------|
   ....        ....   ....        ....   ....
Guitar 2
d|--------------------------------------------------------------------------|
A|--------------------------------------------------------------------------|
F|--------------------------------------------------------------------------|
C|------7--7-7------2------9--9-9------7------2--///------------------------|
G|------3--3-3------2------5--5-5------3------2--///------------------------|
D|-0000--------0000---0000--------0000---0000-------------------------------|
   ....        ....   ....        ....   ....


interlude
d|--------------------------------------------------------------------------|
A|-----5---8p5-----6p5-----5-------------------5---8p5----------------------|
F|---5---------5-------5-----5---5-7p5---5---5---------5--------------------|
C|-7-----7-------7-------7-----7-------7---9-----9-------9------------------|
G|--------------------------------------------------------------------------|
D|--------------------------------------------------------------------------|
   . .   .     . .     . .   . . .     . . . .   .
d|-------------------------------------------------------------|
A|-------------------------------------------------------------|
F|-----5---9p5---5-7p5---5-5-----5-----------------7--------|
C|---7---------7-------7-----7-----7---7-9p7--7-10---10--9----------|
G|-0-----0---------------------7-----7-------7-7--7-7--7-------|
D|-------------------------------------------------------------|
   . .   .     . .     . .   . .   . . .     ...  .

intro X2
Guitar 1
d|---12---------8------------7---8------------------------------------------|
A|-----13--------12-----10---------10---------------------------------------|
F|--------16-------9-------9---9------9-------------------------------------|
C|--------------------------------------------------------------------------|
G|-0----------0-------0-----------------------------------------------------|
D|--------------------------------------------------------------------------|
   .          .       .
Guitar 2
d|7p5--------------------------------5--------------------------------------|
A|-----5----------5-8---6----5-----5----------------------------------------|
F|---------5----5----------------5------------------------------------------|
C|------------7-------7----7---7--------------------------------------------|
G|--------------------------------------------------------------------------|
D|--------------------------------------------------------------------------|
              . . .   .    .   . . .

Solo
Guitar 1
     full             ^^^^^^^^^^^
d|-10b----10--8--7--8(8)----------------------------------------------------|
A|--------------------------------------------------------------------------|
F|--------------------------------------------------------------------------|
C|--------------------------------------------------------------------------|
G|--------------------------------------------------------------------------|
D|--------------------------------------------------------------------------|
Guitar 2
    1/2                         ^^^^^^^^
d|--------------------------------------------------------------------------|
A|-12b----12----10---8--10(10)-------------------------10-12-13-10----------|
F|-------------------------------------------9-10-12-12---------------------|
C|---------------------------------9-10-12-12-------------------------------|
G|--------------------------------------------------------------------------|
D|--------------------------------------------------------------------------|
                                   .  .  .  ..  .  .  . 
Guitar 3
d|--------------------------------------------------------------------------|
A|--------------------------------------------------------------------------|
F|--------------------------------------------------------------------------|
C|----------------------5----5-------------5--------------------------------|
G|--2------2--------2---3----3-------------3--------------------------------|
D|--0---00-0------00-00---00-------0--0-----------------0-----0-------------|
        ..        .. ..   ..       .  .                 .     .

Guitar 1
     full                 ^1/2^
d|-10b--------10---8---12b----ub12---10h12p10/8-----------------------------|
A|--------------------------------------------------------------------------|
F|--------------------------------------------------------------------------|
C|--------------------------------------------------------------------------|
G|--------------------------------------------------------------------------|
D|--------------------------------------------------------------------------|
Guitar 2
      1/2                 ^full^
d|--------------------------------------------------------------------------|
A|-12b--------12---10--13b----ub13---12h13p12/10----------------------------|
F|--------------------------------------------------------------------------|
C|--------------------------------------------------------------------------|
G|--------------------------------------------------------------------------|
D|--------------------------------------------------------------------------|
Guitar 3
d|--------------------------------------------------------------------------|
A|--------------------------------------------------------------------------|
F|--------------------------------------------------------------------------|
C|--------------------------------------------------------------------------|
G|--3----------3------3----5----------5-------------------------------------|
D|--1-------00-1---00-1-00-3-----00---3-------------------------------------|
            ..     ..   ..       .. 

Guitar 1
          ^^^^^^^^^^^^^^^^^^^^^^^^^^^^^^^^^^^^^^^^^^^^^^^^^^^^^^^^^^^^^^^^^^^
d|10b-(10)---(10)---(10)----------------------------------------------------|
A|--------------------------------------------------------------------------|
F|--------------------------------------------------------------------------|
C|--------------------------------------------------------------------------|
G|--------------------------------------------------------------------------|
D|--------------------------------------------------------------------------|
guitar 2
          ^^^^^^^^^^^^^^^^^^^^^^^^^^^^^^^^^^^^^^^^^^^^^^^^^^^^^^^^^^^^^^^^^^^
d|--------------------------------------------------------------------------|
A|12b-(12)---(12)---(12)----------------------------------------------------|
F|--------------------------------------------------------------------------|
C|--------------------------------------------------------------------------|
G|--------------------------------------------------------------------------|
D|--------------------------------------------------------------------------|
guitar 3           T         T        T        T                 
d|---------------------------------------------------8----------------------|
A|------------------------------------------8-12p5h6------------------------|
F|---------------------------------9-12p5h7---------------------------------|
C|------------------------9-12p5h7------------------------------------------|
G|-5-----------5-------h7---------------------------------------------------|
D|-3------0-0--3--12p5------------------------------------------------------|
          . .

Guitar 1&2 tacet
    T      T      T      T      T      T      T      T               T    
d|-12p5h7-10p5h7-12p5h7-10p5h7----------------------------------------------|
A|-----------------------------13p5h8-12p5h8-13p5h8-12p5h8-13---------------|
F|------------------------------------------------------------------------12|
C|----------------------------------------------------------------1214p9h10-|
G|-------------------------------------------------------------h10----------|
D|-----------------------------------------------------------h8-------------|
    T         T         T       T       T       T      T       T       T
d|------------------12-15p8h10-17p8h12-15p8h12-17p8h12----------------------|
A|--------13-15p8h10----------------------------------15p8h12-17p8h12-15p8h12
F|-14p9h12------------------------------------------------------------------|
C|--------------------------------------------------------------------------|
G|--------------------------------------------------------------------------|
D|--------------------------------------------------------------------------|
    T
d|-17p8h12-|
A|---------|
F|---------|
C|---------|
G|---------|
D|---------|

Guitar 1
d|--------------------------------------------------------------------------|
A|-----5-----5-----5-----8----12-------15/17--------------------------------|
F|---7-----7-----5------------------12--------------------------------------|
C|-5-----7-----9------9-----9----12-----------------------------------------|
G|--------------------------------------------------------------------------|
D|--------------------------------------------------------------------------|
   . . . . . . . . .  .  .  .  .  .  .  .
Guitar 2
d|--------------------------------------------------------------------------|
A|-------------------------------------12/17--------------------------------|
F|-----5-----5-----7-----9----12-----9--------------------------------------|
C|---9-----9-----7----------------9-----------------------------------------|
G|-7-----8----10-----10----10-----------------------------------------------|
D|--------------------------------------------------------------------------|
   . . . . . . . . .  .  .  .  .  .  .  .



Guitar 1                                  1/2           ^^^^^^^^^^^^^^
d|-------------------------------------19b--ub19----------------------------|
A|-----13----13----15---17----20----17-------------17-17b-------------------|
F|---16----16----14--------------16-----------------------------------------|
C|-14----15----17----17----17-----------------------------------------------|
G|--------------------------------------------------------------------------|
D|--------------------------------------------------------------------------|
    . . . . . . . . . .  .  .  .  .  .  .
Guitar 2                                 full            ^^^^^^^^^^^^^^^
d|-------------------------------------------------15-15b-------------------|
A|-----5-----5-----5-----8----12-------15b--ub15----------------------------|
F|---7-----7-----5------------------12--------------------------------------|
C|-5-----7-----9------9-----9----12-----------------------------------------|
G|--------------------------------------------------------------------------|
D|--------------------------------------------------------------------------|
   . . . . . . . . .  .  .  .  .  .  .  


Guitar 1
d|---12---------8------------7---8------------------------------------------|
A|-----13--------12-----10---------10---------------------------------------|
F|--------16-------9-------9---9------9-------------------------------------|
C|--------------------------------------------------------------------------|
G|-0----------0-------0-----------------------------------------------------|
D|--------------------------------------------------------------------------|
   .          .       .
Guitar 2
d|-----------------------------------5--------------------------------------|
A|-----------------------6---5-----5----------------------------------------|
F|-------------------------------5------------------------------------------|
C|--------------------7----7---7--------------------------------------------|
G|--------------------------------------------------------------------------|
D|--------------------------------------------------------------------------|
                      .    .   . . . .

verse X4
Guitar 1
d|--------------------------------------------------------------------------|
A|--------------------------------------------------------------------------|
F|--------------------------------------------------------------------------|
C|-----10-1010------9-----12-1212-----10------9-----------------------------|
G|------9--9-9------7------8--8-8------7------7-----------------------------|
D|-0000--------0000---0000--------0000---0000-------------------------------|
   ....        ....   ....        ....   ....
Guitar 2
d|--------------------------------------------------------------------------|
A|--------------------------------------------------------------------------|
F|--------------------------------------------------------------------------|
C|------7--7-7------2------9--9-9------7------2-----------------------------|
G|------3--3-3------2------5--5-5------3------2-----------------------------|
D|-0000--------0000---0000--------0000---0000-------------------------------|
   ....        ....   ....        ....   ....



Chorus X2
Guitar 1
d|-0------------------------------------------------------------------------|
A|-0------------10--------------12--------------8---------------------------|
F|-9-------------9---------------9--------------7---------------------------|
C|-7-------------7--------------10-------------10---------------------------|
G|-0------------------------------------------------------------------------|
D|-----------0-0-------------0-0------------0-0-------------0-0-------------|
             . .             . .            . .             . .
Guitar 2
d|--------------------------------------------------------------------------|
A|--------------------------------------------------------------------------|
F|--------------------------------------------------------------------------|
C|-2-------------2--------2------5--------------5--------5------------------|
G|-0-------------0--------0------3--------------3--------3------------------|
D|-----------0-0-----0-0-----0-0------------0-0-----0-0-----0-0-------------|
             . .     . .     . .            . .     . .     . .


Guitar 1
d|--------------------------------------------------------------------------|
A|-6-6-------6---6---6-----6-6-6-6------------------------------------------|
F|-5-5-------5---5---5-----5-5-5-5---------------4--------------------------|
C|-3-3-3-3-3-3-3-3-3-3-3-3-3-3-3-3-7-7-------7---7-----7---9-7--------------|
G|---------------------------------5-5-------5-5---------------10-7---------|
D|---------------------------------3-3-3-3-3-------0-0---0------------------|
       . . .   .   .   . .             . . .   .   . .   .
Guitar 2
d|--------------------------------------------------------------------------|
A|--------------------------------------------------------------------------|
F|--------------------------------------------------------------------------|
C|--------------------------------------------------------------------------|
G|-3-3-------3---3---3-----3-3-3-3-5-5-------5---5-----7---7-5--3-0---------|
D|-1-1-1-1-1-1-1-1-1-1-1-1-1-1-1-1-3-3-3-3-3-3-3-3-0-0---0------------------|
       . . .   .   .   . .             . . .   .   . .   .



Guitar 1
d|--------------------------------------------------------------------------|
A|-6-6-------6---6---6-----6-6-6-6------------------------------------------|
F|-5-5-------5---5---5-----5-5-5-5---------------4--------------------------|
C|-3-3-3-3-3-3-3-3-3-3-3-3-3-3-3-3-7-7-------7---7-----7---9-7--------------|
G|---------------------------------5-5-------5-5---------------10-7---------|
D|---------------------------------3-3-3-3-3-------0-0---0------------------|
       . . .   .   .   . .             . . .   .   . .   .
Guitar 2
d|--------------------------------------------------------------------------|
A|--------------------------------------------------------------------------|
F|--------------------------------------------------------------------------|
C|--------------------------------------------------------------------------|
G|-3-3-------3---3---3-----3-3-3-3-5-5-------5---5-----7---7-5--3-0---------|
D|-1-1-1-1-1-1-1-1-1-1-1-1-1-1-1-1-3-3-3-3-3-3-3-3-0-0---0------------------|
       . . .   .   .   . .             . . .   .   . .   .





Outtro X7
Guitar 1
d|---12---------8------------7---8------------------------------------------|
A|-----13--------12-----10---------10---------------------------------------|
F|--------16-------9-------9---9------9-------------------------------------|
C|--------------------------------------------------------------------------|
G|-0----------0-------0-----------------------------------------------------|
D|--------------------------------------------------------------------------|
   .          .       .
Guitar 2
d|7p5--------------------------------5--------------------------------------|
A|-----5----------5-8---6----5-----5----------------------------------------|
F|---------5----5----------------5------------------------------------------|
C|------------7-------7----7---7--------------------------------------------|
G|--------------------------------------------------------------------------|
D|--------------------------------------------------------------------------|
              . . .   .    .   . . .
H Hammer On
P Pull Off
B Bend
UB Unbend
/ slide
T Tap
comments
print report bad tab
7 comments total. Showing first comments.
0 reply
Rockinguitar wrote on January 20 2010, 09:37 am

Couple of technical errors, but as far as I can see, this Tab is 5 * worthy!!! thanks for upload!

-2 reply
bmth13 wrote on January 26 2010, 11:49 am

the intro can be played easier like this:

D|---12--------8-------------------------|
G|-----13-------12------10--12--13-10----|
C|-------16-------9--------9---9------9--|
F|---------------------------------------|
A|-0---------0-------0-------------------|
D|---------------------------------------|

0 reply
lextexrex wrote on January 28 2010, 03:36 am

I don't see any technical errors. A lot of the tabs currently up use:

-----------

-----------

-----------

-----5-55--

-----5-55--

-0000----00


... during the verse. This is incorrect. However, beans45334 has this tabbed out perfectly with the correct verse guitars (and everything else too).

I want to post or [tab]
guest
You may want to rate the tab now too:
select rating
Please do not post tabs as comments. Select "correction" instead!