Oops, an error
Loading. Please wait.

Overcome Tab

ver1
ver1

Intro

Album

Interactive

More versions @911Tabs.com
6,574 views 9 this week
5 commentsread comments
1 2 3 4 5
not so good
x 4
Autoscroll
+/-
esc
set tempo
stop
Difficulty
Tuning
intermediate
D G C F A D
WARNING: You are trying to view
                                    content from Ultimate-Guitar.com
                                    in an unauthorized application,
                                    which is prohibited.

                                    Please use an official Ultimate
                                    Guitar Tabs application for iPhone,
                                    iPad or Android to access legitimate
                                    chords, guitar, bass, and drum tabs
                                    from Ultimate-Guitar.com database.

                                    Type "ultimate guitar tabs" in Apple
                                    App Store's or Android Market's
                                    search to find the application.
1. Before the Damned" - 2:54
2. Two Weeks" - 4:17
3. Undone" - 3:12
4. Forever in Your Hands" - 3:37
5. Chiron" - 4:25
6. Days Without" - 3:11
7. A Song for the Hopeless" - 4:15
8. Do Not Obey" - 3:12
9. Relinquish" - 2:51
10. Overcome" - 2:39





==============================================================================
1-Before The Damned(Intro)
==============================================================================

-------------------------------------------------------------------------------
			     Before the dammned - All that remains
-------------------------------------------------------------------------------
Tabbed by: Lordofwar147
Email: jefry147@yahoo.com

Tuning: Drop D flat with the whole guitar tuned down a half step.

e|---------------------------------------------------------------------------|
B|---------------------------------------------------------------------------|
G|---------------------------------------------------------------------------|
D|---------------------------------------------------------------------------|
A|---------------------------------------------------------------------------|
D|-00000-00000-00000-00000-000000000000000-00000-00000-00000-000000000000000-|
   ..... ..... ..... ..... ............... ..... ..... ..... ...............

e|--------------------------------------------------------------------------|
B|--------------------------------------------------------------------------|
G|--------------------------------------------------------------------------|
D|--------------------------------------------------------------------------|
A|--------------------------------------------------------------------------|
D|-00000-00000-00000-000000000000000-00000-00000-00000-000000000000000------|
   ..... ..... ..... ............... ..... ..... ..... ...............

e|--------------------------------------------------------------------------|
B|--------------------------------------------------------------------------|
G|--------------------------------------------------------------------------|
D|--------------------------------------------------------------------------|
A|--------------------------------------------------------------------------|
D|-00000-00000-00000-000000000000000-00000-00000-00000-000000000000000------|
   ..... ..... ..... ............... ..... ..... ..... ...............

e|--------------------------------------------------------------------------|
B|--------------------------------------------------------------------------|
G|--------------------------------------------------------------------------|
D|--------------------------------------------------------------------------|
A|--------------------------------------------------------------------------|
D|-00000-00000-00000-000000000000000-00000-00000-00000----------------------|
   ..... ..... ..... ............... ..... ..... .....

This is the really fast palm muted part. It should be SOMETHING like that. So please 
out
the negative comments and give me some POSITIVE corrections. Listen to it to see how many
it is played.

e|--------------------------------------------------------------------------|
B|--------------------------------------------------------------------------|
G|--------------------------------------------------------------------------|
D|-7-3-0--00-7-3-0--0-3-7-777-3-0--0-3-9-777-3-0--7-3-0-9-3-0-7-3-0---------|
A|--------------------------------------------------------------------------|
D|--------------------------------------------------------------------------|
   . . .  .. . . .  . . . ... . .  . . . ... . .  . . . . . . . . .

"After intro"
e|--------------------------------------------------------------------------|
B|--------------------------------------------------------------------------|
G|--------------------------------------------------------------------------|
D|--------------------------------------------------------------------------|
A|-0-0-0-0-----0-0-----0-0----------13-0-0-0-----0-0-----0-0----------------|
D|-0-0-0-0-000-0-0-000-0-0-00000000-0--0-0-0-000-0-0-000-0-0-00000000-------|
     . . . ... . . ... . . ........    . . . ... . . ... . . ........

e|--------------------------------------------------------------------------|
B|--------------------------------------------------------------------------|
G|--------------------------------------------------------------------------|
D|--------------------------------------------------------------------------|
A|-11-11-0-0-----0-0-11-11-0-0----------0-0-0-0-----0-0-----0-0-0-1-1-1-----|
D|-0--0--0-0-000-0-0-0--0--0-0-00000000-0-0-0-0-000-0-0-000-0-0-0-1-1-1-----|
         . . ... . .       . . ........     . . ... . . ... . .

(Play "after intro" 2 times)

email or comment me the rest if you know it. And if your looking for the song 
ive posted it to (just the intro).

| /  slide up
| \  slide down
| h  hammer-on
| p  pull-off
| ~  vibrato
| +  harmonic
| .  Mute note
===============================================================================





============================================================================
2-Two Weeks
============================================================================

Gtr I (C# F# B E G# C#) - 'Untitled'
Gtr II (C# F# B E G# C#) - 'Untitled'
Gtr III (C# F# B E G# C#) - 'Untitled'

  Q=224
||||INTRO||||

 4/4
  Gtr I
  E E   E E  E E E E   E E   E E  E  E E  E
|------------------|--------------------|
|------------------|--------------------|
|------------------|--------------------|
|------------------|--------------------|
|-7-------10-9-7-9-|-5-------12-10-9-10-|
|---0-0-0----------|---0-0-0------------|
|
| Gtr II
| E H..              E H..
|------------------|----------------------|
|------------------|----------------------|
|------------------|----------------------|
|-9----------------|-7--------------------|
|-7----------------|-5--------------------|
|-7----------------|-5--------------------|


  E E  E E E  E  E  E   E  E E  E E  E  E E
|--------------------|----------------------|
|--------------------|----------------------|
|--------------------|----------------------|
|---------9----------|-9-10-9----9----------|
|-7---------12-10-12-|--------12---12-10-9--|
|---0-0-0------------|----------------------|
|
| E Q.    E  E  E  E   E  E E  E E  E  E E
|--------------------|----------------------|
|--------------------|----------------------|
|--------------------|----2-----------------|
|-5-------5--4--2--4-|-5----5--4-5--4--2----|
|-3------------------|-------------------5--|
|-3------------------|----------------------|


    E E E E E E E E   E E E E SSE E E
|-------------------|-----------------|
|-------------------|-----------------|
|-------------------|-----------------|
|-------------------|-----------------|
|---5S7---7-----7---|---7---------7---|
|-------0---0-0---0-|-0---0-0-000---0-|
|
| W                   W
|-------------------|------------------|
|-------------------|------------------|
|-------------------|------------------|
|-------------------|------------------|
|-------------------|------------------|
|-------------------|------------------|


  E E E E E E E E   E E E E SSE SSE
|-----------------|-----------------|
|-----------------|-----------------|
|-----------------|-----------------|
|-----------------|-----------------|
|-7S9---9-----9---|---9-------------|
|-----0---0-0---0-|-0---0-0-000-000-|
|
| W                 W
|-----------------|-----------------|
|-----------------|-----------------|
|-----------------|-----------------|
|-----------------|-----------------|
|-----------------|-----------------|
|-----------------|-----------------|


  E  E E  E E E  E E   E  E E E SSE  E E
|--------------------|-------------------|
|--------------------|-------------------|
|--------------------|-------------------|
|--------------------|-------------------|
|-9S10---10-----10---|---10---------10---|
|------0----0-0----0-|-0----0-0-000----0-|
|
| W                    W
|--------------------|-------------------|
|--------------------|-------------------|
|--------------------|-------------------|
|--------------------|-------------------|
|--------------------|-------------------|
|--------------------|-------------------|


   E E E E E E E E   E E E E E  E  E E
|------------------|--------------------|
|------------------|--------------------|
|------------------|--------------------|
|------------------|---------9----------|
|-10S7---7-----7---|---7-------12-10-9--|
|------0---0-0---0-|-0---0-0------------|
|
|  W                 H       E  E  E E
|------------------|--------------------|
|------------------|--------------------|
|------------------|--------------------|
|------------------|---------5--4--2----|
|------------------|-----------------5--|
|------------------|--------------------|


  E E E E E E E E   E E E E SSE E E   E E E E E E E E   E E E E SSE SSE
|-----------------|-----------------|-----------------|------------------|
|-----------------|-----------------|-----------------|------------------|
|-----------------|-----------------|-----------------|------------------|
|-----------------|-----------------|-----------------|------------------|
|-5S7---7-----7---|---7---------7---|-7S9---9-----9---|---9--------------|
|-----0---0-0---0-|-0---0-0-000---0-|-----0---0-0---0-|-0---0-0-000-000--|
|
| W                 H       SSE Q     W                 H       SSE SSE
|-----------------|-----------------|-----------------|------------------|
|-----------------|-----------------|-----------------|------------------|
|-----------------|-----------------|-----------------|------------------|
|-----------------|-----------------|-----------------|------------------|
|-----------------|---------222-----|-----------------|---------222-222--|
|-----------------|---------000-----|-----------------|---------000-000--|


  E  E E  E E E  E E   E  E E E SSE  E E
|--------------------|-------------------|
|--------------------|-------------------|
|--------------------|-------------------|
|--------------------|-------------------|
|-9S10---10-----10---|---10---------10---|
|------0----0-0----0-|-0----0-0-000----0-|
|
| W                    H        SSE  Q
|--------------------|-------------------|
|--------------------|-------------------|
|--------------------|-------------------|
|--------------------|-------------------|
|--------------------|----------222------|
|--------------------|----------000------|


   E E E E E E E E   E E E E E  E  E E
|------------------|--------------------|
|------------------|--------------------|
|------------------|--------------------|
|------------------|---------9----------|
|-10S7---7-----7---|---7-------12-10-9--|
|------0---0-0---0-|-0---0-0------------|
|
|  W                 H       E  E  E E
|------------------|--------------------|
|------------------|--------------------|
|------------------|--------------------|
|------------------|---------5--4--2----|
|------------------|-----------------5--|
|------------------|--------------------|

||||VERSE||||

    E E E E E E E E   E E E E SSE E E
||------------------|-----------------|
||o-----------------|-----------------|
||------------------|-----------------|
||------------------|-----------------|
||o-5S7---7-----7---|---7---------7---|
||------0---0-0---0-|-0---0-0-000---0-|
|
|   E E E E E E E E   E E E E SSE E E
||------------------|-----------------|
||o-----------------|-----------------|
||------------------|-----------------|
||------------------|-----------------|
||o-0h2---2-----2---|---2---------2---|
||------0---0-0---0-|-0---0-0-000---0-|


  E E E E E E E E   E E E E SSE SSE
|-----------------|-----------------|
|-----------------|-----------------|
|-----------------|-----------------|
|-----------------|-----------------|
|-7S9---9-----9---|---9-------------|
|-----0---0-0---0-|-0---0-0-000-000-|
|
| E E E E E E E E   E E E E SSE SSE
|-----------------|-----------------|
|-----------------|-----------------|
|-----------------|-----------------|
|-----------------|-----------------|
|-2p0---0-----0---|---0-------------|
|-----0---0-0---0-|-0---0-0-000-000-|


  E  E E  E E E  E E   E  E E E SSE  E E
|--------------------|-------------------|
|--------------------|-------------------|
|--------------------|-------------------|
|--------------------|-------------------|
|-9S10---10-----10---|---10---------10---|
|------0----0-0----0-|-0----0-0-000----0-|
|
| E  E E  E E E  E E   E  E E E SSE  E E
|--------------------|-------------------|
|--------------------|-------------------|
|--------------------|-------------------|
|--------------------|-------------------|
|-0h=3----3------3---|----3----------3---|
|------0----0-0----0-|-0----0-0-000----0-|


   E E E E E E E E   E E E E E  E  E E
|------------------|---------------------||
|------------------|--------------------o||
|------------------|---------------------||
|------------------|---------9-----------||
|-10S7---7-----7---|---7-------12-10-9--o||
|------0---0-0---0-|-0---0-0-------------||
|
|  E E E E E E E E   E E E E E  E  E E
|------------------|---------------------||
|------------------|--------------------o||
|------------------|---------------------||
|------------------|---------5--4--2-----||
|--3S2---2-----2---|---2-------------5--o||
|------0---0-0---0-|-0---0-0-------------||


    E E E E E E  E E   E E E E SSE E E
||-------------------|-----------------|
||o------------------|-----------------|
||-------------------|-----------------|
||-------------------|-----------------|
||o-5S7---7------7---|---7---------7---|
||------0---0-0----0-|-0---0-0-000---0-|
|
|   E E E E E Q.       E SSE E SSQ.
||-------------------|-----------------|
||o------------------|-----------------|
||-------------------|-----------------|
||-------------------|-----------------|
||o-2-2-2-2-2--------|---222-2-222-----|
||--0-0-0-0-0--------|---000-0-000-----|


  E E E E E E  E E   E E E E SSE SSE
|------------------|--------------------|
|------------------|--------------------|
|------------------|--------------------|
|------------------|--------------------|
|-7S9---9------9---|---9----------------|
|-----0---0-0----0-|-0---0-0-000--000---|
|
| E E E E E Q.       E S S E E S S Q.
|------------------|--------------------|
|------------------|--------------------|
|------------------|--------------------|
|------------------|--------------------|
|-4-4-4-4-4--------|---444-4-444--------|
|-2-2-2-2-2--------|---222-2-222--------|


  E  E E  E E E   E E   E  E E E SSE  E  E
|---------------------|--------------------|
|---------------------|--------------------|
|---------------------|--------------------|
|---------------------|--------------------|
|-9S10---10------10---|---10---------10----|
|------0----0-0-----0-|-0----0-0-000-----0-|
|
| E  E E  E E Q.        E  SSE E SSQ.
|---------------------|--------------------|
|---------------------|--------------------|
|---------------------|--------------------|
|---------------------|--------------------|
|-5--5-5--5-5---------|----555-5-555-------|
|-3--3-3--3-3---------|----333-3-333-------|


   E E E E E E  E E   E E E E E  E  E E
|-------------------|--------------------||
|-------------------|-------------------o||
|-------------------|--------------------||
|-------------------|---------9----------||
|-10S7---7------7---|---7-------12-10-9-o||
|------0---0-0----0-|-0---0-0------------||
|
|  E E E E E Q.       E SSE E E  E  E E
|-------------------|--------------------||
|-------------------|-------------------o||
|-------------------|--------------------||
|-------------------|---------5--4--2----||
|--2-2-2-2-2--------|---222-2---------5-o||
|--0-0-0-0-0--------|---000-0------------||


||||CHORUS||||

   PM-----------------------------------------------
   E  E E E  E  E  E  E    E   E  E  E  E  E  E  E
|-----------------------|--------------------------|
|-----------------------|--------------------------|
|-----------------12-12-|-11--11-------------------|
|-14-14-9-9-14-14-------|--------12-12-14-14-12-12-|
|-----------------------|--------------------------|
|-----------------------|--------------------------|
|
|                                             PM
|  W                       H.                 Q
|-----------------------|--------------------------|
|-----------------------|--------------------------|
|-----------------------|--7-----------------------|
|--2--------------------|--7-----------------------|
|--2--------------------|--5------------------0----|
|--0--------------------|---------------------0----|


 ---------------------------------------------|
   E  E E E  E  E E E    E   E  E  E  E  E  E  E
|---------------------|--------------------------|
|---------------------|--------------------------|
|---------------------|--------------------------|
|-14-14-9-9-14-14-9-9-|-12--12-------12-12-------|
|---------------------|--------10-10-------10-10-|
|---------------------|--------------------------|
|
|  W                    +W
|---------------------|--------------------------|
|---------------------|--------------------------|
|--5------------------|-(5)----------------------|
|--5------------------|-(5)----------------------|
|--3------------------|-(3)----------------------|
|---------------------|--------------------------|


   PM-----------------------------------------------
   E  E E E  E  E  E  E    E   E  E  E  E  E  E  E
|-----------------------|--------------------------|
|-----------------------|--------------------------|
|-----------------12-12-|-11--11-------------------|
|-14-14-9-9-14-14-------|--------12-12-14-14-12-12-|
|-----------------------|--------------------------|
|-----------------------|--------------------------|
|
|                                             PM
|  W                       H.                 Q
|-----------------------|--------------------------|
|-----------------------|--------------------------|
|-----------------------|--7-----------------------|
|--2--------------------|--7-----------------------|
|--2--------------------|--5------------------0----|
|--0--------------------|---------------------0----|


 ---------------------------------------------|
   E  E E E  E  E E E    E   E  E  E  E  E  E  E
|---------------------|--------------------------|
|---------------------|--------------------------|
|---------------------|--------------------------|
|-14-14-9-9-14-14-9-9-|-12--12-------12-12-------|
|---------------------|--------10-10-------10-10-|
|---------------------|--------------------------|
|
|  W                    +H            H
|---------------------|--------------------------|
|---------------------|--------------------------|
|--5------------------|-(5)-----------7----------|
|--5------------------|-(5)-----------7----------|
|--3------------------|-(3)-----------5----------|
|---------------------|--------------------------|


   PM-----------------------------------------------
   E  E E E  E  E  E  E    E   E  E  E  E  E  E  E
|-----------------------|--------------------------|
|-----------------------|--------------------------|
|-----------------12-12-|-11--11-------------------|
|-14-14-9-9-14-14-------|--------12-12-14-14-12-12-|
|-----------------------|--------------------------|
|-----------------------|--------------------------|
|
|                                             PM
|  W                       H.                 Q
|-----------------------|--------------------------|
|-----------------------|--------------------------|
|-----------------------|--7-----------------------|
|--2--------------------|--7-----------------------|
|--2--------------------|--5------------------0----|
|--0--------------------|---------------------0----|
|
| Gtr III
|  W                       H.                 Q
|-----------------------|--------------------------|
|-----------------------|--------------------------|
|-12--------------------|-11-----------------------|
|-----------------------|--------------------------|
|-10--------------------|--9------------------0----|
|-----------------------|---------------------0----|


 ---------------------------------------------|
   E  E E E  E  E E E    E   E  E  E  E  E  E  E
|---------------------|--------------------------|
|---------------------|--------------------------|
|---------------------|--------------------------|
|-14-14-9-9-14-14-9-9-|-12--12-------12-12-------|
|---------------------|--------10-10-------10-10-|
|---------------------|--------------------------|
|
|                               PM---------|
|  W                    +Q      Q     Q     Q
|---------------------|--------------------------|
|---------------------|--------------------------|
|--5------------------|-(5)----------------------|
|--5------------------|-(5)-----4-----5-----7----|
|--3------------------|-(3)-----2-----3-----5----|
|---------------------|---------2-----3-----5----|
|
|  H         H           H            H
|---------------------|--------------------------|
|------------8--------|--7-----------------------|
|--9------------------|---------------7----------|
|---------------------|--------------------------|
|--7------------------|--------------------------|
|---------------------|--------------------------|


   PM-----------------------------------------------
   E  E E E  E  E  E  E    E   E  E  E  E  E  E  E
|-----------------------|--------------------------|
|-----------------------|--------------------------|
|-----------------12-12-|-11--11-------------------|
|-14-14-9-9-14-14-------|--------12-12-14-14-12-12-|
|-----------------------|--------------------------|
|-----------------------|--------------------------|
|
|                                             PM
|  W                       H.                 Q
|-----------------------|--------------------------|
|-----------------------|--------------------------|
|-----------------------|--------------------------|
|--2--------------------|--4-----------------------|
|--2--------------------|--5------------------0----|
|--0--------------------|--2------------------0----|
|
|                                             PM
|  W                       H.                 Q
|-----------------------|--------------------------|
|-----------------------|--------------------------|
|--4--------------------|-11-----------------------|
|-----------------------|--9-----------------------|
|-----------------------|--9------------------0----|
|-----------------------|---------------------0----|

   E  E E E  E  E E E    E   E  E  E  E  E  E  E
|---------------------|--------------------------|
|---------------------|--------------------------|
|---------------------|--------------------------|
|-14-14-9-9-14-14-9-9-|-12--12-------12-12-------|
|---------------------|--------10-10-------10-10-|
|---------------------|--------------------------|
|
|                               PM---------|
|  W                    +Q      Q     Q     Q
|---------------------|--------------------------|
|---------------------|--------------------------|
|--5------------------|-(5)----------------------|
|--5------------------|-(5)-----4-----5-----7----|
|--3------------------|-(3)-----2-----3-----5----|
|--3------------------|-(3)-----2-----3-----5----|
|
|
|  H         H           H            H
|---------------------|--------------------------|
|---------------------|--------------------------|
|--9--------12--------|-11------------7----------|
|--9------------------|--------------------------|
|--7--------10--------|--9------------5----------|
|---------------------|--------------------------|


||||VERSE 2||||

    E E E E E E E E   E E E E SSE E E
||------------------|-----------------|
||o-----------------|-----------------|
||------------------|-----------------|
||------------------|-----------------|
||o-5S7---7-----7---|---7---------7---|
||------0---0-0---0-|-0---0-0-000---0-|
|
|   E E E E E E E E   E E E E SSE E E
||------------------|-----------------|
||o-----------------|-----------------|
||------------------|-----------------|
||------------------|-----------------|
||o-0h2---2-----2---|---2---------2---|
||------0---0-0---0-|-0---0-0-000---0-|


  E E E E E E E E   E E E E SSE SSE
|-----------------|-----------------|
|-----------------|-----------------|
|-----------------|-----------------|
|-----------------|-----------------|
|-7S9---9-----9---|---9-------------|
|-----0---0-0---0-|-0---0-0-000-000-|
|
| E E E E E E E E   E E E E SSE SSE
|-----------------|-----------------|
|-----------------|-----------------|
|-----------------|-----------------|
|-----------------|-----------------|
|-2p0---0-----0---|---0-------------|
|-----0---0-0---0-|-0---0-0-000-000-|


  E  E E  E E E  E E   E  E E E SSE  E E
|--------------------|-------------------|
|--------------------|-------------------|
|--------------------|-------------------|
|--------------------|-------------------|
|-9S10---10-----10---|---10---------10---|
|------0----0-0----0-|-0----0-0-000----0-|
|
| E  E E  E E E  E E   E  E E E SSE  E E
|--------------------|-------------------|
|--------------------|-------------------|
|--------------------|-------------------|
|--------------------|-------------------|
|-0h=3----3------3---|----3----------3---|
|------0----0-0----0-|-0----0-0-000----0-|



   E E E E E E E E   E E E E E  E  E E
|------------------|---------------------||
|------------------|--------------------o||
|------------------|---------------------||
|------------------|---------9-----------||
|-10S7---7-----7---|---7-------12-10-9--o||
|------0---0-0---0-|-0---0-0-------------||
|
|  E E E E E E E E   E E E E E  E  E E
|------------------|---------------------||
|------------------|--------------------o||
|------------------|---------------------||
|------------------|---------5--4--2-----||
|--3S2---2-----2---|---2-------------5--o||
|------0---0-0---0-|-0---0-0-------------||


    E E E E E E  E E   E E E E SSE E E
||-------------------|-----------------|
||o------------------|-----------------|
||-------------------|-----------------|
||-------------------|-----------------|
||o-5S7---7------7---|---7---------7---|
||------0---0-0----0-|-0---0-0-000---0-|
|
|   E E E E E Q.       E SSE E SSQ.
||-------------------|-----------------|
||o------------------|-----------------|
||-------------------|-----------------|
||-------------------|-----------------|
||o-2-2-2-2-2--------|---222-2-222-----|
||--0-0-0-0-0--------|---000-0-000-----|


  E E E E E E  E E   E E E E SSE SSE
|------------------|--------------------|
|------------------|--------------------|
|------------------|--------------------|
|------------------|--------------------|
|-7S9---9------9---|---9----------------|
|-----0---0-0----0-|-0---0-0-000--000---|
|
| E E E E E Q.       E S S E E S S Q.
|------------------|--------------------|
|------------------|--------------------|
|------------------|--------------------|
|------------------|--------------------|
|-4-4-4-4-4--------|---444-4-444--------|
|-2-2-2-2-2--------|---222-2-222--------|


  E  E E  E E E   E E   E  E E E SSE  E  E
|---------------------|--------------------|
|---------------------|--------------------|
|---------------------|--------------------|
|---------------------|--------------------|
|-9S10---10------10---|---10---------10----|
|------0----0-0-----0-|-0----0-0-000-----0-|
|
| E  E E  E E Q.        E  SSE E SSQ.
|---------------------|--------------------|
|---------------------|--------------------|
|---------------------|--------------------|
|---------------------|--------------------|
|-5--5-5--5-5---------|----555-5-555-------|
|-3--3-3--3-3---------|----333-3-333-------|


   E E E E E E  E E   E E E E E  E  E E
|-------------------|--------------------||
|-------------------|-------------------o||
|-------------------|--------------------||
|-------------------|---------9----------||
|-10S7---7------7---|---7-------12-10-9-o||
|------0---0-0----0-|-0---0-0------------||
|
|  E E E E E Q.       E SSE E E  E  E E
|-------------------|--------------------||
|-------------------|-------------------o||
|-------------------|--------------------||
|-------------------|---------5--4--2----||
|--2-2-2-2-2--------|---222-2---------5-o||
|--0-0-0-0-0--------|---000-0------------||


||||CHORUS||||

   PM-----------------------------------------------
   E  E E E  E  E  E  E    E   E  E  E  E  E  E  E
|-----------------------|--------------------------|
|-----------------------|--------------------------|
|-----------------12-12-|-11--11-------------------|
|-14-14-9-9-14-14-------|--------12-12-14-14-12-12-|
|-----------------------|--------------------------|
|-----------------------|--------------------------|
|
|                                             PM
|  W                       H.                 Q
|-----------------------|--------------------------|
|-----------------------|--------------------------|
|-----------------------|--7-----------------------|
|--2--------------------|--7-----------------------|
|--2--------------------|--5------------------0----|
|--0--------------------|---------------------0----|


 ---------------------------------------------|
   E  E E E  E  E E E    E   E  E  E  E  E  E  E
|---------------------|--------------------------|
|---------------------|--------------------------|
|---------------------|--------------------------|
|-14-14-9-9-14-14-9-9-|-12--12-------12-12-------|
|---------------------|--------10-10-------10-10-|
|---------------------|--------------------------|
|
|  W                    +W
|---------------------|--------------------------|
|---------------------|--------------------------|
|--5------------------|-(5)----------------------|
|--5------------------|-(5)----------------------|
|--3------------------|-(3)----------------------|
|---------------------|--------------------------|


   PM-----------------------------------------------
   E  E E E  E  E  E  E    E   E  E  E  E  E  E  E
|-----------------------|--------------------------|
|-----------------------|--------------------------|
|-----------------12-12-|-11--11-------------------|
|-14-14-9-9-14-14-------|--------12-12-14-14-12-12-|
|-----------------------|--------------------------|
|-----------------------|--------------------------|
|
|                                             PM
|  W                       H.                 Q
|-----------------------|--------------------------|
|-----------------------|--------------------------|
|-----------------------|--7-----------------------|
|--2--------------------|--7-----------------------|
|--2--------------------|--5------------------0----|
|--0--------------------|---------------------0----|


 ---------------------------------------------|
   E  E E E  E  E E E    E   E  E  E  E  E  E  E
|---------------------|--------------------------|
|---------------------|--------------------------|
|---------------------|--------------------------|
|-14-14-9-9-14-14-9-9-|-12--12-------12-12-------|
|---------------------|--------10-10-------10-10-|
|---------------------|--------------------------|
|
|  W                    +H            H
|---------------------|--------------------------|
|---------------------|--------------------------|
|--5------------------|-(5)-----------7----------|
|--5------------------|-(5)-----------7----------|
|--3------------------|-(3)-----------5----------|
|---------------------|--------------------------|


   PM-------------------------------------------------
   E  E E E  E  E  E  E    E   E  E  E  E  E  E  E
|-----------------------|----------------------------|
|-----------------------|----------------------------|
|-----------------12-12-|-11--11---------------------|
|-14-14-9-9-14-14-------|--------12-12-14-14-12-12---|
|-----------------------|----------------------------|
|-----------------------|----------------------------|
|
|                                             PM
|  W                       H.                 Q
|-----------------------|----------------------------|
|-----------------------|----------------------------|
|-----------------------|--7-------------------------|
|--2--------------------|--7-------------------------|
|--2--------------------|--5------------------0------|
|--0--------------------|---------------------0------|
|
| Gtr III
|  W                       H.                 Q
|-----------------------|----------------------------|
|-----------------------|----------------------------|
|-12--------------------|-11-------------------------|
|-----------------------|----------------------------|
|-10--------------------|--9------------------0------|
|-----------------------|---------------------0------|


 ---------------------------------------------|
   E  E E E  E  E E E    E   E  E  E  E  E  E  E
|---------------------|--------------------------|
|---------------------|--------------------------|
|---------------------|--------------------------|
|-14-14-9-9-14-14-9-9-|-12--12-------12-12-------|
|---------------------|--------10-10-------10-10-|
|---------------------|--------------------------|
|
|                               PM---------|
|  W                    +Q      Q     Q     Q
|---------------------|--------------------------|
|---------------------|--------------------------|
|--5------------------|-(5)----------------------|
|--5------------------|-(5)-----4-----5-----7----|
|--3------------------|-(3)-----2-----3-----5----|
|---------------------|---------2-----3-----5----|
|
|  H         H           H            H
|---------------------|--------------------------|
|------------8--------|--7-----------------------|
|--9------------------|---------------7----------|
|---------------------|--------------------------|
|--7------------------|--------------------------|
|---------------------|--------------------------|


   PM-----------------------------------------------
   E  E E E  E  E  E  E    E   E  E  E  E  E  E  E
|-----------------------|--------------------------|
|-----------------------|--------------------------|
|-----------------12-12-|-11--11-------------------|
|-14-14-9-9-14-14-------|--------12-12-14-14-12-12-|
|-----------------------|--------------------------|
|-----------------------|--------------------------|
|
|                                             PM
|  W                       H.                 Q
|-----------------------|--------------------------|
|-----------------------|--------------------------|
|-----------------------|--------------------------|
|--2--------------------|--4-----------------------|
|--2--------------------|--5------------------0----|
|--0--------------------|--2------------------0----|
|
|                                             PM
|  W                       H.                 Q
|-----------------------|--------------------------|
|-----------------------|--------------------------|
|--4--------------------|-11-----------------------|
|-----------------------|--9-----------------------|
|-----------------------|--9------------------0----|
|-----------------------|---------------------0----|

   E  E E E  E  E E E    E   E  E  E  E  E  E  E
|---------------------|--------------------------|
|---------------------|--------------------------|
|---------------------|--------------------------|
|-14-14-9-9-14-14-9-9-|-12--12-------12-12-------|
|---------------------|--------10-10-------10-10-|
|---------------------|--------------------------|
|
|                               PM---------|
|  W                    +Q      Q     Q     Q
|---------------------|--------------------------|
|---------------------|--------------------------|
|--5------------------|-(5)----------------------|
|--5------------------|-(5)-----4-----5-----7----|
|--3------------------|-(3)-----2-----3-----5----|
|--3------------------|-(3)-----2-----3-----5----|
|
|
|  H         H           H            H
|---------------------|--------------------------|
|---------------------|--------------------------|
|--9--------12--------|-11------------7----------|
|--9------------------|--------------------------|
|--7--------10--------|--9------------5----------|
|---------------------|--------------------------|


||||INTERLUDE (Intro Riff)||||

    E E E E  E E E E   E E E E  E  E E  E
||-------------------|--------------------|
||o------------------|--------------------|
||-------------------|--------------------|
||-------------------|--------------------|
||o-7-------10-9-7-9-|-5-------12-10-9-10-|
||----0-0-0----------|---0-0-0------------|
|
|   E E E E  E E E E   E E E E  E  E E  E
||-------------------|--------------------|
||o------------------|--------------------|
||-------------------|--------------------|
||-------------------|--------------------|
||o-2--------2-0-2-5-|-0--------0--2-5--2-|
||----0-0-0----------|---0-0-0------------|


  E E E E E  E  E  E   E  E E  E E  E  E E
|--------------------|--------------------|
|--------------------|--------------------|
|--------------------|--------------------|
|---------9----------|-9-10-9----9--------|
|-7---------12-10-12-|--------12---12-10-9|
|---0-0-0------------|--------------------|
|
| E E E E E  E  E  E   E  E E  E E  E  E E
|--------------------|--------------------|
|--------------------|--------------------|
|--------------------|----2---------------|
|---------5--4--2--4-|-5----5--4-5--4--2--|
|-3------------------|-------------------5|
|---0-0-0------------|--------------------|


  E E E E E E E E    E E E E  E E  E E    E E E E  E E  E E   Q  Q  Q  Q
|-----------------|--------------------|--------------------|--------------||
|-----------------|--------------------|--------------------|-------------o||
|-9-------9---9---|-11-------11---11---|-12-------12---12---|--------------||
|-9-------9---9---|--9--------9----9---|-12-------12---12---|-9--7--4--7---||
|-7-------7---7---|--9--------9----9---|-10-------10---10---|-7--5--2--5--o||
|---0-0-0---0---0-|----0-0-0----0----0-|----0-0-0----0----0-|--------------||
|
| E E E E E E E E    E E E E  E E  E E    E E E E  E E  E E   Q  Q  Q  Q
|-----------------|--------------------|--------------------|--------------||
|-----------------|--------------------|--------------------|-------------o||
|-----------------|--7--------7----7---|--9--------9----9---|--------------||
|-2-------2---2---|--7--------7----7---|--9--------9----9---|-9--7---------||
|-2-------2---2---|--5--------5----5---|--7--------7----7---|-7--5--5--7--o||
|-0-0-0-0-0-0-0-0-|----0-0-0----0----0-|----0-0-0----0----0-|-------3--5---||


||||SOLO||||

  H         Q     Q       H           Q     Q
|----------------------|----------------------------|
|----------------------|----------------------------|
|----------------------|----------------------------|
|-2---------4-----5----|--7-----------5S====4-------|
|-2---------2-----3----|--7-----------5S====4-------|
|-0--------------------|--5-----------3S====2-------|
|
| H         Q     Q       H           Q     Q
|----------------------|----------------------------|
|----------------------|----------------------------|
|----------------------|----------------------------|
|-2---------4-----5----|--7-----------5S====4-------|
|-2---------2-----3----|--7-----------5S====4-------|
|-0--------------------|--5-----------3S====2-------|
|
| Gtr III
| E  E E  E E  E  E  E    E  E  E  E  E  S  S  E  E
|----------------------|----------------------14-15-|
|----------------------|----------------15s17-------|
|----------------11-12-|-------16-17-14-------------|
|------9-10-9-14-------|----17----------------------|
|-7-10-----------------|-15-------------------------|
|----------------------|----------------------------|


   H           H             H           H
|-------------------------|----------------------------|
|-------------------------|----------------------------|
|-------------------------|----------------------------|
|--2-----------7----------|--5-----------7-------------|
|--2-----------7----------|--5-----------7-------------|
|--0-----------5----------|--3-----------5-------------|
|
|  H           H             H           H
|-------------------------|----------------------------|
|-------------------------|----------------------------|
|-------------------------|----------------------------|
|--2-----------7----------|--5-----------7-------------|
|--2-----------7----------|--5-----------7-------------|
|--0-----------5----------|--3-----------5-------------|
|
|  E  E  E  E  E  E  E  E    E  E  E  E  E  E  Q
|-12----12----14----10----|-15----19----17-------------|
|----12----12----10----10-|----15----15----17-19b20r===|
|-------------------------|----------------------------|
|-------------------------|----------------------------|
|-------------------------|----------------------------|
|-------------------------|----------------------------|


  H         Q     Q       H           Q        Q
|----------------------|----------------------------|
|----------------------|----------------------------|
|----------------------|----------------------------|
|-2---------4-----5----|--7-----------5S=======4----|
|-2---------2-----3----|--7-----------5S=======4----|
|-0--------------------|--5-----------3S=======2----|
|
| H         Q     Q       H           Q        Q
|----------------------|----------------------------|
|----------------------|----------------------------|
|----------------------|----------------------------|
|-2---------4-----5----|--7-----------5S=======4----|
|-2---------2-----3----|--7-----------5S=======4----|
|-0--------------------|--5-----------3S=======2----|
|
| E  E E  E E  E  E  E    E  E  E  E  E  S  S  E  E
|----------------------|----------------------14-15-|
|----------------------|----------------15s17-------|
|----------------11-12-|-------16-17-14-------------|
|------9-10-9-14-------|----17----------------------|
|-7-10-----------------|-15-------------------------|
|----------------------|----------------------------|


   H           H             H           H
|-------------------------|----------------------------|
|-------------------------|----------------------------|
|-------------------------|----------------------------|
|--2-----------7----------|--5-----------7-------------|
|--2-----------7----------|--5-----------7-------------|
|--0-----------5----------|--3-----------5-------------|
|
|  H           H             H           H
|-------------------------|----------------------------|
|-------------------------|----------------------------|
|-------------------------|----------------------------|
|--2-----------7----------|--5-----------7-------------|
|--2-----------7----------|--5-----------7-------------|
|--0-----------5----------|--3-----------5-------------|
|
|  E  E  E  E  E  E  E  E    E  E  E  E  E  E  Q
|-12----12----14----10----|-15----19----17----20b22r===|
|----12----12----10----10-|----15----15----17----------|
|-------------------------|----------------------------|
|-------------------------|----------------------------|
|-------------------------|----------------------------|
|-------------------------|----------------------------|


   H                 Q        Q          H                 Q     Q
|-------------------------------------|-------------------------------------|
|-------------------------------------|-------------------------------------|
|-------------------------------------|-------------------------------------|
|--2-----------------4--------5-------|--7-----------------5S====4----------|
|--2-----------------2--------3-------|--7-----------------5S====4----------|
|--0----------------------------------|--5-----------------3S====2----------|
|
|  H                 Q        Q          H                 Q     Q
|-------------------------------------|-------------------------------------|
|-------------------------------------|-------------------------------------|
|-------------------------------------|-------------------------------------|
|--2-----------------4--------5-------|--7-----------------5S====4----------|
|--2-----------------2--------3-------|--7-----------------5S====4----------|
|--0----------------------------------|--5-----------------3S====2----------|
|
|  |--3--|  |--3--|  |--3--|  |--3--|    |--3--|  |--3--|  |--3--|  |--3--|
|  E  E  E  E  E  E  E  E  E  E  E  E    E  E  E  E  E  E  E  E  E  E  E  E
|-15-14----------14-19-15----------15-|-17-12----------12-15-14----------14-|
|-------17----17----------17----17----|-------15----15----------15----15----|
|----------16----------------16-------|----------14----------------14-------|
|-------------------------------------|-------------------------------------|
|-------------------------------------|-------------------------------------|
|-------------------------------------|-------------------------------------|


   H           H                         H           H
|-------------------------------------|----------------------------------|
|-------------------------------------|----------------------------------|
|-------------------------------------|----------------------------------|
|--2-----------7----------------------|--5-----------7-------------------|
|--2-----------7----------------------|--5-----------7-------------------|
|--0-----------5----------------------|--3-----------5-------------------|
|
|  H           H                         H           H
|-------------------------------------|----------------------------------|
|-------------------------------------|----------------------------------|
|-------------------------------------|----------------------------------|
|--2-----------7----------------------|--5-----------7-------------------|
|--2-----------7----------------------|--5-----------7-------------------|
|--0-----------5----------------------|--3-----------5-------------------|
|
|                                                                   ~~
|  |--3--|  |--3--|  |--3--|  |--3--|    |--3--|  |--3--|  |--3--|
|  E  E  E  E  E  E  E  E  E  E  E  E    E  E  E  E  E  E  E  E  E  Q
|-19-15----------15-17-15----------15-|-19-15----20-15----19-15----17----|
|-------17----17----------17----17----|-------17-------17-------17-------|
|----------16----------------16-------|----------------------------------|
|-------------------------------------|----------------------------------|
|-------------------------------------|----------------------------------|
|-------------------------------------|----------------------------------|


   H                 Q        Q          H                 Q        Q
|-------------------------------------|-------------------------------------|
|-------------------------------------|-------------------------------------|
|-------------------------------------|-------------------------------------|
|--2-----------------4--------5-------|--7-----------------5S=======4-------|
|--2-----------------2--------3-------|--7-----------------5S=======4-------|
|--0----------------------------------|--5-----------------3S=======2-------|
|
|  H                 Q        Q          H                 Q        Q
|-------------------------------------|-------------------------------------|
|-------------------------------------|-------------------------------------|
|-------------------------------------|-------------------------------------|
|--2-----------------4--------5-------|--7-----------------5S=======4-------|
|--2-----------------2--------3-------|--7-----------------5S=======4-------|
|--0----------------------------------|--5-----------------3S=======2-------|
|
|  |--3--|  |--3--|  |--3--|  |--3--|    |--3--|  |--3--|  |--3--|  |--3--|
|  E  E  E  E  E  E  E  E  E  E  E  E    E  E  E  E  E  E  E  E  E  E  E  E
|-15-14----------14-19-15----------15-|-17-12----------12-15-14----------14-|
|-------17----17----------17----17----|-------15----15----------15----15----|
|----------16----------------16-------|----------14----------------14-------|
|-------------------------------------|-------------------------------------|
|-------------------------------------|-------------------------------------|
|-------------------------------------|-------------------------------------|


   H                 H                   H                 H
|-------------------------------------|--------------------------------|
|-------------------------------------|--------------------------------|
|-------------------------------------|--------------------------------|
|--2-----------------7----------------|--5-----------------7-----------|
|--2-----------------7----------------|--5-----------------7-----------|
|--0-----------------5----------------|--3-----------------5-----------|
|
|  H                 H                   H                 H
|-------------------------------------|--------------------------------|
|-------------------------------------|--------------------------------|
|-------------------------------------|--------------------------------|
|--2-----------------7----------------|--5-----------------7-----------|
|--2-----------------7----------------|--5-----------------7-----------|
|--0-----------------5----------------|--3-----------------5-----------|
|
|                                                                   ~~
|  |--3--|  |--3--|  |--3--|  |--3--|    |--3--|  |--3--|  |--3--|
|  E  E  E  E  E  E  E  E  E  E  E  E    E  E  E  E  E  E  E  E  E  Q
|-19-15----------15-17-15----------15-|-19-15----20-15----19-15----17--|
|-------17----17----------17----17----|-------17-------17-------17-----|
|----------16----------------16-------|--------------------------------|
|-------------------------------------|--------------------------------|
|-------------------------------------|--------------------------------|
|-------------------------------------|--------------------------------|


   Q        Q     Q        Q
|-------------------------------|
|-------------------------------|
|-------------------------------|
|--5--------------7-------------|
|--5--------------7-------------|
|--3--------------5-------------|
|
|  Q        Q     Q        Q
|-------------------------------|
|-------------------------------|
|-------------------------------|
|--5--------------7-------------|
|--5--------------7-------------|
|--3--------------5-------------|
|
|  S  S  E  E  E  S  S  E  E  E
|-------------------------------|
|-------------------------------|
|-11-12-11-------16-17-16-------|
|----------14-12----------17-16-|
|-------------------------------|
|-------------------------------|
|
|  S  S  E  E  E  S  S  E  E  E
|-------------------------------|
|-------------------------------|
|-------------------------------|
|-12-14-12-------17-19-17-------|
|----------15-14----------19-17-|
|-------------------------------|

                                         PM
   W                  H.                 Q
|------------------|--------------------------|
|------------------|--------------------------|
|------------------|--7-----------------------|
|--2---------------|--7-----------------------|
|--2---------------|--5------------------0----|
|--0---------------|---------------------0----|
|
|                                        PM
|  W                  H.                 Q
|------------------|--------------------------|
|------------------|--------------------------|
|------------------|--7-----------------------|
|--2---------------|--7-----------------------|
|--2---------------|--5------------------0----|
|--0---------------|---------------------0----|
|
|  ~~~                ~~~~~~~~~
|  H.      S  S  E    H    +E.  S  S  S  S  S
|------------------|--------------------------|
|------------------|-15---(15)----------12-15-|
|-16------14-12-14-|-----------11-12S14-------|
|------------------|--------------------------|
|------------------|--------------------------|
|------------------|--------------------------|


   W                     +W
|----------------------|----------------------------|
|----------------------|----------------------------|
|--5-------------------|-(5)------------------------|
|--5-------------------|-(5)------------------------|
|--3-------------------|-(3)------------------------|
|----------------------|----------------------------|
|
|  W                     +W
|----------------------|----------------------------|
|----------------------|----------------------------|
|--5-------------------|-(5)------------------------|
|--5-------------------|-(5)------------------------|
|--3-------------------|-(3)------------------------|
|----------------------|----------------------------|
|
|                             |--3--|
|  H     +Q       E  E    Q   E  E  E  Q   +Q
|-14----(14)b15r=======|============================|
|----------------15-17-|----------------------------|
|----------------------|-16--16S14-12-14--(14)b16r==|
|----------------------|----------------------------|
|----------------------|----------------------------|
|----------------------|----------------------------|


                                                  PM
   W                            H.                Q
|----------------------------|-------------------------|
|----------------------------|-------------------------|
|----------------------------|--7----------------------|
|--2-------------------------|--7----------------------|
|--2-------------------------|--5-----------------0----|
|--0-------------------------|--------------------0----|
|
|                                                 PM
|  W                            H.                Q
|----------------------------|-------------------------|
|----------------------------|-------------------------|
|----------------------------|--7----------------------|
|--2-------------------------|--7----------------------|
|--2-------------------------|--5-----------------0----|
|--0-------------------------|--------------------0----|
|
|  |--3--|                                   |---3---|
|  Q  Q  Q  E  +Q       S  S    E   E  E  E  Q  Q    Q
|----------------------------|--------------14-15---17-|
|----------------------------|--------12-15------------|
|-16-------------------------|-12--14------------------|
|----17-16-17-(17)b19r=12-14-|-------------------------|
|----------------------------|-------------------------|
|----------------------------|-------------------------|


   W                   +H        H
|--------------------|----------------------------------|
|--------------------|----------------------------------|
|--5-----------------|-(5)-------7----------------------|
|--5-----------------|-(5)-------7----------------------|
|--3-----------------|-(3)-------5----------------------|
|--------------------|----------------------------------|
|
|  W                   +H        H
|--------------------|----------------------------------|
|--------------------|----------------------------------|
|--5-----------------|-(5)-------7----------------------|
|--5-----------------|-(5)-------7----------------------|
|--3-----------------|-(3)-------5----------------------|
|--------------------|----------------------------------|
|
|           |--3--|
|  H        Q  Q  Q     H        S  S  S  S  S  S  S  S
|-12b14----14-15-17--|-12b14r===10h12p10h12p10h12p10h12-|
|--------------------|----------------------------------|
|--------------------|----------------------------------|
|--------------------|----------------------------------|
|--------------------|----------------------------------|
|--------------------|----------------------------------|


                                                            PM
  W                             H.                          Q
|-----------------------------|-------------------------------------|
|-----------------------------|-------------------------------------|
|-----------------------------|-7-----------------------------------|
|-2---------------------------|-7-----------------------------------|
|-2---------------------------|-5---------------------------0-------|
|-0---------------------------|-----------------------------0-------|
|
|                                                           PM
  W                             H.                          Q
|-----------------------------|-------------------------------------|
|-----------------------------|-------------------------------------|
|-----------------------------|-7-----------------------------------|
|-2---------------------------|-7-----------------------------------|
|-2---------------------------|-5---------------------------0-------|
|-0---------------------------|-----------------------------0-------|
|
| |-3--| |-3--| |-3--| |-3--|   |--3---|  |--3--|  |--3--|  |--3--|
| E E  E E E  E E E  E E E  E   E   E  E  E  E  E  E  E  E  E  E  E
|-----------------------------|----------------------------10-12-14-|
|-----------------------------|----------10-12-13-10-12-13----------|
|----------------------7-9-11-|-9--11-12----------------------------|
|--------7-9-10-7-9-10--------|-------------------------------------|
|-7-9-10----------------------|-------------------------------------|
|-----------------------------|-------------------------------------|


                                               PM---------------|
   W                                    +Q     Q     Q           Q
|-------------------------------------|----------------------------------------|
|-------------------------------------|----------------------------------------|
|--5----------------------------------|-(5)------------------------------------|
|--5----------------------------------|-(5)----4-----5-----------7-------------|
|--3----------------------------------|-(3)----2-----3-----------5-------------|
|-------------------------------------|--------2-----3-----------5-------------|
|
|                                              PM---------------|
|  W                                    +Q     Q     Q           Q
|-------------------------------------|----------------------------------------|
|-------------------------------------|----------------------------------------|
|--5----------------------------------|-(5)------------------------------------|
|--5----------------------------------|-(5)----4-----5-----------7-------------|
|--3----------------------------------|-(3)----2-----3-----------5-------------|
|-------------------------------------|--------2-----3-----------5-------------|
|
|  |--3--|  |--3--|  |--3--|  |--3--|
|  E  E  E  E  E  E  E  E  E  E  E  E    Q.       E  S  S  S  S  S  S  S  S
|-12----12-14-12----15-12----17-12-19-|-17b19----20-17h19p17h19p17h19p17h19----|
|----12----------12-------12----------|----------------------------------------|
|-------------------------------------|----------------------------------------|
|-------------------------------------|----------------------------------------|
|-------------------------------------|----------------------------------------|
|-------------------------------------|----------------------------------------|


                                                PM
   W                         H.                 Q
|-------------------------|--------------------------|
|-------------------------|--------------------------|
|-------------------------|--------------------------|
|--2----------------------|--4-----------------------|
|--2----------------------|--5------------------0----|
|--0----------------------|--2------------------0----|
|
|  W                         H.                 Q
|-------------------------|--------------------------|
|-------------------------|--------------------------|
|-------------------------|--------------------------|
|--2----------------------|--4-----------------------|
|--2----------------------|--5------------------0----|
|--0----------------------|--2------------------0----|
|
|  E  E  E  E  E  E  E  E    E   E  E  E  E  E  E  E
|-19----------15----12----|-17-----------14----------|
|-------17----------------|--------15----------15----|
|----16----16----12----12-|-----14----14----11----11-|
|-------------------------|--------------------------|
|-------------------------|--------------------------|
|-------------------------|--------------------------|


                                    PM---------|
   W                        +Q      Q     Q     Q
|-------------------------|---------------------------|
|-------------------------|---------------------------|
|--5----------------------|-(5)-----------------------|
|--5----------------------|-(5)-----4-----5-----7-----|
|--3----------------------|-(3)-----2-----3-----5-----|
|--3----------------------|-(3)-----2-----3-----5-----|
|
|                                   PM---------|
|  W                        +Q      Q     Q     Q
|-------------------------|---------------------------|
|-------------------------|---------------------------|
|--5----------------------|-(5)-----------------------|
|--5----------------------|-(5)-----4-----5-----7-----|
|--3----------------------|-(3)-----2-----3-----5-----|
|--3----------------------|-(3)-----2-----3-----5-----|
|
|                                               ~~~~~
|  E  E  E  E  E  E  E  E    E   E  E  E  E  E  Q
|-15----12----14----------|-----------12-------14b15--|
|-------------------15----|--------13----15-----------|
|----12----12----11----11-|-----12----------14--------|
|-------------------------|-14------------------------|
|-------------------------|---------------------------|
|-------------------------|---------------------------|


||||VERSE 3||||

   E E E E E E E E    E E E E SSE E E
||------------------|-----------------|
||o-----------------|-----------------|
||------------------|-----------------|
||------------------|-----------------|
||o-5S7---7-----7---|---7---------7---|
||------0---0-0---0-|-0---0-0-000---0-|
|
|   E E E E E E E E   E E E E SSE E E
||------------------|-----------------|
||o-----------------|-----------------|
||------------------|-----------------|
||------------------|-----------------|
||o-0h2---2-----2---|---2---------2---|
||------0---0-0---0-|-0---0-0-000---0-|
|
|    +W                 +W
||--(14)-------------|-(14)--------------|
||-------------------|-------------------|
||-------------------|-------------------|
||-------------------|-------------------|
||-------------------|-------------------|
||-------------------|-------------------|


  E E E E E E E E   E E E E SSE SSE
|-----------------|-----------------|
|-----------------|-----------------|
|-----------------|-----------------|
|-----------------|-----------------|
|-7S9---9-----9---|---9-------------|
|-----0---0-0---0-|-0---0-0-000-000-|
|
| E E E E E E E E   E E E E SSE SSE
|-----------------|-----------------|
|-----------------|-----------------|
|-----------------|-----------------|
|-----------------|-----------------|
|-2p0---0-----0---|---0-------------|
|-----0---0-0---0-|-0---0-0-000-000-|


  E  E E  E E E  E E   E  E E E SSE  E E
|--------------------|-------------------|
|--------------------|-------------------|
|--------------------|-------------------|
|--------------------|-------------------|
|-9S10---10-----10---|---10---------10---|
|------0----0-0----0-|-0----0-0-000----0-|
|
| E  E E  E E E  E E   E  E E E SSE  E E
|--------------------|-------------------|
|--------------------|-------------------|
|--------------------|-------------------|
|--------------------|-------------------|
|-0h=3----3------3---|----3----------3---|
|------0----0-0----0-|-0----0-0-000----0-|


   E E E E E E E E   E E E E E  E  E E
|------------------|---------------------||
|------------------|--------------------o||
|------------------|---------------------||
|------------------|---------9-----------||
|-10S7---7-----7---|---7-------12-10-9--o||
|------0---0-0---0-|-0---0-0-------------||
|
|  E E E E E E E E   E E E E E  E  E E
|------------------|---------------------||
|------------------|--------------------o||
|------------------|---------------------||
|------------------|---------5--4--2-----||
|--3S2---2-----2---|---2-------------5--o||
|------0---0-0---0-|-0---0-0-------------||


    E E E E E E  E E   E E E E SSE E E
|-------------------|-----------------|
|-------------------|-----------------|
|-------------------|-----------------|
|-------------------|-----------------|
|--5S7---7------7---|---7---------7---|
|------0---0-0----0-|-0---0-0-000---0-|
|
|   E E E E E Q.       E SSE E SSQ.
|-------------------|-----------------|
|-------------------|-----------------|
|-------------------|-----------------|
|-------------------|-----------------|
|--2-2-2-2-2--------|---222-2-222-----|
|--0-0-0-0-0--------|---000-0-000-----|


  E E E E E E  E E   E E E E SSE SSE
|------------------|--------------------|
|------------------|--------------------|
|------------------|--------------------|
|------------------|--------------------|
|-7S9---9------9---|---9----------------|
|-----0---0-0----0-|-0---0-0-000--000---|
|
| E E E E E Q.       E S S E E S S Q.
|------------------|--------------------|
|------------------|--------------------|
|------------------|--------------------|
|------------------|--------------------|
|-4-4-4-4-4--------|---444-4-444--------|
|-2-2-2-2-2--------|---222-2-222--------|


  E  E E  E E E   E E   E  E E E SSE  E  E
|---------------------|--------------------|
|---------------------|--------------------|
|---------------------|--------------------|
|---------------------|--------------------|
|-9S10---10------10---|---10---------10----|
|------0----0-0-----0-|-0----0-0-000-----0-|
|
| E  E E  E E Q.        E  SSE E SSQ.
|---------------------|--------------------|
|---------------------|--------------------|
|---------------------|--------------------|
|---------------------|--------------------|
|-5--5-5--5-5---------|----555-5-555-------|
|-3--3-3--3-3---------|----333-3-333-------|


   E E E E E E  E E   E E E E E  E  E E
|-------------------|--------------------|
|-------------------|--------------------|
|-------------------|--------------------|
|-------------------|---------9----------|
|-10S7---7------7---|---7-------12-10-9--|
|------0---0-0----0-|-0---0-0------------|
|
|  E E E E E Q.       E SSE E E  E  E E
|-------------------|--------------------|
|-------------------|--------------------|
|-------------------|--------------------|
|-------------------|---------5--4--2----|
|--2-2-2-2-2--------|---222-2---------5--|
|--0-0-0-0-0--------|---000-0------------|


||||CHORUS||||

     PM----------------------------------------------
     E  E E E  E  E  E  E    E  E  E  E  E  E  E  E
||------------------------|-------------------------|
||o-----------------------|-------------------------|
||------------------12-12-|-11-11-------------------|
||--14-14-9-9-14-14-------|-------12-12-14-14-12-12-|
||o-----------------------|-------------------------|
||------------------------|-------------------------|
|
|    PM----------------------------------------------
|    E  E E E  E  E  E  E    E  E  E  E  E  E  E  E
||------------------------|-------------------------|
||o-----------------------|-------------------------|
||------------------12-12-|-11-11-------------------|
||--14-14-9-9-14-14-------|-------12-12-14-14-12-12-|
||o-----------------------|-------------------------|
||------------------------|-------------------------|


 --------------------------------------------|
   E  E E E  E  E E E    E  E  E  E  E  E  E  E
|---------------------|---------------------------||
|---------------------|--------------------------o||
|---------------------|---------------------------||
|-14-14-9-9-14-14-9-9-|-12-12-------12-12---------||
|---------------------|-------10-10-------10-10--o||
|---------------------|---------------------------||
|
|--------------------------------------------|
|  E  E E E  E  E E E    E  E  E  E  E  E  E  E
|---------------------|---------------------------||
|---------------------|--------------------------o||
|---------------------|---------------------------||
|-14-14-9-9-14-14-9-9-|-12-12-------12-12---------||
|---------------------|-------10-10-------10-10--o||
|---------------------|---------------------------||


   PM----------------------------------------------
   E  E E E  E  E  E  E    E  E  E  E  E  E  E  E
|-----------------------|-------------------------|
|-----------------------|-------------------------|
|-----------------12-12-|-11-11-------------------|
|-14-14-9-9-14-14-------|-------12-12-14-14-12-12-|
|-----------------------|-------------------------|
|-----------------------|-------------------------|
|
|  PM----------------------------------------------
|  E  E E E  E  E  E  E    E  E  E  E  E  E  E  E
|-----------------------|-------------------------|
|-----------------------|-------------------------|
|-----------------12-12-|-11-11-------------------|
|-14-14-9-9-14-14-------|-------12-12-14-14-12-12-|
|-----------------------|-------------------------|
|-----------------------|-------------------------|


                             <
 -------------------|
   E  E E E  E  E E E   H    H
|---------------------|-----------|
|---------------------|-----------|
|---------------------|-----------|
|-14-14-9-9-14-14-9-9-|------2----|
|---------------------|------2----|
|---------------------|------0----|
|
|                            <
|-------------------|
|  E  E E E  E  E E E   H    H
|---------------------|-----------|
|---------------------|-----------|
|---------------------|-----------|
|-14-14-9-9-14-14-9-9-|------2----|
|---------------------|------2----|
|---------------------|------0----|


     PM-----------------------------------------------
     E  E E E  E  E  E  E    E   E  E  E  E  E  E  E
||------------------------|--------------------------|
||o-----------------------|--------------------------|
||------------------12-12-|-11--11-------------------|
||--14-14-9-9-14-14-------|--------12-12-14-14-12-12-|
||o-----------------------|--------------------------|
||------------------------|--------------------------|
|
|                                               PM
|    W                       H.                 Q
||------------------------|--------------------------|
||o-----------------------|--------------------------|
||------------------------|--7-----------------------|
||---2--------------------|--7-----------------------|
||o--2--------------------|--5------------------0----|
||---0--------------------|---------------------0----|


 ---------------------------------------------|
   E  E E E  E  E E E    E   E  E  E  E  E  E  E
|---------------------|----------------------------||
|---------------------|---------------------------o||
|---------------------|----------------------------||
|-14-14-9-9-14-14-9-9-|-12--12-------12-12---------||
|---------------------|--------10-10-------10-10--o||
|---------------------|----------------------------||
|
|  W                    +H            H
|---------------------|----------------------------||
|---------------------|---------------------------o||
|--5------------------|-(5)-----------7------------||
|--5------------------|-(5)-----------7------------||
|--3------------------|-(3)-----------5-----------o||
|---------------------|----------------------------||


   PM-----------------------------------------------
   E  E E E  E  E  E  E    E   E  E  E  E  E  E  E
|-----------------------|--------------------------|
|-----------------------|--------------------------|
|-----------------12-12-|-11--11-------------------|
|-14-14-9-9-14-14-------|--------12-12-14-14-12-12-|
|-----------------------|--------------------------|
|-----------------------|--------------------------|
|
|                                             PM
|  W                       H.                 Q
|-----------------------|--------------------------|
|-----------------------|--------------------------|
|-----------------------|--7-----------------------|
|--2--------------------|--7-----------------------|
|--2--------------------|--5------------------0----|
|--0--------------------|---------------------0----|
|
| Gtr III
|  W                       H.                 Q
|-----------------------|--------------------------|
|-----------------------|--------------------------|
|-12--------------------|-11-----------------------|
|-----------------------|--------------------------|
|-10--------------------|--9------------------0----|
|-----------------------|---------------------0----|


 ---------------------------------------------|
   E  E E E  E  E E E    E   E  E  E  E  E  E  E
|---------------------|--------------------------|
|---------------------|--------------------------|
|---------------------|--------------------------|
|-14-14-9-9-14-14-9-9-|-12--12-------12-12-------|
|---------------------|--------10-10-------10-10-|
|---------------------|--------------------------|
|
|                               PM---------|
|  W                    +Q      Q     Q     Q
|---------------------|--------------------------|
|---------------------|--------------------------|
|--5------------------|-(5)----------------------|
|--5------------------|-(5)-----4-----5-----7----|
|--3------------------|-(3)-----2-----3-----5----|
|---------------------|---------2-----3-----5----|
|
|  H         H           H            H
|---------------------|--------------------------|
|------------8--------|--7-----------------------|
|--9------------------|---------------7----------|
|---------------------|--------------------------|
|--7------------------|--------------------------|
|---------------------|--------------------------|


   PM-----------------------------------------------
   E  E E E  E  E  E  E    E   E  E  E  E  E  E  E
|-----------------------|--------------------------|
|-----------------------|--------------------------|
|-----------------12-12-|-11--11-------------------|
|-14-14-9-9-14-14-------|--------12-12-14-14-12-12-|
|-----------------------|--------------------------|
|-----------------------|--------------------------|
|
|                                             PM
|  W                       H.                 Q
|-----------------------|--------------------------|
|-----------------------|--------------------------|
|-----------------------|--------------------------|
|--2--------------------|--4-----------------------|
|--2--------------------|--5------------------0----|
|--0--------------------|--2------------------0----|
|
|                                             PM
|  W                       H.                 Q
|-----------------------|--------------------------|
|-----------------------|--------------------------|
|--4--------------------|-11-----------------------|
|-----------------------|--9-----------------------|
|-----------------------|--9------------------0----|
|-----------------------|---------------------0----|


 ---------------------------------------------|
   E  E E E  E  E E E    E   E  E  E  E  E  E  E
|---------------------|--------------------------|
|---------------------|--------------------------|
|---------------------|--------------------------|
|-14-14-9-9-14-14-9-9-|-12--12-------12-12-------|
|---------------------|--------10-10-------10-10-|
|---------------------|--------------------------|
|
|                               PM---------|
|  W                    +Q      Q     Q     Q
|---------------------|--------------------------|
|---------------------|--------------------------|
|--5------------------|-(5)----------------------|
|--5------------------|-(5)-----4-----5-----7----|
|--3------------------|-(3)-----2-----3-----5----|
|--3------------------|-(3)-----2-----3-----5----|
|
|                                     PM
|  H         H           H            H
|---------------------|--------------------------|
|---------------------|--------------------------|
|--9--------12--------|-11------------7----------|
|--9------------------|--------------------------|
|--7--------10--------|--9------------5----------|
|---------------------|--------------------------|


     PM-----------------------------------------------
     E  E E E  E  E  E  E    E   E  E  E  E  E  E  E
||------------------------|--------------------------|
||o-----------------------|--------------------------|
||------------------12-12-|-11--11-------------------|
||--14-14-9-9-14-14-------|--------12-12-14-14-12-12-|
||o-----------------------|--------------------------|
||------------------------|--------------------------|
|
|                                               PM
|    W                       H.                 Q
||------------------------|--------------------------|
||o-----------------------|--------------------------|
||------------------------|--7-----------------------|
||---2--------------------|--7-----------------------|
||o--2--------------------|--5------------------0----|
||---0--------------------|---------------------0----|


 ---------------------------------------------|
   E  E E E  E  E E E    E   E  E  E  E  E  E  E
|---------------------|----------------------------||
|---------------------|---------------------------o||
|---------------------|----------------------------||
|-14-14-9-9-14-14-9-9-|-12--12-------12-12---------||
|---------------------|--------10-10-------10-10--o||
|---------------------|----------------------------||
|
|  W                    +H            H
|---------------------|----------------------------||
|---------------------|---------------------------o||
|--5------------------|-(5)-----------7------------||
|--5------------------|-(5)-----------7------------||
|--3------------------|-(3)-----------5-----------o||
|---------------------|----------------------------||


   PM-----------------------------------------------
   E  E E E  E  E  E  E    E   E  E  E  E  E  E  E
|-----------------------|--------------------------|
|-----------------------|--------------------------|
|-----------------12-12-|-11--11-------------------|
|-14-14-9-9-14-14-------|--------12-12-14-14-12-12-|
|-----------------------|--------------------------|
|-----------------------|--------------------------|
|
|                                             PM
|  W                       H.                 Q
|-----------------------|--------------------------|
|-----------------------|--------------------------|
|-----------------------|--7-----------------------|
|--2--------------------|--7-----------------------|
|--2--------------------|--5------------------0----|
|--0--------------------|---------------------0----|
|
| Gtr III
|  W                       H.                 Q
|-----------------------|--------------------------|
|-----------------------|--------------------------|
|-12--------------------|-11-----------------------|
|-----------------------|--------------------------|
|-10--------------------|--9------------------0----|
|-----------------------|---------------------0----|


 ---------------------------------------------|
   E  E E E  E  E E E    E   E  E  E  E  E  E  E
|---------------------|--------------------------|
|---------------------|--------------------------|
|---------------------|--------------------------|
|-14-14-9-9-14-14-9-9-|-12--12-------12-12-------|
|---------------------|--------10-10-------10-10-|
|---------------------|--------------------------|
|
|                               PM---------|
|  W                    +Q      Q     Q     Q
|---------------------|--------------------------|
|---------------------|--------------------------|
|--5------------------|-(5)----------------------|
|--5------------------|-(5)-----4-----5-----7----|
|--3------------------|-(3)-----2-----3-----5----|
|---------------------|---------2-----3-----5----|
|
|  H         H           H            H
|---------------------|--------------------------|
|------------8--------|--7-----------------------|
|--9------------------|---------------7----------|
|---------------------|--------------------------|
|--7------------------|--------------------------|
|---------------------|--------------------------|


   PM-----------------------------------------------
   E  E E E  E  E  E  E    E   E  E  E  E  E  E  E
|-----------------------|--------------------------|
|-----------------------|--------------------------|
|-----------------12-12-|-11--11-------------------|
|-14-14-9-9-14-14-------|--------12-12-14-14-12-12-|
|-----------------------|--------------------------|
|-----------------------|--------------------------|
|
|                                             PM
|  W                       H.                 Q
|-----------------------|--------------------------|
|-----------------------|--------------------------|
|-----------------------|--------------------------|
|--2--------------------|--4-----------------------|
|--2--------------------|--5------------------0----|
|--0--------------------|--2------------------0----|
|
|                                             PM
|  W                       H.                 Q
|-----------------------|--------------------------|
|-----------------------|--------------------------|
|--4--------------------|-11-----------------------|
|-----------------------|--9-----------------------|
|-----------------------|--9------------------0----|
|-----------------------|---------------------0----|


 ---------------------------------------------|
   E  E E E  E  E E E    E   E  E  E  E  E  E  E
|---------------------|--------------------------|
|---------------------|--------------------------|
|---------------------|--------------------------|
|-14-14-9-9-14-14-9-9-|-12--12-------12-12-------|
|---------------------|--------10-10-------10-10-|
|---------------------|--------------------------|
|
|                               PM---------|
|  W                    +Q      Q     Q     Q
|---------------------|--------------------------|
|---------------------|--------------------------|
|--5------------------|-(5)----------------------|
|--5------------------|-(5)-----4-----5-----7----|
|--3------------------|-(3)-----2-----3-----5----|
|--3------------------|-(3)-----2-----3-----5----|
|
|  H         H           H            H
|---------------------|--------------------------|
|---------------------|--------------------------|
|--9--------12--------|-11------------7----------|
|--9------------------|--------------------------|
|--7--------10--------|--9------------5----------|
|---------------------|--------------------------|


||||OUTRO||||

  Q  Q  Q  Q    H.      Q    W          W
|-------------|------------|----------|------*|
|-------------|------------|----------|------*|
|-------------|------------|----------|------*|
|-4--5--4--7--|-9\---------|----------|------*|
|-2--3--2--5--|-7----------|----------|------*|
|-------------|------------|----------|------*|
|
| Q  Q  Q  Q    H.      Q    W          W
|-------------|------------|----------|------*|
|-------------|------------|----------|------*|
|-------------|------------|----------|------*|
|-4--5--4--2--|-9\---------|----------|------*|
|-2--3--2--0--|-7----------|----------|------*|
|-------------|------------|----------|------*|




============================================================================
3-Undone
============================================================================

Gtr I (Db Gb B E Ab Db) - 'Untitled'
Gtr II (Db Gb B E Ab Db) - 'Untitled'


Intro:
  Q=192
  Gtrs I, II
  E   +E  E E E E E E E
|---|----------------------|
|---|----------------------|
|---|----------------------|
|-5-|-(5)-7-5-4------------|
|-3-|-(3)-5-3-2-5-7-5-2----|
|---|-----------3-5-3-0----|


        PM  PM  PM------|         PM|     PM|   PM  PM------|       PM
    +E  E E E E E E E   E E E E E E E E   E E E E E E E E   E E E E E E E E
||--------------------|-----------------|-----------------|------------------|
||o-------------------|-----------------|-----------------|------------------|
||--------------------|-----7-9---------|-----------------|-----4-5-----7-9--|
||--------5---4-------|---5-----7-----5-|-----5---4-------|---5-------7------|
||o-(2)-----------7-5-|-3---------5-3---|-------------7-5-|-3-------5--------|
||--(0)-0---0---0-----|-----------------|-0-0---0---0-----|------------------|


  PM|   PM  PM------|         PM|     PM|   PM  PM|
  E E E E E E E E   E E E E E E E E   E E E E E E E E   +E  E E E E E E E
|-----------------|-----------------|-----------------|--------------------||
|-----------------|-----------------|-----------------|-------------------o||
|-----------------|-----7-9---------|-----------------|--------------------||
|-----5---4-------|---5-----7-----5-|-----5---4-----5-|-(5)-7-5-4----------||
|-------------7-5-|-3---------5-3---|---------------3-|-(3)-5-3-2-5-7-5-2-o||
|-0-0---0---0-----|-----------------|-0-0---0---0-0---|-----------3-5-3-0--||


Verse:
  $
  Gtr I
       PM--|               PM------|          PM--|               PM------|
  +Q   S S E H         Q   E E E E E E   +Q   S S E H         Q   E E E E E E
|--------------------|-----------------|--------------------|-----------------|
|--------------------|-----------------|--------------------|-----------------|
|--------------------|-----------------|--------------------|-----------------|
|--------------------|-----------------|--------------------|---------------9-|
|-(2)----------------|---------------5-|-(5)----------------|---------------7-|
|-(0)--0-0-0---------|-----0-0-0-0-0-3-|-(3)--0-0-0---------|-----0-0-0-0-0---|
|
| Gtr II
|      PM----|   PM    PM  PM------|          PM----|   PM    PM  PM------|
| +Q   S S E E E E E   E E E E E E E E   +Q   S S E E E E E   E E E E E E E E
|--------------------|-----------------|--------------------|-----------------|
|--------------------|-----------------|--------------------|-----------------|
|--------------------|-----------------|--------------------|-----------------|
|--------------5---4-|-----------------|--------------5---4-|---------------9-|
|-(2)----------------|---7-----------5-|-(5)----------------|---7-----------7-|
|-(0)--0-0-0-0---0---|-0---0-0-0-0-0-3-|-(3)--0-0-0-0---0---|-0---0-0-0-0-0---|


       PM--|               PM------|
  +Q   S S E H         Q   E E E E E E   +H..       E   +E  E E E E E E E
|--------------------|-----------------|--------------|--------------------|
|--------------------|-----------------|--------------|--------------------|
|--------------------|-----------------|--------------|--------------------|
|-(9)----------------|---------------5-|-(5)--------4-|-(4)-5-4-2----------|
|-(7)----------------|---------------3-|-(3)--------2-|-(2)-3-2-0-5-7-5-2--|
|------0-0-0---------|-----0-0-0-0-0---|--------------|-----------3-5-3-0--|
|
|      PM----|   PM    PM  PM------|
| +Q   S S E E E E E   E E E E E E E E   +H..       E   +E  E E E E E E E
|--------------------|-----------------|--------------|--------------------|
|--------------------|-----------------|--------------|--------------------|
|--------------------|-----------------|--------------|--------------------|
|-(9)----------5---4-|---------------5-|-(5)--------4-|-(4)-5-4-2----------|
|-(7)----------------|---7-----------3-|-(3)--------2-|-(2)-3-2-0-5-7-5-2--|
|------0-0-0-0---0---|-0---0-0-0-0-0---|--------------|-----------3-5-3-0--|


       PM--|                PM------|
  +Q   S S E H         Q    E E E E E E
|--------------------|------------------|
|--------------------|------------------|
|--------------------|------------------|
|--------------------|----------------5-|
|-(2)----------------|----------------3-|
|-(0)--0-0-0---------|------0-0-3-5-3---|
|
|      PM----|   PM    PM   PM------|
| +Q   S S E E E E E   E  E E E E E E E
|--------------------|------------------|
|--------------------|------------------|
|--------------------|------------------|
|--------------9---7-|----------------5-|
|-(2)----------------|---10-----------3-|
|-(0)--0-0-0-0---0---|-0----0-0-3-5-3---|


       PM--|                PM------|
  +Q   S S E H         Q    E E E E E E
|--------------------|------------------|
|--------------------|------------------|
|--------------------|------------------|
|-(5)----------------|------------------|
|-(3)----------------|----------------5-|
|------0-0-0---------|------0-0-2-3-2-3-|
|
|      PM----|   PM    PM   PM------|
| +Q   S S E E E E E   E  E E E E E E E
|--------------------|------------------|
|--------------------|------------------|
|--------------------|------------------|
|-(5)----------9---7-|------------------|
|-(3)----------------|---10-----------5-|
|------0-0-0-0---0---|-0----0-0-2-3-2-3-|


       PM--|                PM------|
  +Q   S S E H         Q    E E E E E E   +H..       E   +E  E E E E E E E
|--------------------|------------------|--------------|--------------------|
|--------------------|------------------|--------------|--------------------|
|--------------------|------------------|--------------|--------------------|
|--------------------|----------------4-|-(4)--------4-|-(4)-5-4-2----------|
|-(5)----------------|----------------2-|-(2)--------2-|-(2)-3-2-0-5-7-5-2--|
|-(3)--0-0-0---------|------0-0-2-3-2---|--------------|-----------3-5-3-0--|
|
|      PM----|              PM------|
| +Q   S S E E E E E   E  E E E E E E E   +H..       E   +E  E E E E E E E
|--------------------|------------------|--------------|--------------------|
|--------------------|------------------|--------------|--------------------|
|--------------------|------------------|--------------|--------------------|
|--------------9---7-|----------------4-|-(4)--------4-|-(4)-5-4-2----------|
|-(5)----------------|---10-----------2-|-(2)--------2-|-(2)-3-2-0-5-7-5-2--|
|-(3)--0-0-0-0---0---|-0----0-0-2-3-2---|--------------|-----------3-5-3-0--|


Chorus:
        PM            PM|               PM   PM
    +E  E  E  E  E  E E E    E  E  E  E E  E E  E
||------------------------|-----------------------|
||o-----------------------|-----------------------|
||---------9--9--9--9-----|--9--9--9--9----7----9-|
||---------9--9--9--9-----|--9--9--9--9----7----9-|
||o-(2)----7--7--7--7-----|--7--7--7--7----5----7-|
||--(0)-0-------------0-0-|-------------0----0----|
|
|       PM            PM|               PM   PM
|   +E  E  E  E  E  E E E    E  E  E  E E  E E  E
||------------------------|-----------------------|
||o-----------------------|-----------------------|
||--------12-12-12-12-----|-12-12-12-12---11---12-|
||--------12-12-12-12-----|-12-12-12-12---11---12-|
||o-(2)---10-10-10-10-----|-10-10-10-10----9---10-|
||--(0)-0-------------0-0-|-------------0----0----|


  PM|             PM|               PM   PM
  E E  E  E  E  E E E    E  E  E  E E  E E E
|---------------------|-----------------------|
|---------------------|-----------------------|
|------9--9--9--9-----|--9--9--9--9----7---5--|
|------9--9--9--9-----|--9--9--9--9----7---5--|
|------7--7--7--7-----|--7--7--7--7----5---3--|
|-0-0-------------0-0-|-------------0----0----|
|
| PM|             PM|               PM   PM
| E E  E  E  E  E E E    E  E  E  E E  E E E
|---------------------|-----------------------|
|---------------------|-----------------------|
|-----12-12-12-12-----|-12-12-12-12---11---5--|
|-----12-12-12-12-----|-12-12-12-12---11---5--|
|-----10-10-10-10-----|-10-10-10-10----9---3--|
|-0-0-------------0-0-|-------------0----0----|


  1.
  +E  E E E E E E E   +E  E E E E E E E
|-------------------|-------------------|
|-------------------|-------------------|
|-(5)-5-5-5-5-----4-|-(4)-4-4-4-4-------|
|-(5)-5-5-5-5-5---4-|-(4)-4-4-4-4-4-----|
|-(3)-3-3-3-3-3---2-|-(2)-2-2-2-2-2---2-|
|-------------------|-----------------0-|
|
| +E  E E E E E E E   +E  E E E E E E E
|-------------------|-------------------|
|-------------------|-------------------|
|-(5)-5-5-5-5-----4-|-(4)-4-4-4-4-------|
|-(5)-5-5-5-5-5---4-|-(4)-4-4-4-4-4-----|
|-(3)-3-3-3-3-3---2-|-(2)-2-2-2-2-2---2-|
|-------------------|-----------------0-|


      PM----------------|     PM|
  +E  E E E E E E E   E E E E E E E E
|-------------------|------------------||
|-------------------|-----------------o||
|-------------------|-----4-5-----7-9--||
|-------------------|---5-------7------||
|-(2)-2-2-2-2-2-2-2-|-3-------5-------o||
|-(0)-0-0-0-0-0-0-0-|------------------||
|
|     PM----------------|     PM|
| +E  E E E E E E E   E E E E E E E E
|-------------------|------------------||
|-------------------|-----------------o||
|-------------------|-----4-5-----7-9--||
|-------------------|---5-------7------||
|-(2)-2-2-2-2-2-2-2-|-3-------5-------o||
|-(0)-0-0-0-0-0-0-0-|------------------||


  2.
        PM    PM                     PM    PM
    E   E  E  E  S  S  E  E E   +E   E  E  E  S  S  E  E E
|-----------------------------|----------------------------|
|-----------------------------|----------------------------|
|---------12----11-12-11------|--------12----11-12-11------|
|------12----12----------12---|-----12----12----------12---|
|-(10)----------------------9-|-(9)----------------------2-|
|--(8)----------------------7-|-(7)----------------------0-|
|
|       PM    PM                     PM    PM
|   E   E  E  E  S  S  E  E E   +E   E  E  E  S  S  E  E E
|-----------------------------|----------------------------|
|-----------------------------|----------------------------|
|----------9-----7--9--7------|---------9-----7--9--7------|
|-------9-----9-----------9---|------9-----9-----------9---|
|-(10)----------------------9-|-(9)----------------------2-|
|--(8)----------------------7-|-(7)----------------------0-|


                                                    D.S.
       PM    PM                     PM    PM
  +E   E  E  E  S  S  E  E E   +E   E  E  E  S  S  E  E E
|----------------------------|----------------------------|
|----------------------------|----------------------------|
|--------12----11-12-11------|--------12----11-12-11------|
|-----12----12----------12---|-----12----12----------12---|
|-(2)----------------------2-|-(2)----------------------2-|
|-(0)----------------------0-|-(0)----------------------0-|
|
|      PM    PM                     PM    PM
| +E   E  E  E  S  S  E  E E   +E   E  E  E  S  S  E  E E
|----------------------------|----------------------------|
|----------------------------|----------------------------|
|---------9-----7--9--7------|---------9-----7--9--7------|
|------9-----9-----------9---|------9-----9-----------9---|
|-(2)----------------------2-|-(2)----------------------2-|
|-(0)----------------------0-|-(0)----------------------0-|

Then play the verse and chorus again,

Then intro again, but altered:
      Gtr I
      PM  PM  PM------|         PM|     PM|   PM  PM------|       PM
  +E  E E E E E E E   E E E E E E E E   E E E E E E E E   E E E E E E E E
|-------------------|-----------------|-----------------|-------------------|
|-------------------|-----------------|-----------------|-------------------|
|-------------------|-----7-9---------|-----------------|-----4-5-----7-9---|
|-------5---4-------|---5-----7-----5-|-----5---4-------|---5-------7-------|
|-(2)-----------7-5-|-3---------5-3---|-------------7-5-|-3-------5---------|
|-(0)-0---0---0-----|-----------------|-0-0---0---0-----|-------------------|
|
| Gtr II
|     PM  PM  PM------|         PM|     PM|   PM  PM------|       PM
| +E  E E E E E E E   E E E E E E E E   E E E E E E E E   E E E E E E E E
|-------------------|-----------------|-----------------|-------------------|
|-------------------|-----------------|-----------------|-------------------|
|-------------------|-----7-9---------|-----------------|-----4-5-----7-9---|
|-------5---4-------|---5-----7-----5-|-----5---4-------|---5-------7-------|
|-(2)-----------7-5-|-3---------5-3---|-------------7-5-|-3-------5---------|
|-(0)-0---0---0-----|-----------------|-0-0---0---0-----|-------------------|


  PM|   PM  PM------|         PM|     PM|   PM    PM|     PM  PM    PM
  E E E E E E E E   E E E E E E E E   E E E E E E E E   E E E E E E E  E
|-----------------|-----------------|-----------------|------------------|
|-----------------|-----------------|-----------------|------------------|
|-----------------|-----7-9---------|-----------------|----------------9-|
|-----5---4-------|---5-----7-----5-|-----5---5-4-----|-5---5---5-4------|
|-------------7-5-|-3---------5-3---|-----------------|----------------7-|
|-0-0---0---0-----|-----------------|-0-0---0-----0-0-|---0---0-----0----|
|
| PM|   PM  PM------|         PM|     PM|   PM    PM|     PM  PM    PM
| E E E E E E E E   E E E E E E E E   E E E E E E E E   E E E E E E E  E
|-----------------|-----------------|-----------------|------------------|
|-----------------|-----------------|-----------------|------------------|
|-----------------|-----7-9---------|-----------------|---------------12-|
|-----5---4-------|---5-----7-----5-|-----9---9-7-----|-9---9---9-7------|
|-------------7-5-|-3---------5-3---|-----------------|---------------10-|
|-0-0---0---0-----|-----------------|-0-0---0-----0-0-|---0---0-----0----|


   +H     E E Q    Q  E E E Q.
|----------------|---------------|----|
|----------------|---------------|----|
|--(9)-----------|---------------|----|
|----------------|----------4----|----|
|--(7)----2------|----------2----|----|
|---------0------|----0-0-0------|----|
|
|  +H     E E Q    Q  E E E Q.
|----------------|---------------|----|
|----------------|---------------|----|
|-(12)-----------|---------------|----|
|----------------|----------4----|----|
|-(10)----2------|----------2----|----|
|---------0------|----0-0-0------|----|


Solo: (not finished)
   Q.    E  E  E  E  E    Q.    E  E  E  S  S  E
|----------------------|-------------------------|
|----------------------|-------------------------|
|-12-------12-14-16-14-|-11-------11-12-14p12-11-|
|-------14-------------|-------12----------------|
|----------------------|-------------------------|
|----------------------|-------------------------|
|
|  W                      W
|----------------------|-------------------------|
|----------------------|-------------------------|
|----------------------|-------------------------|
|--5-------------------|--7----------------------|
|--3-------------------|--5----------------------|
|----------------------|-------------------------|


                |--3--|    |-3--|  |-3--|  |-3--| |-3--|
   Q.   E  E E  E  E  E    E  E E  E  E E  E E  E E  E E
|-----------------------|--------------------------------|
|-----------------------|--------------------------------|
|-[9]--------9-11-12-11-|--9-11-9------------------------|
|-------9-12------------|---------12-10-9-10-9---------9-|
|-----------------------|----------------------12-7-10---|
|-----------------------|--------------------------------|
|
|  W                       W
|-----------------------|--------------------------------|
|-----------------------|--------------------------------|
|-----------------------|--------------------------------|
|-----------------------|-12-----------------------------|
|--2--------------------|-10-----------------------------|
|--0--------------------|--0-----------------------------|


   |-3--| |-3--| |-3--| |--3--|    |-3--|  |--3--|  |--3--|  |--3--|
   E  E E E  E E E  E E E  E  E    E E  E  E  E  E  E  E  E  E  E  E
|-------------------------------|------------------------------------|
|-------------------------------|------------------------------------|
|---------------------7-9-11-12-|-11-9----12-11----14-12-11-14-16-17-|
|-10-----------7-9-10-----------|------12-------14-------------------|
|----10-7-9-10------------------|------------------------------------|
|-------------------------------|------------------------------------|
|
|  W                               W
|-------------------------------|------------------------------------|
|-------------------------------|------------------------------------|
|-------------------------------|------------------------------------|
|--5----------------------------|--4---------------------------------|
|--3----------------------------|--2---------------------------------|
|--3----------------------------|--2---------------------------------|


                            |--3--|  |--3--|   |--3--|  |--3--|
   H        +E   E  E  E    E  E  E  E  E  E   E  E  E  E  E  E
|------------------------|-------------17-19-----------15-17-19-|
|------------------17-19-|-20-19-17-20--------17-19-20----------|
|-16-------(16)-16-------|--------------------------------------|
|------------------------|--------------------------------------|
|------------------------|--------------------------------------|
|------------------------|--------------------------------------|
|
|  E E H.                   Q     E  E  E  Q.
|------------------------|--------------------------------------|
|------------------------|--------------------------------------|
|------------------------|--------------------------------------|
|------------------------|-----------------4--------------------|
|--2---------------------|-----------------2--------------------|
|--0---------------------|--------0--0--0-----------------------|


   H
|-20--------|----------|----------|-------|
|-----------|----------|----------|-------|
|-----------|----------|----------|-------|
|-----------|----------|----------|-------|
|-----------|----------|----------|-------|
|-----------|----------|----------|-------|
|
|  W          W          W           W
|-----------|----------|----------|-------|
|-----------|----------|----------|-------|
|-----------|----------|----------|-------|
|--5--------|-7--------|----------|-12----|
|--3--------|-5--------|-2--------|-10----|
|-----------|----------|-0--------|--0----|


|----------|----------|-------------|---------------|
|----------|----------|-------------|---------------|
|----------|----------|-------------|---------------|
|----------|----------|-------------|---------------|
|----------|----------|-------------|---------------|
|----------|----------|-------------|---------------|
|
| W          W          E E H.        Q  E E E Q.
|----------|----------|-------------|---------------|
|----------|----------|-------------|---------------|
|----------|----------|-------------|---------------|
|-5--------|-4--------|-------------|----------4----|
|-3--------|-2--------|-2-----------|----------2----|
|-3--------|-2--------|-0-----------|----0-0-0------|





============================================================================
4-Forever In Your Hands
============================================================================

Forever In Your Hands-Acoustic
All That Remains
Tuning- C# F# B E G# C#
Gtr 1-panned left
Gtr 2-panned right

Verse (one guitar plays this and another plays same thing string up using open notes)
|-------------------------------------------------------------------------------|
|-----5---------5---------5----------5--------5--------5--------12---------9----|
|----5—5-------5-5------5--5--------5--5-----5-5------5-5------12-12------9-9---|
|---7----7----7---7----7-----7-----7----7---7---7----7---7----12---12----9---9--|
|--7------7--7-----7--8--------8--8------8-5------5-5-----5--10-----10--7-----7-|
|-5---------5-------5------------5--------5--------5-------10---------7---------|
Then same chords but strumming not arpeggios

Pre-chorus  Gtr 2 stops, Gtr 1 plays this
|-------------------5-7-8-7-------|
|-------------5---5---------8~----|
|------5----5----5----------------|
|----7----7-----7-----------------|
|---7----8------------------------|
|-5-------------------------------|

Chorus  Gtr 1 first repeat holds out prechorus note and comes in on second chord. Below
second repeat.                †first time starts here
|------------------------------------------------------------------------|
|----8--------8-------8--------8----8----8---8---8----8---8--8--8—8------|
|---5-5------5-5-----5--5-----5-5----5----5---5---5----7---7--7—7---7----|
|--7---7----7---7---7----7---7---7----7----7---7----7---7---7--7--7--7---|
|-7------7-7-----7-8------8-8-----8----8----8---8----8----------------8--|
|5--------5-------5--------5---------------------------------------------|

Chorus Gtr 2
|-0---000000-0---00000-0---00000-0---0000000-|
|-1---111111-1---11111-0---00000-0---0000000-|
|-2---222222-2---00000-7---77777-4---4444444-|
|-3---222222-0---22222-5---55555-2---2222222-|
|-0---000000-0---33333-0---00000-0---0000000-|
|--------------------------------------------|

|-0---000000-0---00000-00000000000000000000005555555555-|
|-1---111111-1---11111-00000000000000008888888888888888-|
|-2---222222-2---00000-77777777777777777777777777777777-|
|-3---222222-0---22222-55555555555555555555555555555555-|
|-0---000000-0---33333-00000000000000000000005555555555-|
|-------------------------------------------------------|

Transition Rythem
|---------------------|
|---------------------|
|---------------------|
|-7---10--9---12---55-|
|-7---10--9---12---55-|
|-5---8---7---10---33-|


Transition Lead
|---------------------------8-7--------8-7----------|
|---------5---5-8-10-8~5-5--------5-5-------10-8----|
|----5---5--5-----------5-5------5-5-5--------------|
|---7---7--7----------------------------------------|
|--7---8--------------------------------------------|
|-5-------------------------------------------------|


Solo (left guitar)
|---------------------------------------5-3~/8-7~/12-10~~~19~~15-15-17~--------------|
|-------------------------------------5-----------------------17-17-17~--------------|
|-79~~5-7-9~7-5-7~5-4-5-4-4~-5-4-----------------------------------------------------|
|------------------------7-------3-5~------------------------------------------------|
|------------------------------------------------------------------------------------|
|------------------------------------------------------------------------------------|

|-7-7--8~----------------8~8-7---10--12--10~~17-12----------------------------------|
|-8-8--8~----5—5-6-5-6-8-8~8-7---10--12--10~~-----15-12---------------5-5-6-6/8-----|
|--------5-7-—7----------------------------------------14-12-79-7~-5-7-7------------|
|-----------------------------------------------------------------------------------|
|-----------------------------------------------------------------------------------|
|-----------------------------------------------------------------------------------|

Post Solo Transition
|--------------7-8-7-------------5-------------------7--8-7-5~~10/12\10~12-10-8-7-5~~---|
|---------5---5-----8~~-----5-6-8-8-6-5----------5--5-----------------------------------|
|----5---5---5-----------5-7----------------5---5--5------------------------------------|
|---7---7---7------------------------------7---7--7-------------------------------------|
|--7---8----------------------------------7---8-----------------------------------------|
|-5--------------------------------------5----------------------------------------------|


Order:
Verse x2 arpeggios
Verse x1 chords
Prechorus
Chorus (Gtr 1 x2 .Gtr 2 x1)
Transition (x4 Gtr 1) (x2 Gtr 2)
Verse x1 arpeggios
Verse x1 chords
Prechorus
Chorus (Gtr 1 x2 . Gtr 2 x1)
Transition x4 (both play tranition rythem)
Solo (while Gtr 2 plays transition rythem)
Post Solo Transition (Gtr 1)      Gtr 2 plays transition lead x2
Chorus (Gtr 1 x2 . Gtr 2 x1)
Verse Chords x2




============================================================================
5-Chiron
============================================================================

-------------------------------------------------------------------------------
			     Chiron - All That Remains
-------------------------------------------------------------------------------
Tabbed by: cleptobismal
Email: cleptobismal@hotmail.com

Tuning:  Sorry, it's not Drop D, it's Db Standard

Db-Gb-B-E-Ab-Db

Intro:


|----------------------------------------------/12-11~----------------------|
|-----------------/12-12-12-10-8-10~-10-12-13~---------/13-12-10------------|
|--/9~-9-11b12r11------------------------------------------------12-11~-----|
|---------------------------------------------------------------------------|
|---------------------------------------------------------------------------|
|---------------------------------------------------------------------------|
|
|---------------------------------------------------------------------------|
|---------------------------------------------------------------------------|
|---------------------------------------------------------------------------|
|--2----------4-------4----------2--------2-----2--4-------9----------------|
|--2----------2-------2----------0----0-0-0-----0--2-------6----------------|
|--0---0-3-0----------------------------------------------------------------|

|-----------------------------------------------/12--11~--------------------|
|--/8~-8-10b12r10-/12-10b12r10-8-10~-10-12-13~------------/13-12-10---------|
|-------------------------------------------------------------------12-11~--|
|---------------------------------------------------------------------------|
|---------------------------------------------------------------------------|
|---------------------------------------------------------------------------|
|
|---------------------------------------------------------------------------|
|---------------------------------------------------------------------------|
|--/9~-9-11b12r12-/8-----------------------9~--11b12-11~--/9--8--9--9--8~---|
|---------------------10b12r10-9-10~-10-12----------------------------------|
|---------------------------------------------------------------------------|
|---------------------------------------------------------------------------|

Verse:

|---------------------------------------------------------------------------|
|---------------------------------------------------------------------------|
|---------------------------------------------------------------------------|
|-------------------------------------------9---10---9---7------------------|
|--7-----10-----9-7-------------------6------------------------10p9---------|
|----000----(0)-----0-000-000-000-000---0-0---0----0---0---0-0------0-0-----|
|
|---------------------------------------------------------------------------|
|---------------------------------------------------------------------------|
|---------------------------------------------------------------------------|
|---------------------------------------------------------------------------|
|---------------------------------------------------------------------------|
|---------------------------------------------------------------------------|

|---------------------------------------------------------------------------|
|---------------------------------------------------------------------------|
|---------------------------------------------------------------------------|
|--------10---9p7----------------10--10------9------------------------------|
|--------------------------------8---8--7----6------------------------------|
|--8-888----8-----8-888---8-8-8-----------8--7---7-3-2----------------------|
|
|---------------------------------------------------------------------------|
|---------------------------------------------------------------------------|
|--------9----7p5-----------------------------------------------------------|
|--7-777----------7-777----------5-----------1------------------------------|
|-------------------------3-3-3--3-----------2---2--------------------------|
|--------------------------------------------------3-2----------------------|

|---------------------------------------------------------------------------|
|---------------------------------------------------------------------------|
|---------------------------------------------------------------------------|
|-------------------------------------------9---10---9---7------------------|
|--------10-----9p7-------------------6------------------------10p9---------|
|--0-000----(0)-----0-000-000-000-000---0-0---0----0---0---0-0--------------|
|
|---------------------------------------------------------------------------|
|-------------------------------------------4---5----4----------------------|
|--0-000-4------2p0-0-000-000-000-000--------------------5------4\2---------|
|-------------------------------------4-444---4----4---4---4-4--------------|
|---------------------------------------------------------------------------|
|---------------------------------------------------------------------------|

|---------------------------------------------------------------------------|
|---------------------------------------------------------------------------|
|--2~-----------------------------------------------------------------------|
|--2~--10----------9--------------------------------------------------------|
|--0~--8---8--7----6--------------------------------------------------------|
|---------------8--7---7-3-2------------------------------------------------|
|
|---------------------------------------------------------------------------|
|---------------------------------------------------------------------------|
|--2~-----------------------------------------------------------------------|
|--2~--5-----------1--------------------------------------------------------|
|--0~--3-----------2---2----------------------------------------------------|
|------------------------3-2------------------------------------------------|

Chorus:

|---------------------------------------------------------------------------|
|---------------------------------------------------------------------------|
|---------------------------------------------------------------------------|
|--14-9-14-9-12-9-14-9-12-9-14-9-12-14-12-9---------------------------------|
|---------------------------------------------------------------------------|
|---------------------------------------------------------------------------|
|
|---------------------------------------------------------------------------|
|---------------------------------------------------------------------------|
|-----------------------------------------4---------------------------------|
|-----------------------------------------4---------------------------------|
|-----------------------------------------2---------------------------------|
|--000-0-0-0------------------0-0-0-0-0-------------------------------------|

|---------------------------------------------------------------------------|
|---------------------------------------------------------------------------|
|-------------------------12------------------------------------------------|
|--10-9-10-9-14-9-10-9-10----10-9-10-9----9---------------------------------|
|--------------------------------------12-----------------------------------|
|---------------------------------------------------------------------------|
|
|---------------------------------------------------------------------------|
|---------------------------------------------------------------------------|
|---------------------------------------5\4---------------------------------|
|---------------------------------------------------------------------------|
|---------------------------------------3\2---------------------------------|
|--000-0-0-0------------------0-0-0-----------------------------------------|

|---------------------------------------------------------------------------|
|---------------------------------------------------------------------------|
|------------9------------------9-------------------------------------------|
|-----9----9---9----9----9----9---9----9------------------------------------|
|--12---12-------12---12---12-------12--------------------------------------|
|---------------------------------------------------------------------------|
|
|---------------------------------------------------------------------------|
|---------------------------------------------------------------------------|
|---------------------------------------------------------------------------|
|-------------------------------------2~------------------------------------|
|--000-0-0-0--------------------0-0-0-0~------------------------------------|
|---------------------------------------------------------------------------|

|---------------------------------------------------------------------------|
|---------------------------------------------------------------------------|
|---------------------------------------------------------------------------|
|----9----9---9----9-----------9--------------------------------------------|
|--9--------9-----------9----9---9----9-------------------------------------|
|------11-------11---11---11-------11---------------------------------------|
|
|---------------------------------------------------------------------------|
|---------------------------------------------------------------------------|
|---------------------------------------------------------------------------|
|---------------------------------------------------------------------------|
|--222----222----222----222----2--2---2~------------------------------------|
|---------------------------------------------------------------------------|

|---------------------------------------------------------------------------|
|---------------------------------------------------------------------------|
|---------------------------------------------------------------------------|
|--14-9-14-9-12-9-14-9-12-9-14-9-12-14-12-9---------------------------------|
|---------------------------------------------------------------------------|
|---------------------------------------------------------------------------|
|
|---------------------------------------------------------------------------|
|---------------------------------------------------------------------------|
|-----------------------------------------4---------------------------------|
|-----------------------------------------4---------------------------------|
|-----------------------------------------2---------------------------------|
|--000-0-0-0------------------0-0-0-0-0-------------------------------------|

|---------------------------------------------------------------------------|
|---------------------------------------------------------------------------|
|-------------------------12------------------------------------------------|
|--10-9-10-9-14-9-10-9-10----10-9-10-9----9---------------------------------|
|--------------------------------------12-----------------------------------|
|---------------------------------------------------------------------------|
|
|---------------------------------------------------------------------------|
|---------------------------------------------------------------------------|
|---------------------------------------5\4---------------------------------|
|---------------------------------------------------------------------------|
|---------------------------------------3\2---------------------------------|
|--000-0-0-0------------------0-0-0-----------------------------------------|

|---------------------------------------------------------------------------|
|---------------------------------------------------------------------------|
|------------9------------------9-------------------------------------------|
|-----9----9---9----9----9----9---9----9------------------------------------|
|--12---12-------12---12---12-------12--------------------------------------|
|---------------------------------------------------------------------------|
|
|---------------------------------------------------------------------------|
|---------------------------------------------------------------------------|
|---------------------------------------------------------------------------|
|-------------------------------------2~------------------------------------|
|--000-0-0-0--------------------0-0-0-0~------------------------------------|
|---------------------------------------------------------------------------|

|---------------------------------------------------------------------------|
|---------------------------------------------------------------------------|
|---------------------------------------------------------------------------|
|----9----9---9----9-----------9--------------------------------------------|
|--9--------9-----------9----9---9----9-------------------------------------|
|------11-------11---11---11-------11---------------------------------------|
|
|---------------------------------------------------------------------------|
|---------------------------------------------------------------------------|
|---------------------------------------------------------------------------|
|------------------------------------4~-------------------------------------|
|--222-2-2-2---------------2-2-2-----2~-------------------------------------|
|---------------------------------------------------------------------------|

Verse Bridge 1:

|--15-0-0-14-0-0-12-0-0-15-0-0-14-0-12-0-15-0-0-14-0-0-12-0-0-15-0-0-14-0-12|
|---------------------------------------------------------------------------|
|---------------------------------------------------------------------------|
|---------------------------------------------------------------------------|
|---------------------------------------------------------------------------|
|---------------------------------------------------------------------------|
|
|---------------------------------------------------------------------------|
|---------------------------------------------------------------------------|
|---------------------------------------------------------------------------|
|--4-4---------------7-7---------------4-4------------------4/5------5/7----|
|--2-2--0-0-0-0-0-0--5-5---0-0-0-0-0-0-2-2---0-0-0-0-0-0----2/3--0-0-3/5-0-0|
|---------------------------------------------------------------------------|

|--17-0-0-15-0-0-14-0-0-17-0-0-15-0-17-0-19-0-0-17-0-0-15-0-14-0-0-15-0-0-17|
|---------------------------------------------------------------------------|
|---------------------------------------------------------------------------|
|---------------------------------------------------------------------------|
|---------------------------------------------------------------------------|
|---------------------------------------------------------------------------|
|
|---------------------------------------------------------------------------|
|---------------------------------------------------------------------------|
|---------------------------------------------------------------------------|
|-2---------------------2------------------4--------4--------4----------4~--|
|-0---0-0-0-0-0-0-------0---0-0-0-0-0-0----2-2-2-2--2-2-2-2--2-2-2-2----2~--|
|---------------------------------------------------------------------------|

Play Verse and Chorus again (one time each)

Verse Bridge 2:

|--15-0-0-14-0-0-12-0-0-15-0-0-14-0-12-0-15-0-0-14-0-0-12-0-0-15-0-0-14-0-12|
|---------------------------------------------------------------------------|
|---------------------------------------------------------------------------|
|---------------------------------------------------------------------------|
|---------------------------------------------------------------------------|
|---------------------------------------------------------------------------|
|
|---------------------------------------------------------------------------|
|---------------------------------------------------------------------------|
|---------------------------------------------------------------------------|
|--4-4---------------7-7---------------4-4------------------4/5------5/7----|
|--2-2--0-0-0-0-0-0--5-5---0-0-0-0-0-0-2-2---0-0-0-0-0-0----2/3--0-0-3/5-0-0|
|---------------------------------------------------------------------------|

|--17-0-0-15-0-0-14-0-0-17-0-0-15-0-17-0-19---------------------------------|
|---------------------------------------------------------------------------|
|---------------------------------------------------------------------------|
|-----------------------------------------------10-----4-----9------9---2~--|
|------------------------------------------------8-----2-----7------6---2~--|
|-----------------------------------------------------------------------0~--|
|
|---------------------------------------------------------------------------|
|---------------------------------------------------------------------------|
|---------------------------------------------------------------------------|
|-2---------------------2-----------------------10-----4-----9------9---2~--|
|-0---0-0-0-0-0-0-------0---0-0-0-0-0-0----------8-----2-----7------6---2~--|
|-----------------------------------------------------------------------0~--|

Acoustic Bridge:

|---------------------------------------------------------------------------|
|---------------------------------------------------------------------------|
|---------------------------------------------------------------------------|
|---------------------------------------------------------------------------|
|---------------------------------------------------------------------------|
|---------------------------------------------------------------------------|
|
|----------0~-------------------0~-------------------0~---------------------|
|------0--------------------0--------------------3-----------------5~-----4~|
|--------0--------------------0--------------------4---------------4~-----4~|
|----------------------------------------------5-------------------2~-----4~|
|----2--------------------2------------------3-------------------0------2---|
|--0--------------------2---------------------------------------------------|

|----------------------------------------------------8-7------7~-----8-7----|
|-------------7-8/10-7~------------7-8/10----------------8/10------------8-7|
|-----------------------------------------9~--------------------------------|
|---------------------------------------------------------------------------|
|---------------------------------------------------------------------------|
|---------------------------------------------------------------------------|
|
|----------0~-------------------0~-------------------0~---------------------|
|------0--------------------0--------------------3-----------------5~-----4~|
|--------0--------------------0--------------------4---------------4~-----4~|
|----------------------------------------------5-------------------2~-----4~|
|----2--------------------2------------------3-------------------0------2---|
|--0--------------------2---------------------------------------------------|

Distortion Bridge:

|---------------------------------------------------------------------------|
|---------------------------------------------------------------------------|
|------------------------9-7-5----------------5~----------------8-----------|
|-----5-7-9-------5-7-5~-------9-7-5------7-9---------------9-5---9---------|
|--7~-------9~--9--------------------9--7--------9-7-6--6-9-----------------|
|---------------------------------------------------------------------------|
|
|---------------------------------------------------------------------------|
|---------------------------------------------------------------------------|
|---------------------------------------------------------------8-----------|
|--5~-5-7-9-7~-----------10-9-7-----------------------------9-5---9---------|
|---------------5-7-9-7~--------10-9-7------------------6-9-----------------|
|--------------------------------------10-8~--------------------------------|

|---------------------------------------------------------------------------|
|---------------------------------------------------------------------------|
|------------------------9-7-5----------------5~----------------8-----------|
|-----5-7-9-------5-7-5~-------9-7-5------7-9---------------9-5---9---------|
|--7~-------9~--9--------------------9--7--------9-7-6--6-9-----------------|
|---------------------------------------------------------------------------|
|
|---------------------------------------------------------------------------|
|---------------------------------------------------------------------------|
|---------------------------------------------------------------8-----------|
|--5~-5-7-9-7~-----------10-9-7-----------------------------9-5---9---------|
|---------------5-7-9-7~--------10-9-7------------------6-9-----------------|
|--------------------------------------10-8~--------------------------------|

=====
Solo
=====

|-----------------------------------------------------14----14-15-14-15-17--|
|--------------------------------------17----17-16-17----17-----------------|
|-----------------14-16----16-14-16-17----17--------------------------------|
|--17-14-17-16-17-------17--------------------------------------------------|
|---------------------------------------------------------------------------|
|---------------------------------------------------------------------------|
|
|---------------------------------------------------------------------------|
|---------------------------------------------------------------------------|
|---------------------------------------------------------------------------|
|---------------------------------------------------------------------------|
|--2------------------2-----------------2--------------2--------------------|
|--0------------------0-----------------0--------------0---------0----------|

|--19p15--------------------15-17---19-17-15-17-15----15--------------------|
|-------17---------16-17-19------------------------19----19-17-19-17-15-----|
|---------16--16-17---------------------------------------------------------|
|-----------17--------------------------------------------------------------|
|---------------------------------------------------------------------------|
|---------------------------------------------------------------------------|
|
|---------------------------------------------------------------------------|
|---------------------------------------------------------------------------|
|---------------------------------------------------------------------------|
|---------------------------------------------------------------------------|
|--7\-----------------------------------------------------------------------|
|----------------0---0---0---0---0---0-----------------0---0---0---0---0----|

|--19-17-15-17-15----15---------------------------15-----17b19r17p15-17~----|
|-----------------19----19-17-19-17-16-17~--17-19----16~--------------------|
|---------------------------------------------------------------------------|
|---------------------------------------------------------------------------|
|---------------------------------------------------------------------------|
|---------------------------------------------------------------------------|
|
|---------------------------------------------------------------------------|
|---------------------------------------------------------------------------|
|---------------------------------------------------------------------------|
|---------------------------------------------------------------------5--4--|
|---------------------------------------------------------------------3--2--|
|-------------------------------8\-0-0-0-0-0-0-0-0-0-0-0-7\-0-0-0-0-0-------|

|--19-17-15-17-15----15-----------------------------------------------------|
|-----------------19----19-17-19-17-13-17-13-12-13-12----12-------16--------|
|-----------------------------------------------------14----14-12----12-11--|
|---------------------------------------------------------------------------|
|---------------------------------------------------------------------------|
|---------------------------------------------------------------------------|
|
|---------------------------------------------------------------------------|
|---------------------------------------------------------------------------|
|---------------------------------------------------------------------------|
|---------------------------------------------------------------------------|
|--7\-----------------------------------------------------------------------|
|----------------0---0---0---0---0---0-----------------0---0---0---0---0----|
|---------------------------------------------------------------------------|

|---------------------------------------------------------------------------|
|--12-11----11--------------------------------------------------------------|
|--------14----14-12-14-12-10-12-10-9-10-9----9---------------9-------------|
|------------------------------------------12---12-10----10-9---12-10-------|
|-----------------------------------------------------12--------------------|
|
|---------------------------------------------------------------------------|
|---------------------------------------------------------------------------|
|---------------------------------------------------------------------------|
|---------------------------------------------------------------------------|
|---------------------------------------------------------------------------|
|-------------------------------8\-0-0-0-0-0-0-0-0-0-0-0--------------------|

|---------------------------------------------------------------------------|
|-------12-10----12/16-13----------13-16b17r16~-----------------------------|
|--12-9-------12----------16-14-16------------------------------------------|
|---------------------------------------------------------------------------|
|---------------------------------------------------------------------------|
|---------------------------------------------------------------------------|
|
|---------------------------------------------------------------------------|
|---------------------------------------------------------------------------|
|---------------------------------------------------------------------------|
|----------------------------5---4------------------------------------------|
|----------------------------3---2------------------------------------------|
|--0--0--0--0--0------------------------------------------------------------|

|---------------------------------------------------------------------------|
|---------------------------------------------------------------------------|
|-----------9h11h12----------11h12h14----------12h14h16---------------------|
|---------------------------------------------------------------------------|
|--10h12h14---------12h14h15----------14h15h17------------------------------|
|---------------------------------------------------------------------------|
|
|---------------------------------------------------------------------------|
|------------8h10h12----------10h12h13----------12h13h15--------------------|
|---------------------------------------------------------------------------|
|---9h10h12----------10h12h14----------12h14h15-----------------------------|
|---------------------------------------------------------------------------|
|---------------------------------------------------------------------------|

|--/15~--------------15---17---19--14~-------------------------14-15--------|
|---------------------------------------------------------------------------|
|---------------------------------------------------------------------------|
|---------------------------------------------------------------------------|
|---------------------------------------------------------------------------|
|---------------------------------------------------------------------------|
|
|------------------------------------------------11-------------------------|
|----------------17----------------------------12--12--12--12--12-----------|
|--------------16--16--16------------11------11------11------11-------------|
|---------14-17------17--14-16-17-14---13--13------------13------13-9-------|
|-------14-------------------------------14---------------------------------|
|--12-15--------------------------------------------------------------------|

|--17--15b17r15p14----------15-14-12-----------------------12---------------|
|-------------------/17~-------------15-13-12--------13-15------------------|
|---------------------------------------------14-12-----------14-12-11------|
|---------------------------------------------------------------------------|
|---------------------------------------------------------------------------|
|---------------------------------------------------------------------------|
|
|----------------------10---------------------------------------------------|
|----------------------------17-15-13-----------------------13--------------|
|--12-9-------------------------------16-14-12--------14-16-----------------|
|--------10---------12-------------------------16-14----------16-14-13------|
|-----------10---10---------------------------------------------------------|
|--------------8------------------------------------------------------------|

|---------------------------------------------------------------------------|
|--------12-13-12-----------------------------------------------------------|
|--12-14----------14--------------------------------------------------------|
|---------------------------------------------------------------------------|
|---------------------------------------------------------------------------|
|---------------------------------------------------------------------------|
|
|--------10-12-10-----------------------------------------------------------|
|--12-13----------13--------------------------------------------------------|
|---------------------------------------------------------------------------|
|---------------------------------------------------------------------------|
|---------------------------------------------------------------------------|
|---------------------------------------------------------------------------|

|-----------------------------------------------/12--11~--------------------|
|--/8~-8-10b12r10-/12-10b12r10-8-10~-10-12-13~------------------------------|
|---------------------------------------------------------------------------|
|---------------------------------------------------------------------------|
|---------------------------------------------------------------------------|
|---------------------------------------------------------------------------|
|
|---------------------------------------------------------------------------|
|---------------------------------------------------------------------------|
|--/9~-9-11b12r12-/8-----------------------9~--11b12-11~--------------------|
|---------------------10b12r10-9-10~-10-12----------------------------------|
|---------------------------------------------------------------------------|
|---------------------------------------------------------------------------|

|--------------------------------------12-14-15-14-15-17/19~----------------|
|--------------------12-13-15-13-15-17--------------------------------------|
|--12-14-16-14-16-17--------------------------------------------------------|
|---------------------------------------------------------------------------|
|---------------------------------------------------------------------------|
|---------------------------------------------------------------------------|
|
|---------------------------------------8-10-12-10-12-14/15~----------------|
|---------------------8-10-12-10-12-13--------------------------------------|
|---9-11-12-11-12-14--------------------------------------------------------|
|---------------------------------------------------------------------------|
|---------------------------------------------------------------------------|
|---------------------------------------------------------------------------|


Play Verse Bridge 1

Chorus:

|---------------------------------------------------------------------------|
|---------------------------------------------------------------------------|
|---------------------------------------------------------------------------|
|--14-9-14-9-12-9-14-9-12-9-14-9-12-14-12-9---------------------------------|
|---------------------------------------------------------------------------|
|---------------------------------------------------------------------------|
|
|---------------------------------------------------------------------------|
|---------------------------------------------------------------------------|
|-----------------------------------------4---------------------------------|
|-----------------------------------------4---------------------------------|
|-----------------------------------------2---------------------------------|
|--000-0-0-0------------------0-0-0-0-0-------------------------------------|

|---------------------------------------------------------------------------|
|---------------------------------------------------------------------------|
|-------------------------12------------------------------------------------|
|--10-9-10-9-14-9-10-9-10----10-9-10-9----9---------------------------------|
|--------------------------------------12-----------------------------------|
|---------------------------------------------------------------------------|
|
|---------------------------------------------------------------------------|
|---------------------------------------------------------------------------|
|---------------------------------------5\4---------------------------------|
|---------------------------------------------------------------------------|
|---------------------------------------3\2---------------------------------|
|--000-0-0-0------------------0-0-0-----------------------------------------|

|---------------------------------------------------------------------------|
|---------------------------------------------------------------------------|
|------------9------------------9-------------------------------------------|
|-----9----9---9----9----9----9---9----9------------------------------------|
|--12---12-------12---12---12-------12--------------------------------------|
|---------------------------------------------------------------------------|
|
|---------------------------------------------------------------------------|
|---------------------------------------------------------------------------|
|---------------------------------------------------------------------------|
|-------------------------------------2~------------------------------------|
|--000-0-0-0--------------------0-0-0-0~------------------------------------|
|---------------------------------------------------------------------------|

|---------------------------------------------------------------------------|
|---------------------------------------------------------------------------|
|---------------------------------------------------------------------------|
|----9----9---9----9-----------9--------------------------------------------|
|--9--------9-----------9----9---9----9-------------------------------------|
|------11-------11---11---11-------11---------------------------------------|
|
|---------------------------------------------------------------------------|
|---------------------------------------------------------------------------|
|---------------------------------------------------------------------------|
|---------------------------------------------------------------------------|
|--222----222----222----222----2--2---2~------------------------------------|
|---------------------------------------------------------------------------|

Verse Bridge 1 played in background 4x

Outro: (after Verse Bridge 1 played once through)

|---------------------------------------------------------------------------|
|---------------------------------------------------------------------------|
|---------------------------------------------------------------------------|
|--5~--7-9------5-7----------5-/9-7-5---------------------------------------|
|-----------/9-------/7---9-----------9-------------------------------------|
|---------------------------------------------------------------------------|
|
|---------------------------------------------------------------------------|
|---------------------------------------------------------------------------|
|---------------------------------------------------------------------------|
|---------------------------------------------------------------------------|
|---------------------------------------------------------------------------|
|---------------------------------------------------------------------------|

|---------------------------------------------------------------------------|
|---------------------------------------------------------------------------|
|---------------------------------------------------------------------------|
|--5~--7-9------5-7----------5-/9-7-5------2~-------------------------------|
|-----------/9-------/7---9-----------9~---2~-------------------------------|
|------------------------------------------0~-------------------------------|
|
|---------------------------------------------------------------------------|
|---------------------------------------------------------------------------|
|--4~--5-7------4-5--4~------4-/7-5-4------2~-------------------------------|
|-----------/7------------7-----------7~---2~-------------------------------|
|------------------------------------------0~-------------------------------|
|---------------------------------------------------------------------------|

Turn gain on high and let it buzz for about 20 seconds then do a slide down
from a high note on the top string.


  b  bend to
  r  release from bend
| /  slide up
| \  slide down
| h  hammer-on
| p  pull-off
| ~  vibrato
| +  harmonic
| x  Mute note
===============================================================================






============================================================================
6- Days Without N/A
============================================================================

============================================================================
7-A Song For The Hopeless (Intro)
============================================================================

Tuning:C# Standard

Guitar 1
e|-----2-------0-----------5--2---------------------------------------------|
B|----3-3-----3-3------3----3--3-5-3----------------------------------------|
G|---4---4---4---4----0-0-0--0--0-------------------------------------------|
D|--4-----4-4-----4--4---4--------------------------------------------------|
A|-2-------0--------2-------------------------------------------------------|
E|-----------------0--------------------------------------------------------|

Guitar 2 (solo)
e|------------------9-9h10--------14-------------14---------14--------------|
B|-----------7-9h10------------------17p15h17~------17p15h17--17p15h17------|
G|--6~---7-9----------------7~----------------------------------------------|
D|--------------------------------------------------------------------------|
A|--------------------------------------------------------------------------|
E|--------------------------------------------------------------------------|

e|--17-15p14h15---/22-------------------------------------------------------|
B|-------------15----22-19--------------------------------------------------|
G|-------------------------21~\---------------------------------------------|
D|--------------------------------------------------------------------------|
A|--------------------------------------------------------------------------|
E|--------------------------------------------------------------------------|

This is just the intro. pretty simple. ill tab the rest in a few weeks.




============================================================================
8- Do Not Obey N/A
============================================================================

============================================================================
9-Relinquish
============================================================================

Tuning:  Not Drop D, Db Standard (or C# Standard, same thing.)

Db-Gb-B-E-Ab-Db

Verse 1:

|--------7----------------7-------------------------------------------------|
|--------8----------------8---------------------7---------------------------|
|--------9----------------9-------8/9\8-------8---8-------8/9--11~----------|
|--9--9--9--9-------9-----9-----6-------6---6-------6---6-------9~----------|
|--7--9--7--9--10--10--7--7---4-----------4-----------4---------7~----------|
|---------------------------------------------------------------------------| 

|---------------------------------------------------------------------------|
|---------------------------------------------------------------------------|
|------16p14-14-12----------------------------------------------------------|
|------------------12--------------------------------9--------------------9-|
|---------------------14-12~--------------------9-10-----------------9-10---|
|--0-0--------------------------0-0-0-0-0-0-0-0--------0-0-0-0-0-0-0--------|
|
|---------------------------------------------------------------------------|
|---------------------------------------------------------------------------|
|---------------------------------------------------------------------------|
|------17p16-16-14-----------------------------------5-------------------5--|
|------------------14---------------------------7-7------------------7-7----|
|--0-0----------------15-14~----0-0-0-0-0-0-0-0--------0-0-0-0-0-0-0--------|

|---------------------------------------------------------------------------|
|-----------------------------------7---------------------------------------|
|-------9-------------8/9\8-------8---8-------8/9---------------------------|
|-----9------9h10---6-------6---6-------6---6-------------------------------|
|--10-----10------4-----------4-----------4---------------------------------|
|---------------------------------------------------------------------------|
|
|---------------------------------------------------------------------------|
|---------------------------------------------------------------------------|
|-------4-------------------------------------------------------------------|
|-----5------5h7------------------------------------------------------------|
|---7------7----------4-7-4-------4-6-4-------4-7---------------------------|
|-----------------4-4-------4-4-4-------4-4-4-------------------------------|

|---------------------------------------------------------------------------|
|---------------------------------------------------------------------------|
|---------------------------------------------------------------------------|
|--10---9---9---7h9-10---9---7---9------------------------------------------|
|-----7---7---7--------7---7---7---7----------------------------------------|
|---------------------------------------------------------------------------|
|
|---------------------------------------------------------------------------|
|---------------------------------------------------------------------------|
|---------------------------------------------------------------------------|
|--5---5-------5---5--------5---5-------------------------------------------|
|--3---3-------3---3--------3---3-------------------------------------------|
|---------------------------------------------------------------------------|

Bridge 1:

|---------------------------------------------------------------------------|
|---------------------------------------------------------------------------|
|---------------------------------------------------------------------------|
|--10---9---9---7---10---9---9---10------10---9---9---7---10---9---9---10---|
|-----7---7---7---7----7---7---7----7-------7---7---7---7----7---7---7----7-|
|---------------------------------------------------------------------------|
|
|---------------------------------------------------------------------------|
|---------------------------------------------------------------------------|
|---5---4---------------------------------5----4----------------------------|
|---5---4-----2~--------------------------5----4---------2~-----------------|
|---3---2-----2~--------------------------3----2---------2~-----------------|
|-------------0~-----------------------------------------0~-----------------|

|---------------------------------------------------------------------------|
|---------------------------------------------------------------------------|
|---------------------------------------------------------------------------|
|--10---9---9---7---10---9---9---10------10---9---9---7---10---9---9---10---|
|-----7---7---7---7----7---7---7----7-------7---7---7---7----7---7---7----7-|
|---------------------------------------------------------------------------|
|
|---------------------------------------------------------------------------|
|---------------------------------------------------------------------------|
|---5---4---------------------------------5----4----------------------------|
|---5---4-----2~--------------------------5----4---------2~-----------------|
|---3---2-----2~--------------------------3----2---------2~-----------------|
|-------------0~-----------------------------------------0~-----------------|

Chorus 1:

|---------------------------------------------------------------------------|
|---------------------------------------------------------------------------|
|---------------------------------------------------------------------------|
|--5-------4-------2-------5-------4-----4----------------------------------|
|--3-------2-------2-------3-------2-----2--2------2------------------------|
|-----0-0-----0-0--0--0-0-----0-0-----0-----0--0-0-0-0-0-0-0-0-3-0-3-0-5-3-2|

|---------------------------------------------------------------------------|
|---------------------------------------------------------------------------|
|---------------------------------------------------------------------------|
|--5-------4-------2-------5-------4-----4----------------------------7-6-5-|
|--3-------2-------2-------3-------2-----2--2------2-----2----5-4-2---5-4-3-|
|-----0-0-----0-0--0--0-0-----0-0-----0-----0--0-0-0-0-0-0-0--3-2-0---------|

|---------------------------------------------------------------------------|
|---------------------------------------------------------------------------|
|---------------------------------------------------------------------------|
|--5-------4-------2-------5-------4-----4----------------------------------|
|--3-------2-------2-------3-------2-----2--2------2------------------------|
|-----0-0-----0-0--0--0-0-----0-0-----0-----0--0-0-0-0-0-0-0-0-3-0-3-0-5-3-2|

|---------------------------------------------------------------------------|
|---------------------------------------------------------------------------|
|---------------------------------------------------------------------------|
|--5-------4-------2-------5-------4-----4----------------------------7-6-5-|
|--3-------2-------2-------3-------2-----2--2------2-----2----5-4-2---5-4-3-|
|-----0-0-----0-0--0--0-0-----0-0-----0-----0--0-0-0-0-0-0-0--3-2-0---------|

Verse 2:

|--------7----------------7-------------------------------------------------|
|--------8----------------8---------------------7---------------------------|
|--------9----------------9-------8/9\8-------8---8-------8/9--11~----------|
|--9--9--9--9-------9-----9-----6-------6---6-------6---6-------9~----------|
|--7--9--7--9--10--10--7--7---4-----------4-----------4---------7~----------|
|---------------------------------------------------------------------------|

|---------------------------------------------------------------------------|
|---------------------------------------------------------------------------|
|------16p14-14-12----------------------------------------------------------|
|------------------12--------------------------------9--------------------9-|
|---------------------14-12~--------------------9-10-----------------9-10---|
|--0-0--------------------------0-0-0-0-0-0-0-0--------0-0-0-0-0-0-0--------|
|
|---------------------------------------------------------------------------|
|---------------------------------------------------------------------------|
|---------------------------------------------------------------------------|
|------17p16-16-14-----------------------------------5-------------------5--|
|------------------14---------------------------7-7------------------7-7----|
|--0-0----------------15-14~----0-0-0-0-0-0-0-0--------0-0-0-0-0-0-0--------|

|---------------------------------------------------------------------------|
|-----------------------------------7---------------------------------------|
|-------9-------------8/9\8-------8---8-------8/9---------------------------|
|-----9------9h10---6-------6---6-------6---6-------------------------------|
|--10-----10------4-----------4-----------4---------------------------------|
|---------------------------------------------------------------------------|
|
|---------------------------------------------------------------------------|
|---------------------------------------------------------------------------|
|-------4-------------------------------------------------------------------|
|-----5------5h7------------------------------------------------------------|
|---7------7----------4-7-4-------4-6-4-------4-7---------------------------|
|-----------------4-4-------4-4-4-------4-4-4-------------------------------|
|
|---------------------------------------------------------------------------|
|---------------------------------------------------------------------------|
|---------------------------------------------------------------------------|
|--5---5-------5---5--------5-----------------------------------------------|
|--3---3-------3---3--------3-----------------------------------------------|
|---------------------------------------------------------------------------|

Bridge 2:

|---------------------------------------------------------------------------|
|---------------------------------------------------------------------------|
|---------------------------------------------------------------------------|
|--10---9---9---7---10---9---9---10------10---9---9---7---10---9---9---10---|
|-----7---7---7---7----7---7---7----7-------7---7---7---7----7---7---7----7-|
|---------------------------------------------------------------------------|
|
|---------------------------------------------------------------------------|
|---------------------------------------------------------------------------|
|---5---4---------------------------------5----4----------------------------|
|---5---4-----2~--------------------------5----4---------2~-----------------|
|---3---2-----2~--------------------------3----2---------2~-----------------|
|-------------0~-----------------------------------------0~-----------------|
                                                                        PH
|---------------------------------------------------------------------------|
|---------------------------------------------------------------------------|
|-----------------------------------------------------------------------9~--|
|--10---9---9---7---10---9---9---10------10---9---9---7---10---9---9--------|
|-----7---7---7---7----7---7---7----7-------7---7---7---7----7---7---7------|
|---------------------------------------------------------------------------|
|
|---------------------------------------------------------------------------|
|---------------------------------------------------------------------------|
|---5---4-----7~--------------------------5----4----------------------------|
|---5---4-----7~--------------------------5----4---------2~-----------------|
|---3---2-----5~--------------------------3----2---------2~-----------------|
|--------------------------------------------------------0~-----------------|

Chorus 2:

|---------------------------------------------------------------------------|
|---------------------------------------------------------------------------|
|---------------------------------------------------------------------------|
|--5-------4-------2-------5-------4-----4----------------------------------|
|--3-------2-------2-------3-------2-----2--2------2------------------------|
|-----0-0-----0-0--0--0-0-----0-0-----0-----0--0-0-0-0-0-0-0-0-3-0-3-0-5-3-2|

|---------------------------------------------------------------------------|
|---------------------------------------------------------------------------|
|---------------------------------------------------------------------------|
|--5-------4-------2-------5-------4-----4----------------------------7-6-5-|
|--3-------2-------2-------3-------2-----2--2------2-----2----5-4-2---5-4-3-|
|-----0-0-----0-0--0--0-0-----0-0-----0-----0--0-0-0-0-0-0-0--3-2-0---------|

|---------------------------------------------------------------------------|
|---------------------------------------------------------------------------|
|---------------------------------------------------------------------------|
|--5-------4-------2-------5-------4-----4----------------------------------|
|--3-------2-------2-------3-------2-----2--2------2------------------------|
|-----0-0-----0-0--0--0-0-----0-0-----0-----0--0-0-0-0-0-0-0-0-3-0-3-0-5-3-2|

|---------------------------------------------------------------------------|
|---------------------------------------------------------------------------|
|---------------------------------------------------------------------------|
|--5-------4-------2-------5-------4-----4----------------------------7-6-5-|
|--3-------2-------2-------3-------2-----2--2------2-----2----5-4-2---5-4-3-|
|-----0-0-----0-0--0--0-0-----0-0-----0-----0--0-0-0-0-0-0-0--3-2-0---------|

=====
Solo
=====

|---------------------------------------------------------------------------|
|---------------------------15----------------------------------------------|
|---------------14----16----------17----16-14\12----12\11----11-------------|
|--/14-14-16-17----14----14----14----14----------14-------12----12----------|
|------------------------------------------------------------------12/14~---|
|---------------------------------------------------------------------------|
|
|---------------------------------------------------------------------------|
|---------------------------------------------------------------------------|
|---------------------------16----14----------------------------------------|
|------------14-16----17----------------17-16\14----14\12----12-------------|
|--/14-14-17-------14----14----14----14----------14-------12----12----------|
|--------------------------------------------------------------------/15~---|

|---------------------------------------------------------------------------|
|------------------------------15-------------------------------------------|
|--------14b16~----14----16----------17----14-16~---------------------------|
|---------------14----14----14----14----14----------------------------------|
|--14-12--------------------------------------------------------------------|
|---------------------------------------------------------------------------|
|
|---------------------------------------------------------------------------|
|---------------------------------------------------------------------------|
|------------------------------16----14-------------------------------------|
|--------16b17~----16----17----------------16-17~---------------------------|
|---------------14----14----14----14----14----------------------------------|
|--15-14--------------------------------------------------------------------|

|--15-14-12----------15-14-12-----------------------------------------------|
|-----------15-13-12----------15-13-12-15-13-12----------15-13-12-----------|
|-----------------------------------------------14-12-11----------14-12-11--|
|---------------------------------------------------------------------------|
|---------------------------------------------------------------------------|
|---------------------------------------------------------------------------|
|
|---------------------------------------------------------------------------|
|--17-15-13----------17-15-13-----------------------------------------------|
|-----------16-14-12----------16-14-12-16-14-12----------16-14-12-----------|
|-----------------------------------------------16-14-12----------16-14-12--|
|---------------------------------------------------------------------------|
|---------------------------------------------------------------------------|

|-----------16----14--------------------------------------------------------|
|--16b17r16----16----17-16\-16----------------------------------------------|
|-----------------------------16-13--13-16-14-13----------------------------|
|----------------------------------13------------16-14-13-------------------|
|---------------------------------------------------------16-14-12----------|
|------------------------------------------------------------------16-14-12-|
|
|---------------------------------------------------------------------------|
|---------------------------------------------------------------------------|
|--6------6----------6--------------------------------2---------------------|
|--6------6----------6--------------------------------2---------------------|
|--4------4----------4--------------------------------0---------------------|
|---------------------------------------------------------------------------|

|---------------------------------------------------------------------------|
|---------------------------------------------------------------------------|
|---------------------------------------------------------------------------|
|------------------------------------------------------------/13b14r13------|
|--16----------------------12-14-12-11-12-11-------7b8r7---------------14-11|
|-----16-12-14-12-11-12-11-------------------14-12-------7-4----------------|
|
|---------------------------------------------------------------------------|
|---------------------------------------------------------------------------|
|--2---------------------4-----------------------------------6------------6-|
|--2---------------------4-----------------------------------6------------6-|
|--0---------------------2-----------------------------------4------------4-|
|---------------------------------------------------------------------------|

|---------------------------------------------------------------------------|
|-----------------------------------9-12b14~--------------------------------|
|--11b12r11----9------------------9-----------------------------------------|
|-----------13---11-13-9-11-13-11-------------------------------------------|
|---------------------------------------------------------------------------|
|---------------------------------------------------------------------------|
|
|---------------------------------------------------------------------------|
|---------------------------------------------------------------------------|
|-------------2------------------------2------------------------------------|
|-------------2------------------------2------------------------------------|
|-------------0------------------------0------------------------------------|
|---------------------------------------------------------------------------|

|------------15h19t24p19t23p19h15-------------------------------------------|
|----------17--------------------17--17~------------------------------------|
|--------16------------------------16---------------------------------------|
|------17-------------------------------------------------------------------|
|----19---------------------------------------------------------------------|
|--19-----------------------------------------------------------------------|
|
|---------------------------------------------------------------------------|
|---------------------------------------------------------------------------|
|----------------------------------4----------------------------------------|
|----------------------------------4----------------------------------------|
|----------------------------------2----------------------------------------|
|---------------------------------------------------------------------------|

Bridge from solo:

|---------------------------------------------------------------------------|
|---------------------------------------------------------------------------|
|---------------------------------------------------------------------------|
|--10---9---9---7---10---9---9---10------10---9---9---7---10---9---9---10---|
|-----7---7---7---7----7---7---7----7-------7---7---7---7----7---7---7----7-|
|---------------------------------------------------------------------------|
|
|---------------------------------------------------------------------------|
|---------------------------------------------------------------------------|
|---5---4---------------------------------5----4----------------------------|
|---5---4-----2~--------------------------5----4---------2~-----------------|
|---3---2-----2~--------------------------3----2---------2~-----------------|
|-------------0~-----------------------------------------0~-----------------|

|---------------------------------------------------------------------------|
|---------------------------------------------------------------------------|
|---------------------------------------------------------------------------|
|--10---9---9---7---10---9---9---10------10---9---9---7---10----------------|
|-----7---7---7---7----7---7---7----7-------7---7---7---7-------------------|
|---------------------------------------------------------------------------|
|
|---------------------------------------------------------------------------|
|---------------------------------------------------------------------------|
|---5---4---------------------------------5----4----------------------------|
|---5---4-----2~--------------------------5----4---------2------------------|
|---3---2-----2~--------------------------3----2---------2------------------|
|-------------0~-----------------------------------------0------------------|

Bridge 3:

|---------------------------------------------------------------------------|
|---------------------------------------------------------------------------|
|---------------------------------------------------------------------------|
|--10---9---9---7---10---9---9---10------10---9---9---7---10---9---9---10---|
|-----7---7---7---7----7---7---7----7-------7---7---7---7----7---7---7----7-|
|---------------------------------------------------------------------------|
|
|---------------------------------------------------------------------------|
|---------------------------------------------------------------------------|
|---5---4---------------------------------5----4----------------------------|
|---5---4-----2~--------------------------5----4---------2~-----------------|
|---3---2-----2~--------------------------3----2---------2~-----------------|
|-------------0~---0---0---0---0---0---0-----------------0~-0--0--0--0--0--0|

|---------------------------------------------------------------------------|
|---------------------------------------------------------------------------|
|---------------------------------------------------------------------------|
|--10---9---9---7---10---9---9---10------10---9---9---7---10---9---9---10---|
|-----7---7---7---7----7---7---7----7-------7---7---7---7----7---7---7----7-|
|---------------------------------------------------------------------------|
|
|---------------------------------------------------------------------------|
|---------------------------------------------------------------------------|
|---5---4---------------------------------5----4----------------------------|
|---5---4-----2~--------------------------5----4---------2~-----------------|
|---3---2-----2~--------------------------3----2---------2~-----------------|
|-------------0~---0---0---0---0---0---0-----------------0~-0--0--0--0--0--0|

Chorus 3:

|---------------------------------------------------------------------------|
|---------------------------------------------------------------------------|
|---------------------------------------------------------------------------|
|--5-------4-------2-------5-------4-----4----------------------------------|
|--3-------2-------2-------3-------2-----2--2------2------------------------|
|-----0-0-----0-0--0--0-0-----0-0-----0-----0--0-0-0-0-0-0-0-0-3-0-3-0-5-3-2|

|---------------------------------------------------------------------------|
|---------------------------------------------------------------------------|
|---------------------------------------------------------------------------|
|--5-------4-------2-------5-------4-----4----------------------------7-6-5-|
|--3-------2-------2-------3-------2-----2--2------2-----2----5-4-2---5-4-3-|
|-----0-0-----0-0--0--0-0-----0-0-----0-----0--0-0-0-0-0-0-0--3-2-0---------|

|---------------------------------------------------------------------------|
|---------------------------------------------------------------------------|
|---------------------------------------------------------------------------|
|--5-------4-------2-------5-------4-----4----------------------------------|
|--3-------2-------2-------3-------2-----2--2------2------------------------|
|-----0-0-----0-0--0--0-0-----0-0-----0-----0--0-0-0-0-0-0-0-0-3-0-3-0-5-3-2|

|---------------------------------------------------------------------------|
|---------------------------------------------------------------------------|
|---------------------------------------------------------------------------|
|-5-------4-------2-------5-------4-----4--------------------------7-6-5-2~-|
|-3-------2-------2-------3-------2-----2--2------2-----2---5-4-2--5-4-3-2~-|
|----0-0-----0-0--0--0-0-----0-0-----0-----0--0-0-0-0-0-0-0-3-2-0--------0~-|

| b  bend
| r  release
| t  tap
| /  slide up
| \  slide down
| h  hammer-on
| p  pull-off
| ~  vibrato
| +  harmonic
| x  Mute note
| PH pinch harmonic
===============================================================================




============================================================================
10-Overcome (Intro)
============================================================================

Tuning: D Flat

e|--------------------------------------------------------------------------|
B|--------------------------------------------------------------------------|
G|--------------------------------------------------------------------------|
D|--------------------------------------------------------------------------|
A|-8-10----13p10-12-------------12---10---------10p7h8-----------10p7h8-----|
D|-8-10--0----------000-000-0-0----0----0-0-0-0--------000-000-0------------|
         .          ... ... . .    .    . . . .        ... ...

e|--------------------------------------------------------------------------|
B|--------------------------------------------------------------------------|
G|--------------------------------------------------------------------------|
D|----------------------------------------------------------------10-10-----|
A|---8p5h7---13p10-12-------------12---10-------8-8-----10-10-----8--8------|
D|-0-------0----------000-000-0-0----0----0-0-0-8-8-0-0-10-10-0-0-------0-0-|
   .       .          ... ... . .    .    . . .     . .       . .       . .

e|--------------------------------------------------------------------------|
B|--------------------------------------------------------------------------|
G|--------------------------------------------------------------------------|
D|-10-10--------------------------------------------------------------------|
A|-7--7---------------------------------------------------------------------|
D|--------------------------------------------------------------------------|

| /  slide up
| \  slide down
| h  hammer-on
| p  pull-off
| ~  vibrato
| +  harmonic
| .  Mute note
===============================================================================
comments
print report bad tab
5 comments total. Showing first comments.
0 reply
hildesaw wrote on January 31 2010, 12:14 pm

I really wish there was a friggin' electric version of "Forever in Your Hands". The acoustic is close on a lot of parts, but not the same

0 reply
fenne50 wrote on February 8 2010, 04:02 pm

definitely i would do it but i dont have a program to tab it out on or i would so anyone know of any programs i could do that with

0 reply
LivingFetus wrote on October 21 2010, 02:28 am

??????????????????????????????????????????????????????????

I want to post or [tab]
guest
You may want to rate the tab now too:
select rating
Please do not post tabs as comments. Select "correction" instead!