Oops, an error
Loading. Please wait.

Passion Tab

ver1
ver1

Intro

Whole song

More versions @911Tabs.com
19,348 views 15 this week
6 commentsread comments
1 2 3 4 5
excellent!
x 15
Autoscroll
+/-
esc
set tempo
stop
Contributor
WARNING: You are trying to view
                                    content from Ultimate-Guitar.com
                                    in an unauthorized application,
                                    which is prohibited.

                                    Please use an official Ultimate
                                    Guitar Tabs application for iPhone,
                                    iPad or Android to access legitimate
                                    chords, guitar, bass, and drum tabs
                                    from Ultimate-Guitar.com database.

                                    Type "ultimate guitar tabs" in Apple
                                    App Store's or Android Market's
                                    search to find the application.
          C5                   D5                   E5                   F#5
      x 3 5 x x x          x 5 7 x x x          0 2 x x x x          2 4 x x x x

          G5                   G5V                   G                  E5/B
      3 5 x x x x          x x 5 7 x x          x x 5 4 3 3          x x x 4 5 x

         F#5IV               D5open               G5open                 A5
      x x 4 6 x x          x x 0 2 x x          x x x 0 3 x          x 0 2 x x x

          B5                  B5IV                  C5V                 E5VII
      x 2 4 x x x          x x x 4 7 x          x x x 5 8 x          x 7 9 x x x

Gtr I (D G C F A D) - 'Left Channel'
Gtr II (D G C F A D) - 'Right Channel'
Gtr III (D G C F A D) - 'Other Guitar'
Gtr IV (D G C F A D) - 'Solo Guitar'
Gtr V (D G C F A D) - 'Harmony Guitar'

 Intro
  Q=98
  N.C.                              G5V
 4/4
  Gtr I
  S S S S S S S S S S S S S S S S   S S S S S S S S S S S S S S S S
|---------------------------------|----------------------------------|
|---------------------------------|-----------5---------------5------|
|-----4-5-4-----------4-5-4-------|-----7-5-7---7-5-----7-5-7---7-5--|
|-2-5-------5-2-5-2-5-------5-2-5-|---5---------------5--------------|
|---------------------------------|-3---------------3----------------|
|---------------------------------|----------------------------------|
|
| Gtr II
| W                                 W
|---------------------------------|----------------------------------|
|---------------------------------|----------------------------------|
|---------------------------------|-7--------------------------------|
|---------------------------------|-5--------------------------------|
|---------------------------------|----------------------------------|
|---------------------------------|----------------------------------|


  E5                                G5V
  S S S S S S S S S S S S S S S S   S  S S S S S S S S S S S  S  S S S
|---------------------------------|------------------------------------|
|---------------------------------|------------5-----------------5-----|
|-----4-5-4-----------4-5-4-------|------7-5-7---7-5-----7-5--7----7-5-|
|-2-5-------5-2-5-2-5-------5-2-5-|----5---------------5---------------|
|---------------------------------|-3----------------3-----------------|
|---------------------------------|------------------------------------|
|
| PM
| E   E   H               Q         H.                        Q
|---------------------------------|------------------------------------|
|---------------------------------|------------------------------------|
|---------------------------------|-7----------------------------------|
|---------------------------------|-5----------------------------------|
|-2-------------------------------|------------------------------------|
|-0-------------------------------|--------------------------15\-------|


  E5           N.C.F#5    G5    N.C.D5    C5           N.C.G
  S  S S S S S S S S  S S S  S  S   S S   S  S S S S S S S S  S S S  S  S S S
|---------------------------------------|--------------------------------------|
|---------------------------------------|------------5------------------5------|
|------4-5-4------------4-5--4----------|------7-5-7---7-5------7-5--7----7-5--|
|-2--5-------5-2-5-2--5---------5---2-5-|----5----------------5----------------|
|---------------------------------------|-3----------------3-------------------|
|---------------------------------------|--------------------------------------|
|
|              PM|              PM                     PM|
| Q.           S S E.     S +S  S a E     Q.           S S E.     S +E    E
|---------------------------------------|---------------------------------3----|
|---------------------------------------|-------------------------3-(3)---3----|
|---------------------------------------|------------------4------4-(4)--------|
|---------------------------------5S7---|-5----------------5-------------------|
|-2----------------4------5-(5)---3S5---|-3------------------------------------|
|-0------------0-0-2------3-(3)-0-------|--------------0-0---------------------|


  E5/B         N.C.F#5    G5    N.C.D5    C5           N.C.
  S  S S S S S S S S  S S S  S  S   S S   S  S S S S S S S S S S S  S  S S S
|---------------------------------------|-------------------------------------||
|---------------------------------------|------------5-----------------5------||
|------4-5-4------------4-5--4----------|------7-5-7---7-5-----7-5--7----7-5--||
|-2--5-------5-2-5-2--5---------5---2-5-|----5---------------5----------------||
|---------------------------------------|-3----------------3------------------||
|---------------------------------------|-------------------------------------||
|
|              PM|              PM                     PM|     PM~~~~~~
| Q.           S S E.     S +S  S a E     Q.           S S S S S S +Q
|---------------------------------------|-------------------------------------||
|-5-------------------------------------|-------------------------------------||
|-4-------------------------------------|-------------------------------------||
|---------------------------------5S7---|-5----------------5p4---4-(4)--------||
|------------------4------5-(5)---3S5---|-3-----------------------------------||
|--------------0-0-2------3-(3)-0-------|--------------0-0-----0--------------||


   Pre-Verse
    E5                  G5V
    PM--------------|
    Q.   S S Q.   S S   S S S S S S S S S S S S S S S S
||--------------------|-----------------------------------||
||o-------------------|-----------5---------------5------o||
||--------------------|-----7-5-7---7-5-----7-5-7---7-5---||
||--------------------|---5---------------5---------------||
||o-2----2-2-2----2-2-|-3---------------3----------------o||
||--0----0-0-0----0-0-|-----------------------------------||
|
|   PM--------------|
|   Q.   S S Q.   S S   W
||--------------------|-----------------------------------||
||o-------------------|----------------------------------o||
||--------------------|-7---------------------------------||
||--------------------|-5---------------------------------||
||o-2----2-2-2----2-2-|----------------------------------o||
||--0----0-0-0----0-0-|-----------------------------------||


    E5                  N.C.
    PM--------------|
    Q.   S S Q.   S S   S S S S S S S S S S S S S S S S
||--------------------|-----------------------------------||
||o-------------------|-----------5---------------5------o||
||--------------------|-----7-5-7---7-5-----7-5-7---7-5---||
||--------------------|---5---------------5---------------||
||o-2----2-2-2----2-2-|-3---------------3----------------o||
||--0----0-0-0----0-0-|-----------------------------------||
|
|   PM--------------------|             PM|
|   Q.   S S Q.   S S   S S S S S S S S S S S S S S S S
||--------------------|-----------------------------------||
||o-------------------|----------------------------------o||
||--------------------|-----4---4-5-4-------4---4-5-4-----||
||--------------------|-2-5---5-------5-2-5---5-------5---||
||o-2----2-2-2----2-2-|----------------------------------o||
||--0----0-0-0----0-0-|-----------------------------------||


    E5                                  N.C.
    PM------------------------------|
    S S S S S S S S T T S S S S S S S   S S S S S S S S S S S S S S S S
||------------------------------------|----------------------------------||
||o-----------------------------------|-----------5---------------5-----o||
||------------------------------------|-----7-5-7---7-5-----7-5-7---7-5--||
||------------------------------------|---5---------------5--------------||
||o-2-2-2-2-2-2-2-2-2-2-2-2-2-2-2-2-2-|-3---------------3---------------o||
||--0-0-0-0-0-0-0-0-0-0-0-0-0-0-0-0-0-|----------------------------------||
|
|   PM------------------------------------|             PM|
|   S S S S S S S S T T S S S S S S S   S S S S S S S S S S S S S S S S
||------------------------------------|----------------------------------||
||o-----------------------------------|---------------------------------o||
||------------------------------------|-----4---4-5-4-------4---4-5-4----||
||------------------------------------|-2-5---5-------5-2-5---5-------5--||
||o-2-2-2-2-2-2-2-2-2-2-2-2-2-2-2-2-2-|---------------------------------o||
||--0-0-0-0-0-0-0-0-0-0-0-0-0-0-0-0-0-|----------------------------------||


   1st Verse
    N.C.                              N.C.
    Gtrs I, II
      PM|     PM----|       PM  PM      PM|     PM----|    PM  PM  PM
    S S S S S S S S S S S S S S S S   S S S S S S S S S  S S S S S S S
||----------------------------------|-----------------------------------|
||o---------------------------------|-----------------------------------|
||----------------------------------|-----------------------------------|
||----------------------------------|-----------------------------------|
||o---------5-----------8-7---3-----|---------5---------10---9---5---3--|
||--0-0-0-3---0-0-0-0-3-----0---0-3-|-0-0-0-3---0-0-0-0----0---0---0----|


  1.
  N.C.                              N.C.
  Gtr I
    PM|     PM----|       PM  PM      PM|     PM----|    PM  PM  PM
  S S S S S S S S S S S S S S S S   S S S S S S S S S  S S S S S S S
|---------------------------------|-----------------------------------||
|---------------------------------|----------------------------------o||
|---------------------------------|-----------------------------------||
|---------------------------------|-----------------------------------||
|---------5-----------8-7---3-----|---------5---------10---9---5---3-o||
|-0-0-0-3---0-0-0-0-3-----0---0-3-|-0-0-0-3---0-0-0-0----0---0---0----||
|
| Gtr II
|   PM|     PM----|       PM  PM      PM|     PM----|    PM  PM  PM
| S S S S S S S S S S S S S S S S   S S S S S S S S S  S S S S S S S
|---------------------------------|-----------------------------------||
|---------------------------------|----------------------------------o||
|---------------------------------|-----------------------------------||
|---------------------------------|--------------------9---7---4---2--||
|---------5-----------8-7---3-----|---------5------------------------o||
|-0-0-0-3---0-0-0-0-3-----0---0-3-|-0-0-0-3---0-0-0-0----0---0---0----||


  2.
  N.C.                              N.C.
  Gtr I
    PM|     PM----|       PM  PM      PM|     PM--|
  S S S S S S S S S S S S S S S S   S S S S S S S S H
|---------------------------------|--------------------------||
|---------------------------------|--------------------------||
|---------------------------------|--------------------------||
|---------------------------------|--------------------------||
|---------5-----------8-7---3-----|---------5-------x\-------||
|-0-0-0-3---0-0-0-0-3-----0---0-3-|-0-0-0-3---0-0-0-x\-------||
|
| Gtr II
|   PM|     PM----|       PM  PM      PM|     PM--|
| S S S S S S S S S S S S S S S S   S S S S S S S S Q    Q
|---------------------------------|--------------------------||
|---------------------------------|--------------------------||
|---------------------------------|-----------------x\-------||
|---------------------------------|--------------------------||
|---------5-----------8-7---3-----|---------5----------------||
|-0-0-0-3---0-0-0-0-3-----0---0-3-|-0-0-0-3---0-0-0-----12\--||


 D
  E5           N.C.F#5    G5    N.C.D5    C5           N.C.G
  S  S S S S S S S S  S S S  S  S   S S   S  S S S S S S S S  S S S  S  S S S
|---------------------------------------|--------------------------------------|
|---------------------------------------|------------5------------------5------|
|------4-5-4------------4-5--4----------|------7-5-7---7-5------7-5--7----7-5--|
|-2--5-------5-2-5-2--5---------5---2-5-|----5----------------5----------------|
|---------------------------------------|-3----------------3-------------------|
|---------------------------------------|--------------------------------------|
|
|              PM|              PM                     PM|
| Q.           S S E.     S +S  S a E     Q.           S S E.     S +E    E
|---------------------------------------|---------------------------------3----|
|---------------------------------------|-------------------------3-(3)---3----|
|---------------------------------------|------------------4------4-(4)--------|
|---------------------------------5S7---|-5----------------5-------------------|
|-2----------------4------5-(5)---3S5---|-3------------------------------------|
|-0------------0-0-2------3-(3)-0-------|--------------0-0---------------------|


  E5/B         N.C.F#5    G5    N.C.D5
  S  S S S S S S S S  S S S  S  S   S S
|---------------------------------------|
|---------------------------------------|
|------4-5-4------------4-5--4----------|
|-2--5-------5-2-5-2--5---------5---2-5-|
|---------------------------------------|
|---------------------------------------|
|
|              PM|              PM
| Q.           S S E.     S +S  S a E
|---------------------------------------|
|-5-------------------------------------|
|-4-------------------------------------|
|---------------------------------5S7---|
|------------------4------5-(5)---3S5---|
|--------------0-0-2------3-(3)-0-------|


  C5           N.C.G5V    F#5IV   D5open
  S  S S S S S S S S  S S S  S  S S S
|--------------------------------------||
|------------5------------------5------||
|------7-5-7---7-5------7-5--7----7-5--||
|----5----------------5----------------||
|-3----------------3-------------------||
|--------------------------------------||
|
|              PM|
| Q.           S S E.     S +E    E
|--------------------------------------||
|--------------------------------------||
|------------------7------6-(6)---2----||
|-5----------------5------4-(4)---0----||
|-3------------------------------------||
|--------------0-0---------------------||


 2nd Verse
  N.C.                              N.C.
  Gtr I
    PM|     PM----|       PM  PM      PM|     PM----|      PM    PM  PM
  S S S S S S S S S S S S S S S S   S S S S S S S S S   S  S  S  S S S S
|---------------------------------|--------------------------------------|
|---------------------------------|--------------------------------------|
|---------------------------------|--------------------------------------|
|---------------------------------|--------------------------------------|
|---------5-----------8-7---3-----|---------5---------[10]---[9]---5---3-|
|-0-0-0-3---0-0-0-0-3-----0---0-3-|-0-0-0-3---0-0-0-0------0-----0---0---|
|
| Gtr II
|   PM|     PM----|       PM  PM      PM|     PM----|      PM    PM  PM
| S S S S S S S S S S S S S S S S   S S S S S S S S S   S  S  S  S S S S
|---------------------------------|--------------------------------------|
|---------------------------------|--------------------------------------|
|---------------------------------|--------------------------------------|
|---------------------------------|--------------------------------------|
|---------5-----------8-7---3-----|---------5----------10-----9----5---3-|
|-0-0-0-3---0-0-0-0-3-----0---0-3-|-0-0-0-3---0-0-0-0------0-----0---0---|


  N.C.                              N.C.
    PM|     PM----|       PM  PM      PM|     PM----|      PM    PM ~~~~~~~
  S S S S S S S S S S S S S S S S   S S S S S S S S S   S  S  S  S  S  +E
|---------------------------------|-----------------------------------------|
|---------------------------------|-----------------------------------------|
|---------------------------------|-----------------------------------------|
|---------------------------------|-----------------------------------------|
|---------5-----------8-7---3-----|---------5---------[10]---[9]---[5]-(5)--|
|-0-0-0-3---0-0-0-0-3-----0---0-3-|-0-0-0-3---0-0-0-0------0-----0----------|
|
|   PM|     PM----|       PM  PM      PM|     PM----|      PM    PM ~~~~~~~
| S S S S S S S S S S S S S S S S   S S S S S S S S S   S  S  S  S  S  +E
|---------------------------------|-----------------------------------------|
|---------------------------------|-----------------------------------------|
|---------------------------------|-----------------------------------------|
|---------------------------------|---------------------9-----7----[9]-(9)--|
|---------5-----------8-7---3-----|---------5-------------------------------|
|-0-0-0-3---0-0-0-0-3-----0---0-3-|-0-0-0-3---0-0-0-0------0-----0----------|


  N.C.                              N.C.
    PM|     PM----|       PM  PM      PM|     PM----|      PM    PM    PM
  S S S S S S S S S S S S S S S S   S S S S S S S S S   S  S  S  S  S  S S
|---------------------------------|----------------------------------------|
|---------------------------------|----------------------------------------|
|---------------------------------|----------------------------------------|
|---------------------------------|----------------------------------------|
|---------5-----------8-7---3-----|---------5---------[10]---[9]---[5]---3-|
|-0-0-0-3---0-0-0-0-3-----0---0-3-|-0-0-0-3---0-0-0-0------0-----0-----0---|
|
|   PM|     PM----|       PM  PM      PM|     PM----|      PM    PM    PM
| S S S S S S S S S S S S S S S S   S S S S S S S S S   S  S  S  S  S  S S
|---------------------------------|----------------------------------------|
|---------------------------------|----------------------------------------|
|---------------------------------|----------------------------------------|
|---------------------------------|----------------------------------------|
|---------5-----------8-7---3-----|---------5----------10-----9-----5----3-|
|-0-0-0-3---0-0-0-0-3-----0---0-3-|-0-0-0-3---0-0-0-0------0-----0-----0---|


  N.C.                              N.C.
    PM|     PM----|       PM  PM      PM|     PM----|    PM  PM  PM
  S S S S S S S S S S S S S S S S   S S S S S S S S S  S S S S S S S
|---------------------------------|----------------------------------||
|---------------------------------|----------------------------------||
|---------------------------------|----------------------------------||
|---------------------------------|----------------------------------||
|---------5-----------8-7---3-----|---------5---------10---9---5---3-||
|-0-0-0-3---0-0-0-0-3-----0---0-3-|-0-0-0-3---0-0-0-0----0---0---0---||
|
|   PM|     PM----|       PM  PM      PM|     PM----|    PM  PM  PM
| S S S S S S S S S S S S S S S S   S S S S S S S S S  S S S S S S S
|---------------------------------|----------------------------------||
|---------------------------------|----------------------------------||
|---------------------------------|----------------------------------||
|---------------------------------|--------------------9---7---4---2-||
|---------5-----------8-7---3-----|---------5------------------------||
|-0-0-0-3---0-0-0-0-3-----0---0-3-|-0-0-0-3---0-0-0-0----0---0---0---||


   1st Chorus
    E5  N.C.    G5openN.C.  C5  A5      N.C.  A5N.C5      N.B5    N.C.
    Gtrs I, II
                      PM--|   PM        PM--|   PM        PM      PM--|
    E E S S +S  S +E  S S S S S S   +E  S S S S S S +S  S S S +S  S S S
||------2-------------------------|-------------------------------------|
||o-------5-(5)-3-(3)-------------|-------------------------------------|
||--------------0-(0)-------------|-------------------------------------|
||--------------------------5---2-|-(2)-------2---5-(5)-5---4-(4)-------|
||o-2-2---------------------3---0-|-(0)-0-0-0-0-0-3-(3)-3-0-2-(2)-2-2-2-|
||--0-0---------------0-0-0---0---|-------------------------------------|


  1.
  E5  N.C.    G5openN.C.  C5N.A5      N.C.  A5N.C.
                    PM--|   PM        PM--|   PM
  E E S S +S  S +E  S S S S S S   +E  S S S S S  S +S  S S S +S  S S S
|-----2-------------------------|---------------------------------------||
|-------5-(5)-3-(3)-------------|--------------------------------------o||
|-------------0-(0)-------------|---------------------------------------||
|-------------------------5---2-|-(2)-------2---/5-(5)-4---4-(4)--------||
|-2-2---------------------3---0-|-(0)-0-0-0-0-0----------7-------7-5h7-o||
|-0-0---------------0-0-0---0---|---------------------------------------||


  2.
  E5  N.C.    G5openN.C.  C5N.A5      N.C.  A5N.C.
  Gtr I
                    PM--|   PM        PM--|   PM
  e E S S +S  S +E  S S S S S S   +E  S S S S S  S +S  S S  S +S  S S +S
|-----2-------------------------|-----------------------------------------||
|-------5-(5)-3-(3)-------------|-----------------------------------------||
|-------------0-(0)-------------|-----------------------------------------||
|-------------------------5---2-|-(2)-------2---/5-(5)-4---/7-(7)-5-------||
|-2-2---------------------3---0-|-(0)-0-0-0-0-0----------7----------9-(9)-||
|-0-0---------------0-0-0---0---|-----------------------------------------||
|
| Gtr II
| e E S S +S  S +E  S S S S S S   +E  S S S S S  S +S  S S  S +S  S S +S
|-----2-------------------------|-----------------------------------------||
|-------5-(5)-3-(3)-------------|-----------------------------------------||
|-------------0-(0)-------------|---------------/4-(4)-2---/5-(5)-4-2-(2)-||
|-------------------------5---2-|-(2)-------2------------5----------------||
|-2-2---------------------3---0-|-(0)-0-0-0-0-0---------------------------||
|-0-0---------------0-0-0---0---|-----------------------------------------||


   Interlude
    E5
    Gtrs I, II
    PM--------------------------------------------------|
    e E E S S e E E S S   S S E E S S T T S S S T T S S S
||----------------------|-----------------------------------||
||o---------------------|----------------------------------o||
||----------------------|-----------------------------------||
||----------------------|-----------------------------------||
||o-2-----2-2-2-----2-2-|-2-2-----2-2-2-2-2-2-2-2-2-2-2-2--o||
||--0-----0-0-0-----0-0-|-0-0-----0-0-0-0-0-0-0-0-0-0-0-0---||


     PM----------------------------------------------
     e     E     E     S  S  e     E     E     S  S
||--------------------------------------------------|
||o-------------------------------------------------|
||--------------------------------------------------|
||--------------------------------------------------|
||o--2-----------------2--2--2-----------------2--2-|
||---0-----------------0--0--0-----------------0--0-|
|
|   Gtr III
|    S  S  S  S  S  S  S  S  S  S  S  S  S  S  S  S
||--------------------------------------------------|
||o----------------------------15-------------------|
||-----16----17----16----14----------17----16----16-|
||--14----14----14----14----14----14----14----14----|
||o-------------------------------------------------|
||--------------------------------------------------|


 --------------------------------------------------|
   S  S  E     E     S  S  T T  S  S  S  T T  S  S  S
|-------------------------------------------------------||
|------------------------------------------------------o||
|-------------------------------------------------------||
|-------------------------------------------------------||
|--2--2--------------2--2--2-2--2--2--2--2-2--2--2--2--o||
|--0--0--------------0--0--0-0--0--0--0--0-0--0--0--0---||
|
|  S  S  S  S  S  S  S  S  S    S  S  S  S    S  S  S
|------------------------------------12h14--------------||
|------------------------------12h13---------15--------o||
|----16----17----16----14S12--------------------14p12---||
|-14----14----14----14----------------------------------||
|------------------------------------------------------o||
|-------------------------------------------------------||


 H
  E5       N.C.B5IV               N.C.  C5         N.C.G5open        C5V
  Gtr I
   S S S S S S S  S S S S S  S  S S S     S  S S S S S S S  S  S S S  S S S S
|-------------------------------------|---------------------------------------|
|-------------------------------------|--------------5------------------5-----|
|------4-5-4------------4-5--4--------|--------7-5-7---7-5-------7-5--7---7-5-|
|--2-5-------5-2--5-2-5---------5-2-5-|------5-----------------5--------------|
|-------------------------------------|---3-----------------3-----------------|
|-------------------------------------|---------------------------------------|
|
| Gtr II
|          PM                     PM|              PM
|  Q       E   Q.           +E    S S     Q        E   E   +Q         Q
|-------------------------------------|---------------------------------------|
|--------------7------------(7)-------|----------------3---(3)-------/8-------|
|--------------4------------(4)-------|----------------0---(0)-------/5-------|
|-------------------------------------|---5-----------------------------------|
|--2----------------------------------|---3-----------------------------------|
|--0-------0----------------------0-0-|------------0--------------------------|
|
| Gtr III
|  ~~~~~~~~~~~~~~~~~~~~~~~~~~~~~~~~~~~~~~~~~~
|  W                                     +W
|-------------------------------------|---------------------------------------|
|-------------------------------------|---------------------------------------|
|-------------------------------------|---------------------------------------|
|-14----------------------------------|-(14)----------------------------------|
|-------------------------------------|---------------------------------------|
|-------------------------------------|---------------------------------------|


  E5               B5IV
    S  S S S  S  S S S  S  S S S   S  S  S S
|--------------------------------------------|
|--------------------------------------------|
|--------4-5--4--------------4-5---4---------|
|---2--5---------5-2-5--2--5----------5--2-5-|
|--------------------------------------------|
|--------------------------------------------|
|
|   Q        +E    E   +H
|--------------------------------------------|
|------------------7---(7)-------------------|
|------------------4---(4)-------------------|
|--------------------------------------------|
|---2--------(2)-----------------------------|
|---0--------(0)-----------------------------|
|
|   ~~~~
|  +H.                            +E     E
|--------------------------------------------|
|--------------------------------------------|
|--------------------------------------------|
|-(14)---------------------------(14)---14---|
|--------------------------------------------|
|--------------------------------------------|


  C5           N.C.D5
    S   S  S S S S S S  S  S S S S S S S
|----------------------------------------||
|----------------5-----------------5-----||
|----------7-5-7---7-5-------7-5-7---7-5-||
|-------5------------------5-------------||
|---3-------------------3----------------||
|----------------------------------------||
|
|              PM
|   Q          E   E   +H
|----------------------------------------||
|----------------------------------------||
|----------------------------------------||
|---5--------------7---(7)---------------||
|---3--------------5---(5)---------------||
|--------------0-------------------------||
|
|  +E      E   H                 Q
|----------------------------------------||
|----------------------------------------||
|----------------------------------------||
|-(14)\---10-----------------------------||
|----------------------------------------||
|----------------------------------------||


 I
  N.C.
  S S  S S  S S  S S  S  S S S S S  S  S
|----------------------------------------|
|----------------------------------------|
|------4-5--4--------------4-5-4---------|
|-2-5---------5--2-5--2--5-------5--2--5-|
|----------------------------------------|
|----------------------------------------|
|
| PM|    PM                PM|
| S S  S S  S S  S S +E    S S S S  S  S
|-------------------------------------10-|
|-------------8----------------7h8-10----|
|-----11---11---11-9-(9)-----7-----------|
|---9----9-----------------7-------------|
|-7--------------------------------------|
|----------------------------------------|


   S  S  S  S  S  S  S  S   S  S  S  S  S  S  S  S
|--------------------------------------------------|
|-----------------5------------------------5-------|
|--------7--5--7-----7--5---------7--5--7-----7--5-|
|-----5------------------------5-------------------|
|--3------------------------3----------------------|
|--------------------------------------------------|
|
|  PM|                            PM|
|  S  S  S  S  S  S  S  S  +E     S  S  S  S  S  S
|--------------------------------------------------|
|----------------12--------------------12h13-12----|
|-------14----14----14-12-(12)------------------14-|
|----12----12-----------------------14-------------|
|-10-----------------------------12----------------|
|--------------------------------------------------|


  N.C.
  S S  S S  S S  S S  S  S S S S S  S  S
|----------------------------------------|
|----------------------------------------|
|------4-5--4--------------4-5-4---------|
|-2-5---------5--2-5--2--5-------5--2--5-|
|----------------------------------------|
|----------------------------------------|
|
| PM|    PM        ~~~~~~  PM|
| S S  S S  S S  S S +E    S S S S  S  S
|-------------------------------------10-|
|-------------8----------------7h8-10----|
|-----11---11---11-9-(9)-----7-----------|
|---9----9-----------------7-------------|
|-7--------------------------------------|
|----------------------------------------|


   S  S  S  S  S  S  S  S   S  S  S  S  S  S  S  S
|--------------------------------------------------||
|-----------------5------------------------5-------||
|--------7--5--7-----7--5---------7--5--7-----7--5-||
|-----5------------------------5-------------------||
|--3------------------------3----------------------||
|--------------------------------------------------||
|
|  PM|                            PM|
|  S  S  S  S  S  S  S  S  +E     S  S  S  S  S  S
|--------------------------------------------------||
|----------------12--------------------12h13-12----||
|-------14----14----14-12-(12)------------------14-||
|----12----12-----------------------14-------------||
|-10-----------------------------12----------------||
|--------------------------------------------------||


 Guitar Solo
  E5    N.C.F#5         G5         D5
  Gtrs I, II
        PM|
   Q.   S S  E.          S +E    a E
|--------------------------------------|
|--------------------------------------|
|--------------------------------------|
|--------------------------------5S7---|
|--2---------4-----------5-(5)---3S5---|
|--0----0-0--2-----------3-(3)---------|
|
| Gtr IV
|  ~~~
|  H         T  T  S  S  S  S  S   S S
|--------------------------------------|
|-17-----------------------------------|
|-----------11h12p11---------------7h9-|
|--------------------14p12--9h12-------|
|--------------------------------------|
|--------------------------------------|


  C5                    N.C.B5  A5    N.C.
                        PM|
  Q.                    S S  E. S +E  S     +S
|-----------------------------------------------|
|-----------------------------------------------|
|-----------------------------------------------|
|-5--------------------------4--2-(2)-----------|
|-3--------------------------2--0-(0)-----------|
|-----------------------0-0-----------3b3.5-(3)-|
|
|        ~~~~~~~~~~~~     ~~~~~~
| S     +E.  +S     +S  S S +H
|-----------------------------------------------|
|-----------------------------------------------|
|-9b11==(9)r-(9)b11r(9)p7-----------------------|
|-------------------------9-(9)-----------------|
|-----------------------------------------------|
|-----------------------------------------------|


  E5                     N.C.      F#5             G5               D5
                         PM---|
  Q.                     S    S     E.             S    +E        a  E
|-------------------------------------------------------------------------------|
|-------------------------------------------------------------------------------|
|-------------------------------------------------------------------------------|
|-----------------------------------------------------------------5S=7----------|
|-2---------------------------------4--------------5----(5)-------3S=5----------|
|-0----------------------0----0-----2--------------3----(3)---------------------|
|
| |-----6------| |-------6-------|  |--------6--------|  |--3---|
| S  S  S S S  S S  S  S S  S    S  S   S  S  S  S    S  S   S  S    T  T  T  T
|-------------------------------------------------------------------------------|
|----------------------------------------------------------------------------15-|
|--------------------------------------------11-12---14-12--14-16---14-16-17----|
|------------------------9-10---12-10--12-14------------------------------------|
|---------7-9-10-9-10-12--------------------------------------------------------|
|-7--8-10-----------------------------------------------------------------------|


  C5                    N.C.   B5   C5     D5
                          PM-|
   Q.                     S  S   E. S  +E  E
|---------------------------------------------|
|---------------------------------------------|
|---------------------------------------------|
|--5-----------------------------4--5--(5)-7--|
|--3-----------------------------2--3--(3)-5--|
|-------------------------0--0----------------|
|
|                                ~~~~~~~~~~
|  E      +E    +E       +E     +Q     +Q
|---------------------------------------------|
|-15b17==(15)r-(15)b17==(15)r==(15)---(15)----|
|---------------------------------------------|
|---------------------------------------------|
|---------------------------------------------|
|---------------------------------------------|


  E5VII             E5       N.C.       F#5            G5              D5
                              PM---|
   e        E        E        S    S     E.            S    +E       a  E
|-------------------------------------------------------------------------------|
|-------------------------------------------------------------------------------|
|-------------------------------------------------------------------------------|
|--9-----------------------------------------------------------------5S=7-------|
|--7-----------------2-------------------4-------------5----(5)------3S=5-------|
|--------------------0--------0----0-----2-------------3----(3)-----------------|
|
|  |------6-------|  |-------6--------|  |-------6--------|  |-------6--------|
|  S  S  S  S  S  S  S  S  S  S  S    S  S  S  S  S  S    S  S  S  S    S  S  S
|-19p15----------15-17p14------------14-15p12------------12-14p10------------10-|
|-------17----17----------15----15------------13----13------------12------12----|
|----------16----------------14------------------12--------------------11-------|
|-------------------------------------------------------------------------------|
|-------------------------------------------------------------------------------|
|-------------------------------------------------------------------------------|


  C5                     N.C.    B5        A5          N.C.
                         PM--|
   Q.                    S   S   E.        S   +E      S       +S
|--------------------------------------------------------------------|
|--------------------------------------------------------------------|
|--------------------------------------------------------------------|
|--5-----------------------------4---------2---(2)-------------------|
|--3-----------------------------2---------0---(0)-------------------|
|------------------------0---0-------------------------3b3.5---(3)---|
|
|  T    T    T    T    T             PM----------------------------|
|  |-----6-----|  |-----6------| |-----6-----|  |--------6---------|
|  S S  S S  S S  S S  S S S   S S S S S S   S  S  S S S     S     S
|--------------------------------------------------------------------|
|-13p5-12p5-10p5-12p5-10p5-8p==5-7p5---5-----------------------------|
|------------------------------------7---7---5--7--5-4-5-----4-------|
|------------------------------------------------------------------7-|
|--------------------------------------------------------------------|
|--------------------------------------------------------------------|


  A5       N.C.F#5 G5       D5
           PM|
  Q.       S S  E. S  +E  a E
|-----------------------------|
|-----------------------------|
|-----------------------------|
|-------------------------5S7-|
|-2-------------4--5--(5)-3S5-|
|-0--------0-0--2--3--(3)-----|
|
|                      ~~~~
| Q   a  E E   +Q      Q
|-----------------------------|
|-----5S=7-5---(5)---/10------|
|-----------------------------|
|-2---------------------------|
|-----------------------------|
|-----------------------------|
|
| Gtr V
|                      ~~~~
| Q   a  E E   +Q      Q
|-----------------------------|
|-----8S10-8---(8)---/15------|
|-----------------------------|
|-2---------------------------|
|-----------------------------|
|-----------------------------|


  C5                          N.C.       B5              A5             N.C.
                               PM---|
   Q.                          S    S     E.             S    +E         S        +S
|----------------------------------------------------------------------------------------||
|----------------------------------------------------------------------------------------||
|----------------------------------------------------------------------------------------||
|--5--------------------------------------4--------------2----(2)------------------------||
|--3--------------------------------------2--------------0----(0)------------------------||
|------------------------------0----0------------------------------------3b3.5----(3)----||
|
|  |-------6-------|  |-------6--------|  |--------6--------|  |-----------6-----------|
|  S   S  S  S  S  S  S  S  S  S  S    S  S   S  S  S  S    S  S   S  S  S      S      S
|--------------------------------------------------14-------------------19------------19-||
|-----------12----------------17------------------------------17--15-17--------17--------||
|-12--11-12----12-11-16-14-16----16---14-14--12-14----14---12----------------------------||
|----------------------------------------------------------------------------------------||
|----------------------------------------------------------------------------------------||
|----------------------------------------------------------------------------------------||
|
|  |-------6-------|  |-------6--------|  |--------6--------|  |-----------6-----------|
|  S   S  S  S  S  S  S  S  S  S  S    S  S   S  S  S  S    S  S   S  S  S      S      S
|--------------------------------------------------17-------------------22------------22-||
|-----------15----------------20------------------------------20--19-20--------20--------||
|-16--14-16----16-14-19-17-19----19---17-17--16-17----17---16----------------------------||
|----------------------------------------------------------------------------------------||
|----------------------------------------------------------------------------------------||
|----------------------------------------------------------------------------------------||


 3rd Verse
  N.C.
  Gtrs I, II
     PM|     PM----|       PM  PM         PM|     PM----|    PM  PM  PM
   S S S S S S S S S S S S S S S S     S  S S S S S S S S  S S S S S S S
|----------------------------------|-------------------------------------|
|----------------------------------|-------------------------------------|
|----------------------------------|-------------------------------------|
|----------------------------------|-------------------------------------|
|----------5-----------8-7---3-----|------------5---------10---9---5---3-|
|--0-0-0-3---0-0-0-0-3-----0---0-3-|---0--0-0-3---0-0-0-0----0---0---0---|
|
|  >
|  ~~~~~~~~~~~~~~~~~~~~~~~~~~~~~~~~~~~~~~~
|  W                                  +W
|----------------------------------|-------------------------------------|
|-17-------------------------------|-(17)--------------------------------|
|----------------------------------|-------------------------------------|
|----------------------------------|-------------------------------------|
|----------------------------------|-------------------------------------|
|----------------------------------|-------------------------------------|
|
|  >
|  ~~~~~~~~~~~~~~~~~~~~~~~~~~~~~~~~~~~~~~~
|  W                                  +W
|----------------------------------|-------------------------------------|
|-20-------------------------------|-(20)--------------------------------|
|----------------------------------|-------------------------------------|
|----------------------------------|-------------------------------------|
|----------------------------------|-------------------------------------|
|----------------------------------|-------------------------------------|


  N.C.
  Gtr I
    PM|     PM----|       PM  PM      PM|     PM----|    PM  PM  PM
  S S S S S S S S S S S S S S S S   S S S S S S S S S  S S S S S S S
|---------------------------------|----------------------------------|
|---------------------------------|----------------------------------|
|---------------------------------|----------------------------------|
|---------------------------------|----------------------------------|
|---------5-----------8-7---3-----|---------5---------10---9---5---3-|
|-0-0-0-3---0-0-0-0-3-----0---0-3-|-0-0-0-3---0-0-0-0----0---0---0---|
|
| Gtr II
|   PM|     PM----|       PM  PM      PM|     PM----|    PM  PM  PM
| S S S S S S S S S S S S S S S S   S S S S S S S S S  S S S S S S S
|---------------------------------|----------------------------------|
|---------------------------------|----------------------------------|
|---------------------------------|----------------------------------|
|---------------------------------|--------------------9---7---4---2-|
|---------5-----------8-7---3-----|---------5------------------------|
|-0-0-0-3---0-0-0-0-3-----0---0-3-|-0-0-0-3---0-0-0-0----0---0---0---|


  N.C.
  Gtrs I, II
    PM|     PM----|       PM  PM      PM|     PM----|    PM  PM  PM
  S S S S S S S S S S S S S S S S   S S S S S S S S S  S S S S S S S
|---------------------------------|----------------------------------|
|---------------------------------|----------------------------------|
|---------------------------------|----------------------------------|
|---------------------------------|----------------------------------|
|---------5-----------8-7---3-----|---------5---------10---9---5---3-|
|-0-0-0-3---0-0-0-0-3-----0---0-3-|-0-0-0-3---0-0-0-0----0---0---0---|


  N.C.
  Gtr I
    PM|     PM----|       PM  PM      PM|     PM----|    PM  PM  PM
  S S S S S S S S S S S S S S S S   S S S S S S S S S  S S S S S S S
|---------------------------------|----------------------------------||
|---------------------------------|----------------------------------||
|---------------------------------|----------------------------------||
|---------------------------------|----------------------------------||
|---------5-----------8-7---3-----|---------5---------10---9---5---3-||
|-0-0-0-3---0-0-0-0-3-----0---0-3-|-0-0-0-3---0-0-0-0----0---0---0---||
|
| Gtr II
|   PM|     PM----|       PM  PM      PM|     PM----|    PM  PM  PM
| S S S S S S S S S S S S S S S S   S S S S S S S S S  S S S S S S S
|---------------------------------|----------------------------------||
|---------------------------------|----------------------------------||
|---------------------------------|----------------------------------||
|---------------------------------|--------------------9---7---4---2-||
|---------5-----------8-7---3-----|---------5------------------------||
|-0-0-0-3---0-0-0-0-3-----0---0-3-|-0-0-0-3---0-0-0-0----0---0---0---||


 Outro Chorus
  E5  N.C.    G5openN.C.  C5  A5      N.C.  A5N.C5      N.B5    N.C.
  Gtrs I, II
                    PM--|   PM        PM--|   PM        PM      PM--|
  E E S S +S  S +E  S S S S S S   +E  S S S S S S +S  S S S +S  S S S
|-----2-------------------------|-------------------------------------|
|-------5-(5)-3-(3)-------------|-------------------------------------|
|-------------0-(0)-------------|-------------------------------------|
|-------------------------5---2-|-(2)-------2---5-(5)-5---4-(4)-------|
|-2-2---------------------3---0-|-(0)-0-0-0-0-0-3-(3)-3-0-2-(2)-2-2-2-|
|-0-0---------------0-0-0---0---|-------------------------------------|


  E5  N.C.    G5openN.C.  C5N.A5      N.C.  A5N.C.
                    PM--|   PM        PM--|   PM
  E E S S +S  S +E  S S S S S S   +E  S S S S S  S +S  S S S +S  S S S
|-----2-------------------------|--------------------------------------|
|-------5-(5)-3-(3)-------------|--------------------------------------|
|-------------0-(0)-------------|--------------------------------------|
|-------------------------5---2-|-(2)-------2---/5-(5)-4---4-(4)-------|
|-2-2---------------------3---0-|-(0)-0-0-0-0-0----------7-------7-5h7-|
|-0-0---------------0-0-0---0---|--------------------------------------|


  E5  N.C.    G5openN.C.  C5N.A5      N.C.  A5N.C5      N.B5    N.C.
                    PM--|   PM        PM--|   PM        PM      PM--|
  E E S S +S  S +E  S S S S S S   +E  S S S S S S +S  S S S +S  S S S
|-----2-------------------------|-------------------------------------|
|-------5-(5)-3-(3)-------------|-------------------------------------|
|-------------0-(0)-------------|-------------------------------------|
|-------------------------5---2-|-(2)-------2---5-(5)-5---4-(4)-------|
|-2-2---------------------3---0-|-(0)-0-0-0-0-0-3-(3)-3-0-2-(2)-2-2-2-|
|-0-0---------------0-0-0---0---|-------------------------------------|


  E5  N.C.    G5openN.C.  C5N.A5      N.C.  A5N.C.
  Gtr I
                    PM--|   PM        PM--|   PM
  E E S S +S  S +E  S S S S S S   +E  S S S S S  S +S  S S  S +S  S E
|-----2-------------------------|--------------------------------------*|
|-------5-(5)-3-(3)-------------|--------------------------------------*|
|-------------0-(0)-------------|--------------------------------------*|
|-------------------------5---2-|-(2)-------2---/5-(5)-4---/7-(7)-5----*|
|-2-2---------------------3---0-|-(0)-0-0-0-0-0----------7----------9--*|
|-0-0---------------0-0-0---0---|--------------------------------------*|
|
| Gtr II
|                   PM--|   PM        PM--|   PM
| E E S S +S  S +E  S S S S S S   +E  S S S S S  S +S  S S  S +S  S E
|-----2-------------------------|--------------------------------------*|
|-------5-(5)-3-(3)-------------|--------------------------------------*|
|-------------0-(0)-------------|---------------/4-(4)-2---/5-(5)-4-2--*|
|-------------------------5---2-|-(2)-------2------------5-------------*|
|-2-2---------------------3---0-|-(0)-0-0-0-0-0------------------------*|
|-0-0---------------0-0-0---0---|--------------------------------------*|


Duration Legend
---------------
W - whole; H - half; Q - quarter; E - 8th; S - 16th; T - 32nd; X - 64th; a - acciaccatura
+ - note tied to previous; . - note dotted; .. - note double dotted
Uncapitalized letters represent notes that are staccato (1/2 duration)
Irregular groupings are notated above the duration line
Duration letters will always appear directly above the note/fret number it represents the
duration for.  Duration letters with no fret number below them represent rests.  Multi-
bar rests are notated in the form Wxn, where n is the number of bars to rest for.  Low
melody durations appear below the staff

Tablature Legend
----------------
 h   - hammer-on
 p   - pull-off
 b   - bend
 pb  - pre-bend
 r   - bend release (if no number after the r, then release immediately)
 /\  - slide into or out of (from/to "nowhere")
 s   - legato slide
 S   - shift slide
  - natural harmonic
[n]  - artificial harmonic
n(n) - tapped harmonic
 ~   - vibrato
 tr  - trill
 T   - tap
 TP  - trem. picking
 PM  - palm muting
\n/  - tremolo bar dip; n = amount to dip
 \n  - tremolo bar down
 n/  - tremolo bar up
/n\  - tremolo bar inverted dip
 =   - hold bend; also acts as connecting device for hammers/pulls
 <>  - volume swell (louder/softer)
 x   - on rhythm slash represents muted slash
 o   - on rhythm slash represents single note slash

Misc Legend
-----------
 |  - bar
||  - double bar
||o - repeat start
o|| - repeat end
*|  - double bar (ending)
 :  - bar (freetime)
 $  - Segno
 &  - Coda
Tempo markers -  = BPM(8/16=s8/s16), where s8 = swing 8ths, s16 = swing 16ths
                       ((RATE PLEASE))
6 comments total. Showing first comments.
-2 reply
curly2092 wrote on October 12 2006, 05:29 pm

wouldnt this work best in Drop C?

+2 reply
GodofCheesecake wrote on August 21 2007, 03:45 pm

ATR play in D standard on all of their songs, I think. As for riffuntilidie, please feel free to tab the complete works of ATR.

+3 reply
Metalhead7714 wrote on November 20 2007, 05:45 pm

thanks this helped a lot.

nice job, and the solo was a big help too
:)

I want to post or [tab]
guest
You may want to rate the tab now too:
select rating
Please do not post tabs as comments. Select "correction" instead!