Oops, an error
Loading. Please wait.

Regret Not Tab

ver4
ver4

Solo

Whole song

More versions @911Tabs.com
32,641 views 24 this week
17 commentsread comments
1 2 3 4 5
excellent!
x 20
Autoscroll
+/-
esc
set tempo
stop
Contributor
WARNING: You are trying to view
                                    content from Ultimate-Guitar.com
                                    in an unauthorized application,
                                    which is prohibited.

                                    Please use an official Ultimate
                                    Guitar Tabs application for iPhone,
                                    iPad or Android to access legitimate
                                    chords, guitar, bass, and drum tabs
                                    from Ultimate-Guitar.com database.

                                    Type "ultimate guitar tabs" in Apple
                                    App Store's or Android Market's
                                    search to find the application.
This is my power tab version, just transcribed for those who don't have it
or just like this better

I'm pretty sure it's 99% correct

comments/questions: ewlord-1492@hotmail.com


Gtr I (D G C F A D) - 'Untitled'
Gtr II (D G C F A D) - 'Untitled'
Gtr III (D G C F A D) - 'Untitled'
Gtr IV (D G C F A D) - 'Untitled'
Gtr V (D G C F A D) - 'Untitled'
Gtr VI (D G C F A D) - 'Untitled'


    Q=180
   3/4
    Gtr I
    Q.   E E E Q.   E E E Q.   E E E E E E E E E Q.   E E E Q.   E E E Q.   E E E E E E E E E
||-----------------------------------------------0----0-0-0-0----0-0-0-0----0-0-0-0------------||
||o-1----1-1-1-1----1-1-1-0----0-0-0-0-3-3-3-3-3-0----0-0-0-0----0-0-0-0----0-0-0-0-----------o||
||--0----0-0-0-0----0-0-0-0----0-0-0-0-0-0-0-0-0-0----0-0-0-0----0-0-0-0----0-0-0-0-2-2-2-2-2--||
||--2----2-2-2-2----2-2-2-2----2-2-2-2-2-2-2-2-2-2----2-2-2-2----2-2-2-2----2-2-2-2-2-2-2-2-2--||
||o-3----3-3-3-3----3-3-3-3----3-3-3-3-3-3-3-3-3-2----2-2-2-2----2-2-2-2----2-2-2-2-0-0-0-0-0-o||
||-----------------------------------------------0----0-0-0-0----0-0-0-0----0-0-0-0------------||


   Q.    E E E   Q.   E E E    Q.    E E E   E E  E E E E
|--------------|------------|--------------|--------------|
|--1-----1-1-1-|-1----1-1-1-|--0-----0-0-0-|-0-3--3-3-3-3-|
|--0-----0-0-0-|-0----0-0-0-|--0-----0-0-0-|-0-0--0-0-0-0-|
|--2-----2-2-2-|-2----2-2-2-|--2-----2-2-2-|-2-2--2-2-2-2-|
|--3-----3-3-3-|-3----3-3-3-|--3-----3-3-3-|-3-3--3-3-3-3-|
|--------------|------------|--------------|--------------|
|
| Gtr II
|  Q   Q   Q     H.            Q   Q   Q     Q    Q   Q
|--------------|------------|--------------|--------------|
|--------------|------------|--------------|--------------|
|--------------|------------|--------------|--------------|
|-10---9---7---|-9----------|-10---9---7---|----------7---|
|--------------|------------|--------------|-9---10-------|
|--------------|------------|--------------|--------------|


  Q.   E E  E     Q.   E E E   Q.    E E E   E E E E E E
|-0----0-0--0---|-0----0-0-0-|-0-----0-0-0-|-0--------------|
|-0----0-0--0---|-0----0-0-0-|-0-----0-0-0-|-0--------------|
|-0----0-0--0---|-0----0-0-0-|-0-----0-0-0-|-0-2-2-2-2-2----|
|-2----2-2--2---|-2----2-2-2-|-2-----2-2-2-|-2-2-2-2-2-2----|
|-2----2-2--2---|-2----2-2-2-|-2-----2-2-2-|-2-0-0-0-0-0----|
|-0----0-0--0---|-0----0-0-0-|-0-----0-0-0-|-0--------------|
|
|        |-3--|
| H      E  E E   H.           Q   Q   Q     Q   Q   Q
|---------------|------------|-------------|----------------|
|---------------|------------|-------------|----------------|
|---------------|------------|-------------|----------------|
|---------------|------------|-------------|----------------|
|-9------9-10-9-|-7----------|-------------|----------------|
|---------------|------------|-------------|----------------|


   Q.    E E E    Q.   E E E    Q.    E E E   E E  E E E E
|--------------|-------------|--------------|--------------|
|--1-----1-1-1-|--1----1-1-1-|--0-----0-0-0-|-0-3--3-3-3-3-|
|--0-----0-0-0-|--0----0-0-0-|--0-----0-0-0-|-0-0--0-0-0-0-|
|--2-----2-2-2-|--2----2-2-2-|--2-----2-2-2-|-2-2--2-2-2-2-|
|--3-----3-3-3-|--3----3-3-3-|--3-----3-3-3-|-3-3--3-3-3-3-|
|--------------|-------------|--------------|--------------|
|
|  Q   Q   Q      H.            Q   Q   Q     Q    Q   Q
|--------------|-------------|--------------|--------------|
|--------------|-------------|--------------|--------------|
|--------------|-------------|--------------|--------------|
|-10---9---7---|-10----------|-10---9---7---|----------7---|
|--------------|-------------|--------------|-9---10-------|
|--------------|-------------|--------------|--------------|


  Q.   E E E   Q.    E E E   Q.    E E E   E E E E E E
|-0----0-0-0-|-0-----0-0-0-|-0-----0-0-0-|-0--------------|
|-0----0-0-0-|-0-----0-0-0-|-0-----0-0-0-|-0--------------|
|-0----0-0-0-|-0-----0-0-0-|-0-----0-0-0-|-0-2-2-2-2-2----|
|-2----2-2-2-|-2-----2-2-2-|-2-----2-2-2-|-2-2-2-2-2-2----|
|-2----2-2-2-|-2-----2-2-2-|-2-----2-2-2-|-2-0-0-0-0-0----|
|-0----0-0-0-|-0-----0-0-0-|-0-----0-0-0-|-0--------------|
|
| H.           Q   Q   Q     Q   Q   Q     Q   Q   Q
|------------|-------------|-------------|----------------|
|------------|-------------|-------------|----------------|
|------------|-------------|-------------|----------------|
|-9----------|-------------|-------------|----------------|
|------------|-------------|-------------|----------------|
|------------|-------------|-------------|----------------|


   Q.    E E E   Q.   E E E    Q.    E E E   E E  E E E E
|--------------|------------|--------------|--------------|
|--1-----1-1-1-|-1----1-1-1-|--0-----0-0-0-|-0-3--3-3-3-3-|
|--0-----0-0-0-|-0----0-0-0-|--0-----0-0-0-|-0-0--0-0-0-0-|
|--2-----2-2-2-|-2----2-2-2-|--2-----2-2-2-|-2-2--2-2-2-2-|
|--3-----3-3-3-|-3----3-3-3-|--3-----3-3-3-|-3-3--3-3-3-3-|
|--------------|------------|--------------|--------------|
|
|  Q   Q   Q     H.            Q   Q   Q     Q    Q   Q
|--------------|------------|--------------|--------------|
|--------------|------------|--------------|--------------|
|--------------|------------|--------------|--------------|
|-10---9---7---|-9----------|-10---9---7---|----------7---|
|--------------|------------|--------------|-9---10-------|
|--------------|------------|--------------|--------------|
|
| Gtr III
|  Q   Q   Q     H.            Q   Q   Q     Q    Q   Q
|--------------|------------|--------------|--------------|
|-10---8---7---|-8----------|-10---8---7---|----------7---|
|--------------|------------|--------------|-7----9-------|
|--------------|------------|--------------|--------------|
|--------------|------------|--------------|--------------|
|--------------|------------|--------------|--------------|


  Q.   E E  E     Q.   E E E   Q.    E E E   E E E E E E
|-0----0-0--0---|-0----0-0-0-|-0-----0-0-0-|-0--------------|
|-0----0-0--0---|-0----0-0-0-|-0-----0-0-0-|-0--------------|
|-0----0-0--0---|-0----0-0-0-|-0-----0-0-0-|-0-2-2-2-2-2----|
|-2----2-2--2---|-2----2-2-2-|-2-----2-2-2-|-2-2-2-2-2-2----|
|-2----2-2--2---|-2----2-2-2-|-2-----2-2-2-|-2-0-0-0-0-0----|
|-0----0-0--0---|-0----0-0-0-|-0-----0-0-0-|-0--------------|
|
| H      E  E E   H.           Q   Q   Q     Q   Q   Q
|---------------|------------|-------------|----------------|
|---------------|------------|-------------|----------------|
|---------------|------------|-------------|----------------|
|---------------|------------|-------------|----------------|
|-9------9-10-9-|-7----------|-------------|----------------|
|---------------|------------|-------------|----------------|
|
|        |-3--|
| H      E  E E   H.           Q   Q   Q     Q   Q   Q
|---------------|------------|-------------|----------------|
|-7------7--8-7-|------------|-------------|----------------|
|---------------|-9----------|-------------|----------------|
|---------------|------------|-------------|----------------|
|---------------|------------|-------------|----------------|
|---------------|------------|-------------|----------------|


   Q.    E E E    Q.   E E E    Q.    E E E   E E  E E E E
|--------------|-------------|--------------|--------------|
|--1-----1-1-1-|--1----1-1-1-|--0-----0-0-0-|-0-3--3-3-3-3-|
|--0-----0-0-0-|--0----0-0-0-|--0-----0-0-0-|-0-0--0-0-0-0-|
|--2-----2-2-2-|--2----2-2-2-|--2-----2-2-2-|-2-2--2-2-2-2-|
|--3-----3-3-3-|--3----3-3-3-|--3-----3-3-3-|-3-3--3-3-3-3-|
|--------------|-------------|--------------|--------------|
|
|  Q   Q   Q      H.            Q   Q   Q     Q    Q   Q
|--------------|-------------|--------------|--------------|
|--------------|-------------|--------------|--------------|
|--------------|-------------|--------------|--------------|
|-10---9---7---|-10----------|-10---9---7---|----------7---|
|--------------|-------------|--------------|-9---10-------|
|--------------|-------------|--------------|--------------|
|
|  Q   Q   Q      H.            Q   Q   Q     Q    Q   Q
|--------------|-------------|--------------|--------------|
|-10---8---7---|--8----------|-10---8---7---|----------7---|
|--------------|-------------|--------------|-7----9-------|
|--------------|-------------|--------------|--------------|
|--------------|-------------|--------------|--------------|
|--------------|-------------|--------------|--------------|


  Q.   E E E   Q.    E E E   Q.    E E E   E E E E E E
|-0----0-0-0-|-0-----0-0-0-|-0-----0-0-0-|-0--------------|
|-0----0-0-0-|-0-----0-0-0-|-0-----0-0-0-|-0--------------|
|-0----0-0-0-|-0-----0-0-0-|-0-----0-0-0-|-0-2-2-2-2-2----|
|-2----2-2-2-|-2-----2-2-2-|-2-----2-2-2-|-2-2-2-2-2-2----|
|-2----2-2-2-|-2-----2-2-2-|-2-----2-2-2-|-2-0-0-0-0-0----|
|-0----0-0-0-|-0-----0-0-0-|-0-----0-0-0-|-0--------------|
|
| H.           Q   Q   Q     Q   Q   Q     Q   Q   Q
|------------|-------------|-------------|----------------|
|------------|-------------|-------------|----------------|
|------------|-------------|-------------|----------------|
|-9----------|-------------|-------------|----------------|
|------------|-------------|-------------|----------------|
|------------|-------------|-------------|----------------|
|
| H.           Q   Q   Q     Q   Q   Q     Q   Q   Q
|------------|-------------|-------------|----------------|
|-8----------|-------------|-------------|----------------|
|------------|-------------|-------------|----------------|
|------------|-------------|-------------|----------------|
|------------|-------------|-------------|----------------|
|------------|-------------|-------------|----------------|


   Q.     E  E E    Q.   E E E    Q.     E  E E    E E  E E  E E
|----------------|-------------|----------------|----------------|
|--1------1--1-1-|--1----1-1-1-|--0------0--0-0-|--0-3--3-3--3-3-|
|--0------0--0-0-|--0----0-0-0-|--0------0--0-0-|--0-0--0-0--0-0-|
|--2------2--2-2-|--2----2-2-2-|--2------2--2-2-|--2-2--2-2--2-2-|
|--3------3--3-3-|--3----3-3-3-|--3------3--3-3-|--3-3--3-3--3-3-|
|----------------|-------------|----------------|----------------|
|
|  Q    Q    Q      H.            Q    Q    Q      Q    Q    Q
|----------------|-------------|----------------|----------------|
|----------------|-------------|----------------|----------------|
|----------------|-------------|----------------|----------------|
|-10----9----7---|--9----------|-10----9----7---|------------7---|
|----------------|-------------|----------------|--9---10--------|
|----------------|-------------|----------------|----------------|
|
|  Q    Q    Q      H.            Q    Q    Q      Q    Q    Q
|----------------|-------------|----------------|----------------|
|-13---12---10---|-12----------|-13---12---10---|-----------10---|
|----------------|-------------|----------------|-11---12--------|
|----------------|-------------|----------------|----------------|
|----------------|-------------|----------------|----------------|
|----------------|-------------|----------------|----------------|


   Q.   E  E  E      Q.   E E E   Q.    E E E   E E E E E E
|--0----0--0--0----|-0----0-0-0-|-0-----0-0-0-|-0--------------|
|--0----0--0--0----|-0----0-0-0-|-0-----0-0-0-|-0--------------|
|--0----0--0--0----|-0----0-0-0-|-0-----0-0-0-|-0-2-2-2-2-2----|
|--2----2--2--2----|-2----2-2-2-|-2-----2-2-2-|-2-2-2-2-2-2----|
|--2----2--2--2----|-2----2-2-2-|-2-----2-2-2-|-2-0-0-0-0-0----|
|--0----0--0--0----|-0----0-0-0-|-0-----0-0-0-|-0--------------|
|
|          |--3--|
|  H       E  E  E   H.           Q   Q   Q     Q   Q   Q
|------------------|------------|-------------|----------------|
|------------------|------------|-------------|----------------|
|------------------|------------|-------------|----------------|
|------------------|------------|-------------|----------------|
|--9-------9-10--9-|-7----------|-------------|----------------|
|------------------|------------|-------------|----------------|
|
|          |--3--|
|  H       E  E  E   H.           Q   Q   Q     Q   Q   Q
|------------------|------------|-------------|----------------|
|------------------|------------|-------------|----------------|
|-11------11-12-11-|-9----------|-------------|----------------|
|------------------|------------|-------------|----------------|
|------------------|------------|-------------|----------------|
|------------------|------------|-------------|----------------|


   Q.    E E E    Q.   E E E    Q.    E E E   E E  E E E E
|--------------|-------------|--------------|--------------|
|--1-----1-1-1-|--1----1-1-1-|--0-----0-0-0-|-0-3--3-3-3-3-|
|--0-----0-0-0-|--0----0-0-0-|--0-----0-0-0-|-0-0--0-0-0-0-|
|--2-----2-2-2-|--2----2-2-2-|--2-----2-2-2-|-2-2--2-2-2-2-|
|--3-----3-3-3-|--3----3-3-3-|--3-----3-3-3-|-3-3--3-3-3-3-|
|--------------|-------------|--------------|--------------|
|
|  Q   Q   Q      H.            Q   Q   Q     Q    Q   Q
|--------------|-------------|--------------|--------------|
|--------------|-------------|--------------|--------------|
|--------------|-------------|--------------|--------------|
|-10---9---7---|-10----------|-10---9---7---|----------7---|
|--------------|-------------|--------------|-9---10-------|
|--------------|-------------|--------------|--------------|
|
|  Q   Q   Q      H.            Q   Q   Q     Q    Q   Q
|--------------|-------------|--------------|--------------|
|-10---8---7---|--8----------|-10---8---7---|----------7---|
|--------------|-------------|--------------|-7----9-------|
|--------------|-------------|--------------|--------------|
|--------------|-------------|--------------|--------------|
|--------------|-------------|--------------|--------------|


  Q.   E E E   Q.    E E E   Q.    E E E   E E E E E E
|-0----0-0-0-|-0-----0-0-0-|-0-----0-0-0-|-0--------------|
|-0----0-0-0-|-0-----0-0-0-|-0-----0-0-0-|-0--------------|
|-0----0-0-0-|-0-----0-0-0-|-0-----0-0-0-|-0-2-2-2-2-2----|
|-2----2-2-2-|-2-----2-2-2-|-2-----2-2-2-|-2-2-2-2-2-2----|
|-2----2-2-2-|-2-----2-2-2-|-2-----2-2-2-|-2-0-0-0-0-0----|
|-0----0-0-0-|-0-----0-0-0-|-0-----0-0-0-|-0--------------|
|
| H.           Q   Q   Q     Q   Q   Q     Q   Q   Q
|------------|-------------|-------------|----------------|
|------------|-------------|-------------|----------------|
|------------|-------------|-------------|----------------|
|-9----------|-------------|-------------|----------------|
|------------|-------------|-------------|----------------|
|------------|-------------|-------------|----------------|
|
| H.           Q   Q   Q     Q   Q   Q     Q   Q   Q
|------------|-------------|-------------|----------------|
|-8----------|-------------|-------------|----------------|
|------------|-------------|-------------|----------------|
|------------|-------------|-------------|----------------|
|------------|-------------|-------------|----------------|
|------------|-------------|-------------|----------------|


  Q.    E E E   Q.     E E E   Q.    E E E   E E E E E E
|-------------|--------------|-------------|-------------|
|-1-----1-1-1-|-1------1-1-1-|-0-----0-0-0-|-0-3-3-3-3-3-|
|-0-----0-0-0-|-0------0-0-0-|-0-----0-0-0-|-0-0-0-0-0-0-|
|-2-----2-2-2-|-2------2-2-2-|-2-----2-2-2-|-2-2-2-2-2-2-|
|-3-----3-3-3-|-3------3-3-3-|-3-----3-3-3-|-3-3-3-3-3-3-|
|-------------|--------------|-------------|-------------|
|
| Q   Q   Q     E  E E E E E   Q   Q   Q     Q   Q   Q
|-------------|------------0-|-------------|-------------|
|-------------|----------0---|-------------|-------------|
|-------------|--------0-----|-------------|-2---0-------|
|-------------|------2-------|-2---0-------|---------4---|
|-3---2---0---|-2--3---------|---------3---|-------------|
|-------------|--------------|-------------|-------------|


  Q.   E E E   Q.   E E E   Q.    E E E   E  E E E E E
|-0----0-0-0-|-0----0-0-0-|-0-----0-0-0-|-0---------------|
|-0----0-0-0-|-0----0-0-0-|-0-----0-0-0-|-0---------------|
|-0----0-0-0-|-0----0-0-0-|-0-----0-0-0-|-0--2-2-2-2-2----|
|-2----2-2-2-|-2----2-2-2-|-2-----2-2-2-|-2--2-2-2-2-2----|
|-2----2-2-2-|-2----2-2-2-|-2-----2-2-2-|-2--0-0-0-0-0----|
|-0----0-0-0-|-0----0-0-0-|-0-----0-0-0-|-0---------------|
|
| H.           H.           Q   Q   Q     H.
|-0----------|-2----------|-3---3---2---|-0---------------|
|-0----------|-0----------|-0---0---0---|-0---------------|
|-0----------|-0----------|-0---0---0---|-0---------------|
|-2----------|-2----------|-2---2---2---|-2---------------|
|------------|------------|-------------|-----------------|
|------------|------------|-------------|-----------------|


  Q.    E E E   Q.     E E E    Q.       E  E E    E  E E  E  E  E
|-------------|--------------|------------------|------------------|
|-1-----1-1-1-|-1------1-1-1-|--0--------0--0-0-|--0--3-3--3--3--3-|
|-0-----0-0-0-|-0------0-0-0-|--0--------0--0-0-|--0--0-0--0--0--0-|
|-2-----2-2-2-|-2------2-2-2-|--2--------2--2-2-|--2--2-2--2--2--2-|
|-3-----3-3-3-|-3------3-3-3-|--3--------3--3-3-|--3--3-3--3--3--3-|
|-------------|--------------|------------------|------------------|
|
| Q   Q   Q     E  E E E E E    E   E E  E  Q      E  E E  E  E  E
|-------------|------------0-|------------------|------------------|
|-------------|----------0---|------------------|---------------10-|
|-------------|--------0-----|-12--11-9-11-12---|-12-11-9-11-12----|
|-------------|------2-------|------------------|------------------|
|-3---2---0---|-2--3---------|------------------|------------------|
|-------------|--------------|------------------|------------------|


   Q.   E  E E    Q.   E  E E   Q.     E  E E   E  E E E E E
|--0----0--0-0-|--0----0--0-0-|-0------0--0-0-|-0---------------|
|--0----0--0-0-|--0----0--0-0-|-0------0--0-0-|-0---------------|
|--0----0--0-0-|--0----0--0-0-|-0------0--0-0-|-0--2-2-2-2-2----|
|--2----2--2-2-|--2----2--2-2-|-2------2--2-2-|-2--2-2-2-2-2----|
|--2----2--2-2-|--2----2--2-2-|-2------2--2-2-|-2--0-0-0-0-0----|
|--0----0--0-0-|--0----0--0-0-|-0------0--0-0-|-0---------------|
|
|  H       Q      H       Q     Q    Q    Q     H.
|---------12---|---------12---|----------10---|-0---------------|
|-12-----------|-10-----------|---------------|-0---------------|
|--------------|--------------|-9---11--------|-----------------|
|--------------|--------------|---------------|-----------------|
|--------------|--------------|---------------|-----------------|
|--------------|--------------|---------------|-----------------|


  Q.    E E E   Q.     E E E   Q.    E E E   E E E E E E
|-------------|--------------|-------------|-------------|
|-1-----1-1-1-|-1------1-1-1-|-0-----0-0-0-|-0-3-3-3-3-3-|
|-0-----0-0-0-|-0------0-0-0-|-0-----0-0-0-|-0-0-0-0-0-0-|
|-2-----2-2-2-|-2------2-2-2-|-2-----2-2-2-|-2-2-2-2-2-2-|
|-3-----3-3-3-|-3------3-3-3-|-3-----3-3-3-|-3-3-3-3-3-3-|
|-------------|--------------|-------------|-------------|
|
| Q   Q   Q     E  E E E E E   Q   Q   Q     Q   Q   Q
|-------------|------------0-|-------------|-------------|
|-------------|----------0---|-------------|-------------|
|-------------|--------0-----|-------------|-2---0-------|
|-------------|------2-------|-2---0-------|---------4---|
|-3---2---0---|-2--3---------|---------3---|-------------|
|-------------|--------------|-------------|-------------|


  Q.   E E E   Q.   E E E   Q.    E E E   E  E E E E E
|-0----0-0-0-|-0----0-0-0-|-0-----0-0-0-|-0---------------|
|-0----0-0-0-|-0----0-0-0-|-0-----0-0-0-|-0---------------|
|-0----0-0-0-|-0----0-0-0-|-0-----0-0-0-|-0--2-2-2-2-2----|
|-2----2-2-2-|-2----2-2-2-|-2-----2-2-2-|-2--2-2-2-2-2----|
|-2----2-2-2-|-2----2-2-2-|-2-----2-2-2-|-2--0-0-0-0-0----|
|-0----0-0-0-|-0----0-0-0-|-0-----0-0-0-|-0---------------|
|
| H.           H.           Q   Q   Q     H.
|-0----------|-2----------|-3---3---2---|-0---------------|
|-0----------|-0----------|-0---0---0---|-0---------------|
|-0----------|-0----------|-0---0---0---|-0---------------|
|-2----------|-2----------|-2---2---2---|-2---------------|
|------------|------------|-------------|-----------------|
|------------|------------|-------------|-----------------|


  Q.    E E E   Q.     E E E    Q.       E  E E    E  E E  E  E  E
|-------------|--------------|------------------|------------------|
|-1-----1-1-1-|-1------1-1-1-|--0--------0--0-0-|--0--3-3--3--3--3-|
|-0-----0-0-0-|-0------0-0-0-|--0--------0--0-0-|--0--0-0--0--0--0-|
|-2-----2-2-2-|-2------2-2-2-|--2--------2--2-2-|--2--2-2--2--2--2-|
|-3-----3-3-3-|-3------3-3-3-|--3--------3--3-3-|--3--3-3--3--3--3-|
|-------------|--------------|------------------|------------------|
|
| Q   Q   Q     E  E E E E E    E   E E  E  Q      E  E E  E  E  E
|-------------|------------0-|------------------|------------------|
|-------------|----------0---|------------------|---------------10-|
|-------------|--------0-----|-12--11-9-11-12---|-12-11-9-11-12----|
|-------------|------2-------|------------------|------------------|
|-3---2---0---|-2--3---------|------------------|------------------|
|-------------|--------------|------------------|------------------|


   Q.   E  E E    Q.   E  E E   Q.     E  E E   E  E E E E E
|--0----0--0-0-|--0----0--0-0-|-0------0--0-0-|-0---------------|
|--0----0--0-0-|--0----0--0-0-|-0------0--0-0-|-0---------------|
|--0----0--0-0-|--0----0--0-0-|-0------0--0-0-|-0--2-2-2-2-2----|
|--2----2--2-2-|--2----2--2-2-|-2------2--2-2-|-2--2-2-2-2-2----|
|--2----2--2-2-|--2----2--2-2-|-2------2--2-2-|-2--0-0-0-0-0----|
|--0----0--0-0-|--0----0--0-0-|-0------0--0-0-|-0---------------|
|
|  H       Q      H       Q     Q    Q    Q     H.
|---------12---|---------12---|----------10---|-0---------------|
|-12-----------|-10-----------|---------------|-0---------------|
|--------------|--------------|-9---11--------|-----------------|
|--------------|--------------|---------------|-----------------|
|--------------|--------------|---------------|-----------------|
|--------------|--------------|---------------|-----------------|



Distortion comes in:
    Gtrs IV, V
    Q  E E E E   Q  Q  Q    Q  E E E E   Q  Q  Q
||-------------|----------|------------|----------|
||o------------|----------|------------|----------|
||-------------|----------|------------|----------|
||--9----------|-9--9--7--|-9----------|-9--9--7--|
||o-7----------|-7--7--5--|-7----------|-7--7--5--|
||--7--0-0-0-0-|-7--7--5--|-7--0-0-0-0-|-7--7--5--|


  Q  E E E E   Q  Q  Q    Q  E E E E   E E E E Q
|------------|----------|------------|---------------||
|------------|----------|------------|--------------o||
|------------|----------|------------|---------------||
|-5----------|-5--5--4--|-5----------|---------------||
|-3----------|-3--3--2--|-3----------|-----9-9-9----o||
|-3--0-0-0-0-|-3--3--2--|-3--0-0-0-0-|-0-0-----------||


    Q  E E E E   Q  Q  Q    Q  E E E E   Q  Q  Q
||-------------|----------|------------|----------|
||o------------|----------|------------|----------|
||-------------|----------|------------|----------|
||--9----------|-9--9--7--|-9----------|-9--9--7--|
||o-7----------|-7--7--5--|-7----------|-7--7--5--|
||--7--0-0-0-0-|-7--7--5--|-7--0-0-0-0-|-7--7--5--|


  Q  E E E E   Q  Q  Q    Q  E E E E   E E E E Q
|------------|----------|------------|---------------||
|------------|----------|------------|--------------o||
|------------|----------|------------|---------------||
|-5----------|-5--5--4--|-5----------|---------------||
|-3----------|-3--3--2--|-3----------|-----9-9-9----o||
|-3--0-0-0-0-|-3--3--2--|-3--0-0-0-0-|-0-0-----------||


    E E E E E E   E E E E E E    E E E E E E    E E E E E E
||--------------|-------------|--------------|--------------|
||o-------------|-------------|--------------|--------------|
||--------------|-------------|--------------|--------------|
||--9---9---9---|-7---7---7---|-10---9---7---|-10---9---7---|
||o---7---7---7-|---7---7---7-|----7---7---7-|----7---7---7-|
||--------------|-------------|--------------|--------------|


  E E E E E E   E E E E E E   E E E E E E   E E E E E E
|-------------|-------------|-------------|----------------||
|-------------|-------------|-------------|---------------o||
|-------------|-------------|-------------|----------------||
|-5---5---5---|-4---4---4---|-7---7---7---|-5---5---5------||
|---3---3---3-|---3---3---3-|---3---3---3-|---3---3---3---o||
|-------------|-------------|-------------|----------------||


    Gtr IV
    E E E E E E    E E  E E  E E    E E E E E E    E E E E E E
||--------------|----------------|--------------|--------------|
||o-------------|----------------|--------------|--------------|
||--------------|----------------|--------------|--------------|
||--9---9---9---|--7----7----7---|-10---9---7---|-10---9---7---|
||o---7---7---7-|----7----7----7-|----7---7---7-|----7---7---7-|
||--------------|----------------|--------------|--------------|
|
|   Gtr V
|   E E E E E E    E E  E E  E E    E E E E E E    E E E E E E
||--------------|----------------|--------------|--------------|
||o-------------|----------------|--------------|--------------|
||--9---9---9---|-11---11---11---|--9---7-------|--9---7-------|
||--------------|----------------|----------10--|----------10--|
||o---7---7---7-|----7----7----7-|----7---7---7-|----7---7---7-|
||--------------|----------------|--------------|--------------|


  E E E E E E   E E E E E E   E E E E E E   E E E E E E
|-------------|-------------|-------------|----------------||
|-------------|-------------|-------------|---------------o||
|-------------|-------------|-------------|----------------||
|-5---5---5---|-4---4---4---|-7---7---7---|-5---5---5------||
|---3---3---3-|---3---3---3-|---3---3---3-|---3---3---3---o||
|-------------|-------------|-------------|----------------||
|
| E E E E E E   E E E E E E   E E E E E E   E E E E E E
|-------------|-------------|-------------|----------------||
|-------------|-------------|-------------|---------------o||
|-4---4---4---|-2---2---2---|-5---5---5---|-4---4---4------||
|-------------|-------------|-------------|----------------||
|---3---3---3-|---3---3---3-|---3---3---3-|---3---3---3---o||
|-------------|-------------|-------------|----------------||



Solo:
  Q  E E  E E    Q   Q  Q      Q   E E  E E     Q  Q   Q
|-------------|------------|----------------|-------------|
|-------------|------------|----------------|-------------|
|-------------|------------|----------------|-------------|
|-9-----------|--9---9--7--|---9------------|---9--9---7--|
|-7-----------|--7---7--5--|---7------------|---7--7---5--|
|-7--0-0--0-0-|--7---7--5--|---7---0-0--0-0-|---7--7---5--|
|
| Q  Q    Q      H.            Q   Q    Q       H      Q
|-------------|------------|----------------|-------------|
|-------------|------------|----------------|-/15-----13--|
|----9---11---|-12---------|-(12)--9---11---|-------------|
|-------------|------------|----------------|-------------|
|-------------|------------|----------------|-------------|
|-------------|------------|----------------|-------------|


   Q  E E   E   E    Q  Q    Q       Q  E E  E   E   E  E E E Q
|-----------------|----------------|---------------|---------------|
|-----------------|----------------|---------------|---------------|
|-----------------|----------------|---------------|---------------|
|--5--------------|--5--5----4-----|-5-------------|---------------|
|--3--------------|--3--3----2-----|-3-------------|------9-9-9----|
|--3--0-0---0---0-|--3--3----2-----|-3--0-0--0---0-|-0--0----------|
|
|  H       +E   E    H      +E   E   H      +E   E   H.
|-----------------|----------------|---------------|---------------|
|-12------(12)-13-|-10-----(10)-12-|-8------(8)-10-|-7-------------|
|-----------------|----------------|---------------|---------------|
|-----------------|----------------|---------------|---------------|
|-----------------|----------------|---------------|---------------|
|-----------------|----------------|---------------|---------------|


  Q     E  E  E  E    Q     Q     Q       Q     E  E  E  E    Q   Q  Q
|------------------|-------------------|-------------------|------------|
|------------------|-------------------|-------------------|------------|
|------------------|-------------------|-------------------|------------|
|-9----------------|--9-----9-----7----|--9----------------|--9---9--7--|
|-7----------------|--7-----7-----5----|--7----------------|--7---7--5--|
|-7-----0--0--0--0-|--7-----7-----5----|--7-----0--0--0--0-|--7---7--5--|
|
| E  E  E  E  E  E    E  E  E  E  E  E    E  E  E  E  E  E    H.
|------------10-14-|-17-14-------14-17-|-19-22-19----------|------------|
|---------10-------|-------15----------|----------20-17-12-|-17---------|
|-9-11-12----------|----------14-------|-------------------|------------|
|------------------|-------------------|-------------------|------------|
|------------------|-------------------|-------------------|------------|
|------------------|-------------------|-------------------|------------|


   Q  E E  E E    Q  Q   Q       Q   E E  E E    E  E E E Q
|--------------|--------------|---------------|----------------|
|--------------|--------------|---------------|----------------|
|--------------|--------------|---------------|----------------|
|--5-----------|--5--5---4----|--5------------|----------------|
|--3-----------|--3--3---2----|--3------------|-------9-9-9----|
|--3--0-0--0-0-|--3--3---2----|--3---0-0--0-0-|--0--0----------|
|
|  H       Q      H      E  E    Q   Q    Q      H.
|-17------19---|-15-----17-17-|-17--17---19---|-15-------------|
|-19------20---|-17-----19-19-|-19--19---20---|-17-------------|
|--------------|--------------|---------------|----------------|
|--------------|--------------|---------------|----------------|
|--------------|--------------|---------------|----------------|
|--------------|--------------|---------------|----------------|


   Q     E E E E    Q     Q  Q     Q     E E E E    Q     Q  Q
|----------------|--------------|----------------|--------------|
|----------------|--------------|----------------|--------------|
|----------------|--------------|----------------|--------------|
|--9-------------|--9-----9--7--|--9-------------|--9-----9--7--|
|--7-------------|--7-----7--5--|--7-------------|--7-----7--5--|
|--7-----0-0-0-0-|--7-----7--5--|--7-----0-0-0-0-|--7-----7--5--|
|
|  H.               H.             H.               H.
|-12-------------|-14-----------|-17-------------|-15-----------|
|-15b17----------|-17b19--------|-20b22----------|-18b20--------|
|----------------|--------------|----------------|--------------|
|----------------|--------------|----------------|--------------|
|----------------|--------------|----------------|--------------|
|----------------|--------------|----------------|--------------|


   Q     E E E E    Q     Q  Q     Q     E E E E    E    E E E Q
|----------------|--------------|----------------|------------------|
|----------------|--------------|----------------|------------------|
|----------------|--------------|----------------|------------------|
|--5-------------|--5-----5--4--|--5-------------|------------------|
|--3-------------|--3-----3--2--|--3-------------|---------9-9-9----|
|--3-----0-0-0-0-|--3-----3--2--|--3-----0-0-0-0-|--0----0----------|
|
|  H.               H.             H.               H.
|--8-------------|-10-----------|-14-------------|-12---------------|
|-11b13----------|-13b15--------|-17b19----------|-15b17------------|
|----------------|--------------|----------------|------------------|
|----------------|--------------|----------------|------------------|
|----------------|--------------|----------------|------------------|
|----------------|--------------|----------------|------------------|


   Q     E E E E    Q     Q  Q     Q     E E E E    Q     Q  Q
|----------------|--------------|----------------|--------------|
|----------------|--------------|----------------|--------------|
|----------------|--------------|----------------|--------------|
|--9-------------|--9-----9--7--|--9-------------|--9-----9--7--|
|--7-------------|--7-----7--5--|--7-------------|--7-----7--5--|
|--7-----0-0-0-0-|--7-----7--5--|--7-----0-0-0-0-|--7-----7--5--|
|
|  H.               H.             H.               H.
|-12-------------|-14-----------|-17-------------|-15-----------|
|-15b17----------|-17b19--------|-20b22----------|-18b20--------|
|----------------|--------------|----------------|--------------|
|----------------|--------------|----------------|--------------|
|----------------|--------------|----------------|--------------|
|----------------|--------------|----------------|--------------|
|
| Gtr VI
|  H.               H.             H.               H.
|----------------|--------------|----------------|--------------|
|--8-------------|-10-----------|-13-------------|-12-----------|
|-10b12----------|-12b14--------|-15b17----------|-14b16--------|
|----------------|--------------|----------------|--------------|
|----------------|--------------|----------------|--------------|
|----------------|--------------|----------------|--------------|


   Q     E E E E    Q     Q  Q     Q     E E E E    E    E E E E E
|----------------|--------------|----------------|--------------------|
|----------------|--------------|----------------|--------------------|
|----------------|--------------|----------------|--------------------|
|--5-------------|--5-----5--4--|--5-------------|--------------------|
|--3-------------|--3-----3--2--|--3-------------|---------------2----|
|--3-----0-0-0-0-|--3-----3--2--|--3-----0-0-0-0-|--0----0-0-2-3------|
|
|  H.               H.             H.               H.
|--8-------------|-10-----------|-14-------------|-12-----------------|
|-11b13----------|-13b15--------|-17b19----------|-15b17--------------|
|----------------|--------------|----------------|--------------------|
|----------------|--------------|----------------|--------------------|
|----------------|--------------|----------------|--------------------|
|----------------|--------------|----------------|--------------------|
|
|  H.               H.             H.               H.
|----------------|--------------|----------------|--------------------|
|--5-------------|--7-----------|-10-------------|--8-----------------|
|--7b9-----------|--9b11--------|-12b14----------|-10b12--------------|
|----------------|--------------|----------------|--------------------|
|----------------|--------------|----------------|--------------------|
|----------------|--------------|----------------|--------------------|


                   >
   W.              W.
|------------------------|
|------------------------|
|--5--------------(5)----|
|--5---------------5-----|
|--3---------------3-----|
|------------------------|
|
|                  >
|  W.             +W.
|-12-------------(12)----|
|------------------------|
|------------------------|
|------------------------|
|------------------------|
|------------------------|
|
|                  >
|  W.             +W.
|------------------------|
|--8--------------(8)----|
|------------------------|
|------------------------|
|------------------------|
|------------------------|


  Gtr I
  Q.   E E E   Q.   E E E   Q.   E E E   E E E E E E
|-0----0-0-0-|-0----0-0-0-|-0----0-0-0-|-0--------------|
|-0----0-0-0-|-0----0-0-0-|-0----0-0-0-|-0--------------|
|-0----0-0-0-|-0----0-0-0-|-0----0-0-0-|-0-2-2-2-2-2----|
|-2----2-2-2-|-2----2-2-2-|-2----2-2-2-|-2-2-2-2-2-2----|
|-2----2-2-2-|-2----2-2-2-|-2----2-2-2-|-2-0-0-0-0-0----|
|-0----0-0-0-|-0----0-0-0-|-0----0-0-0-|-0--------------|


  Q.   E E E   Q.   E E E   Q.   E E E   E E E E E E
|------------|------------|------------|-------------|
|-1----1-1-1-|-1----1-1-1-|-0----0-0-0-|-0-3-3-3-3-3-|
|-0----0-0-0-|-0----0-0-0-|-0----0-0-0-|-0-0-0-0-0-0-|
|-2----2-2-2-|-2----2-2-2-|-2----2-2-2-|-2-2-2-2-2-2-|
|-3----3-3-3-|-3----3-3-3-|-3----3-3-3-|-3-3-3-3-3-3-|
|------------|------------|------------|-------------|


  Q.   E E E   Q.   E E E   Q.   E E E   E E E E E E
|-0----0-0-0-|-0----0-0-0-|-0----0-0-0-|-0--------------|
|-0----0-0-0-|-0----0-0-0-|-0----0-0-0-|-0--------------|
|-0----0-0-0-|-0----0-0-0-|-0----0-0-0-|-0-2-2-2-2-2----|
|-2----2-2-2-|-2----2-2-2-|-2----2-2-2-|-2-2-2-2-2-2----|
|-2----2-2-2-|-2----2-2-2-|-2----2-2-2-|-2-0-0-0-0-0----|
|-0----0-0-0-|-0----0-0-0-|-0----0-0-0-|-0--------------|


   Q.    E E E   Q.   E E E    Q.    E E E   E E  E E E E
|--------------|------------|--------------|--------------|
|--1-----1-1-1-|-1----1-1-1-|--0-----0-0-0-|-0-3--3-3-3-3-|
|--0-----0-0-0-|-0----0-0-0-|--0-----0-0-0-|-0-0--0-0-0-0-|
|--2-----2-2-2-|-2----2-2-2-|--2-----2-2-2-|-2-2--2-2-2-2-|
|--3-----3-3-3-|-3----3-3-3-|--3-----3-3-3-|-3-3--3-3-3-3-|
|--------------|------------|--------------|--------------|
|
| Gtr II
|  Q   Q   Q     H.            Q   Q   Q     Q    Q   Q
|--------------|------------|--------------|--------------|
|--------------|------------|--------------|--------------|
|--------------|------------|--------------|--------------|
|-10---9---7---|-9----------|-10---9---7---|----------7---|
|--------------|------------|--------------|-9---10-------|
|--------------|------------|--------------|--------------|


  Q.   E E  E     Q.   E E E   Q.    E E E   E E E E E E
|-0----0-0--0---|-0----0-0-0-|-0-----0-0-0-|-0--------------|
|-0----0-0--0---|-0----0-0-0-|-0-----0-0-0-|-0--------------|
|-0----0-0--0---|-0----0-0-0-|-0-----0-0-0-|-0-2-2-2-2-2----|
|-2----2-2--2---|-2----2-2-2-|-2-----2-2-2-|-2-2-2-2-2-2----|
|-2----2-2--2---|-2----2-2-2-|-2-----2-2-2-|-2-0-0-0-0-0----|
|-0----0-0--0---|-0----0-0-0-|-0-----0-0-0-|-0--------------|
|
|        |-3--|
| H      E  E E   H.           Q   Q   Q     Q   Q   Q
|---------------|------------|-------------|----------------|
|---------------|------------|-------------|----------------|
|---------------|------------|-------------|----------------|
|---------------|------------|-------------|----------------|
|-9------9-10-9-|-7----------|-------------|----------------|
|---------------|------------|-------------|----------------|


   Q.    E E E    Q.   E E E    Q.    E E E   E E  E E E E
|--------------|-------------|--------------|--------------|
|--1-----1-1-1-|--1----1-1-1-|--0-----0-0-0-|-0-3--3-3-3-3-|
|--0-----0-0-0-|--0----0-0-0-|--0-----0-0-0-|-0-0--0-0-0-0-|
|--2-----2-2-2-|--2----2-2-2-|--2-----2-2-2-|-2-2--2-2-2-2-|
|--3-----3-3-3-|--3----3-3-3-|--3-----3-3-3-|-3-3--3-3-3-3-|
|--------------|-------------|--------------|--------------|
|
|  Q   Q   Q      H.            Q   Q   Q     Q    Q   Q
|--------------|-------------|--------------|--------------|
|--------------|-------------|--------------|--------------|
|--------------|-------------|--------------|--------------|
|-10---9---7---|-10----------|-10---9---7---|----------7---|
|--------------|-------------|--------------|-9---10-------|
|--------------|-------------|--------------|--------------|
|
| Gtr III
|  Q   Q   Q      H.            Q   Q   Q     Q    Q   Q
|--------------|-------------|--------------|--------------|
|-10---8---7---|--8----------|-10---8---7---|----------7---|
|--------------|-------------|--------------|-7----9-------|
|--------------|-------------|--------------|--------------|
|--------------|-------------|--------------|--------------|
|--------------|-------------|--------------|--------------|


  Q.   E E E   Q.    E E E   Q.    E E E   E E E E E E
|-0----0-0-0-|-0-----0-0-0-|-0-----0-0-0-|-0--------------|
|-0----0-0-0-|-0-----0-0-0-|-0-----0-0-0-|-0--------------|
|-0----0-0-0-|-0-----0-0-0-|-0-----0-0-0-|-0-2-2-2-2-2----|
|-2----2-2-2-|-2-----2-2-2-|-2-----2-2-2-|-2-2-2-2-2-2----|
|-2----2-2-2-|-2-----2-2-2-|-2-----2-2-2-|-2-0-0-0-0-0----|
|-0----0-0-0-|-0-----0-0-0-|-0-----0-0-0-|-0--------------|
|
| H.           Q   Q   Q     Q   Q   Q     Q   Q   Q
|------------|-------------|-------------|----------------|
|------------|-------------|-------------|----------------|
|------------|-------------|-------------|----------------|
|-9----------|-------------|-------------|----------------|
|------------|-------------|-------------|----------------|
|------------|-------------|-------------|----------------|
|
| H.           Q   Q   Q     Q   Q   Q     Q   Q   Q
|------------|-------------|-------------|----------------|
|-8----------|-------------|-------------|----------------|
|------------|-------------|-------------|----------------|
|------------|-------------|-------------|----------------|
|------------|-------------|-------------|----------------|
|------------|-------------|-------------|----------------|


    Q.    E E E   Q.     E E E   Q.    E E E   E E E E E E
||--------------|--------------|-------------|-------------|
||o-1-----1-1-1-|-1------1-1-1-|-0-----0-0-0-|-0-3-3-3-3-3-|
||--0-----0-0-0-|-0------0-0-0-|-0-----0-0-0-|-0-0-0-0-0-0-|
||--2-----2-2-2-|-2------2-2-2-|-2-----2-2-2-|-2-2-2-2-2-2-|
||o-3-----3-3-3-|-3------3-3-3-|-3-----3-3-3-|-3-3-3-3-3-3-|
||--------------|--------------|-------------|-------------|
|
|   Q   Q   Q     E  E E E E E   Q   Q   Q     Q   Q   Q
||--------------|------------0-|-------------|-------------|
||o-------------|----------0---|-------------|-------------|
||--------------|--------0-----|-------------|-2---0-------|
||--------------|------2-------|-2---0-------|---------4---|
||o-3---2---0---|-2--3---------|---------3---|-------------|
||--------------|--------------|-------------|-------------|


  Q.   E E E   Q.   E E E   Q.    E E E   E  E E E E E
|-0----0-0-0-|-0----0-0-0-|-0-----0-0-0-|-0--------------|
|-0----0-0-0-|-0----0-0-0-|-0-----0-0-0-|-0--------------|
|-0----0-0-0-|-0----0-0-0-|-0-----0-0-0-|-0--2-2-2-2-2---|
|-2----2-2-2-|-2----2-2-2-|-2-----2-2-2-|-2--2-2-2-2-2---|
|-2----2-2-2-|-2----2-2-2-|-2-----2-2-2-|-2--0-0-0-0-0---|
|-0----0-0-0-|-0----0-0-0-|-0-----0-0-0-|-0--------------|
|
| H.           H.           Q   Q   Q     H.
|-0----------|-2----------|-3---3---2---|-0--------------|
|-0----------|-0----------|-0---0---0---|-0--------------|
|-0----------|-0----------|-0---0---0---|-0--------------|
|-2----------|-2----------|-2---2---2---|-2--------------|
|------------|------------|-------------|----------------|
|------------|------------|-------------|----------------|


  Q.    E E E   Q.     E E E    Q.       E  E E    E  E E  E  E  E
|-------------|--------------|------------------|------------------|
|-1-----1-1-1-|-1------1-1-1-|--0--------0--0-0-|--0--3-3--3--3--3-|
|-0-----0-0-0-|-0------0-0-0-|--0--------0--0-0-|--0--0-0--0--0--0-|
|-2-----2-2-2-|-2------2-2-2-|--2--------2--2-2-|--2--2-2--2--2--2-|
|-3-----3-3-3-|-3------3-3-3-|--3--------3--3-3-|--3--3-3--3--3--3-|
|-------------|--------------|------------------|------------------|
|
| Q   Q   Q     E  E E E E E    E   E E  E  Q      E  E E  E  E  E
|-------------|------------0-|------------------|------------------|
|-------------|----------0---|------------------|---------------10-|
|-------------|--------0-----|-12--11-9-11-12---|-12-11-9-11-12----|
|-------------|------2-------|------------------|------------------|
|-3---2---0---|-2--3---------|------------------|------------------|
|-------------|--------------|------------------|------------------|


   Q.   E  E E    Q.   E  E E   Q.     E  E E   E  E E E E E
|--0----0--0-0-|--0----0--0-0-|-0------0--0-0-|-0----------------||
|--0----0--0-0-|--0----0--0-0-|-0------0--0-0-|-0---------------o||
|--0----0--0-0-|--0----0--0-0-|-0------0--0-0-|-0--2-2-2-2-2-----||
|--2----2--2-2-|--2----2--2-2-|-2------2--2-2-|-2--2-2-2-2-2-----||
|--2----2--2-2-|--2----2--2-2-|-2------2--2-2-|-2--0-0-0-0-0----o||
|--0----0--0-0-|--0----0--0-0-|-0------0--0-0-|-0----------------||
|
|  H       Q      H       Q     Q    Q    Q     H.
|---------12---|---------12---|----------10---|-0----------------||
|-12-----------|-10-----------|---------------|-0---------------o||
|--------------|--------------|-9---11--------|------------------||
|--------------|--------------|---------------|------------------||
|--------------|--------------|---------------|-----------------o||
|--------------|--------------|---------------|------------------||




--------------------------------------------------------------------------------
Have fun =)

Duration Legend
---------------
W - whole; H - half; Q - quarter; E - 8th; S - 16th; T - 32nd; X - 64th; a - acciaccatura
+ - note tied to previous; . - note dotted; .. - note double dotted
Uncapitalized letters represent notes that are staccato (1/2 duration)
Irregular groupings are notated above the duration line
Duration letters will always appear directly above the note/fret number it represents the
duration for.  Duration letters with no fret number below them represent rests.  Multi-
bar rests are notated in the form Wxn, where n is the number of bars to rest for.  Low
melody durations appear below the staff

Tablature Legend
----------------
 h   - hammer-on
 p   - pull-off
 b   - bend
 pb  - pre-bend
 r   - bend release (if no number after the r, then release immediately)
 /\  - slide into or out of (from/to "nowhere")
 s   - legato slide
 S   - shift slide
 - natural harmonic
[n]  - artificial harmonic
n(n) - tapped harmonic
 ~   - vibrato
 tr  - trill
 T   - tap
 TP  - trem. picking
 PM  - palm muting
\n/  - tremolo bar dip; n = amount to dip
 \n  - tremolo bar down
 n/  - tremolo bar up
/n\  - tremolo bar inverted dip
 =   - hold bend; also acts as connecting device for hammers/pulls
 <> - volume swell (louder/softer)
 x   - on rhythm slash represents muted slash
 o   - on rhythm slash represents single note slash

Misc Legend
-----------
 |  - bar
||  - double bar
||o - repeat start
o|| - repeat end
*|  - double bar (ending)
 :  - bar (freetime)
 $  - Segno
 &  - Coda
Tempo markers -  = BPM(8/16=s8/s16), where s8 = swing 8ths, s16 = swing 16ths

17 comments total. Showing first comments.
-1 reply
Guitarist_24 wrote on April 30 2007, 05:50 pm

the tuning is EADGBE and it's on acoustic for most of the song.

+1 reply
badhabit000 wrote on June 14 2007, 02:19 am

no its not its d standerd

they always play in that tuning

0 reply
sc_stanger wrote on August 11 2007, 08:23 pm

lol it doesn't make any difference...its just gonna sound better in standard d cuz its heavier....not to mention its just sweeter

I want to post or [tab]
guest
You may want to rate the tab now too:
select rating
Please do not post tabs as comments. Select "correction" instead!