Oops, an error
Loading. Please wait.

Relinquish Tab

ver1
ver1

Whole song

Interactive

More versions @911Tabs.com
4,735 views 9 this week
4 commentsread comments
1 2 3 4 5
excellent!
x 2
Autoscroll
+/-
esc
set tempo
stop
Contributor
Hey! There's an official Ultimate Guitar app which is ideal
for learning songs when you're away from computer. Get the app
WARNING: You are trying to view
                                    content from Ultimate-Guitar.com
                                    in an unauthorized application,
                                    which is prohibited.

                                    Please use an official Ultimate
                                    Guitar Tabs application for iPhone,
                                    iPad or Android to access legitimate
                                    chords, guitar, bass, and drum tabs
                                    from Ultimate-Guitar.com database.

                                    Type "ultimate guitar tabs" in Apple
                                    App Store's or Android Market's
                                    search to find the application.
The tab has two-parts, one is constantly lead (top), and the other is rhythm
and harmony (bottom.)
They are separated at the left side (between them is a line.)
just pointing that out for anyone that can't tell.

-------------------------------------------------------------------------------
                             Relinquish - All That Remains
-------------------------------------------------------------------------------
Tabbed by: cleptobismal
Email: cleptobismal@hotmail.com

Tuning:  Not Drop D, Db Standard (or C# Standard, same thing.)

Db-Gb-B-E-Ab-Db

Verse 1:

|--------7----------------7-------------------------------------------------|
|--------8----------------8---------------------7---------------------------|
|--------9----------------9-------8/9\8-------8---8-------8/9--11~----------|
|--9--9--9--9-------9-----9-----6-------6---6-------6---6-------9~----------|
|--7--9--7--9--10--10--7--7---4-----------4-----------4---------7~----------|
|---------------------------------------------------------------------------| 

|---------------------------------------------------------------------------|
|---------------------------------------------------------------------------|
|------16p14-14-12----------------------------------------------------------|
|------------------12--------------------------------9--------------------9-|
|---------------------14-12~--------------------9-10-----------------9-10---|
|--0-0--------------------------0-0-0-0-0-0-0-0--------0-0-0-0-0-0-0--------|
|
|---------------------------------------------------------------------------|
|---------------------------------------------------------------------------|
|---------------------------------------------------------------------------|
|------17p16-16-14-----------------------------------5-------------------5--|
|------------------14---------------------------7-7------------------7-7----|
|--0-0----------------15-14~----0-0-0-0-0-0-0-0--------0-0-0-0-0-0-0--------|

|---------------------------------------------------------------------------|
|-----------------------------------7---------------------------------------|
|-------9-------------8/9\8-------8---8-------8/9---------------------------|
|-----9------9h10---6-------6---6-------6---6-------------------------------|
|--10-----10------4-----------4-----------4---------------------------------|
|---------------------------------------------------------------------------|
|
|---------------------------------------------------------------------------|
|---------------------------------------------------------------------------|
|-------4-------------------------------------------------------------------|
|-----5------5h7------------------------------------------------------------|
|---7------7----------4-7-4-------4-6-4-------4-7---------------------------|
|-----------------4-4-------4-4-4-------4-4-4-------------------------------|

|---------------------------------------------------------------------------|
|---------------------------------------------------------------------------|
|---------------------------------------------------------------------------|
|--10---9---9---7h9-10---9---7---9------------------------------------------|
|-----7---7---7--------7---7---7---7----------------------------------------|
|---------------------------------------------------------------------------|
|
|---------------------------------------------------------------------------|
|---------------------------------------------------------------------------|
|---------------------------------------------------------------------------|
|--5---5-------5---5--------5---5-------------------------------------------|
|--3---3-------3---3--------3---3-------------------------------------------|
|---------------------------------------------------------------------------|

Bridge 1:

|---------------------------------------------------------------------------|
|---------------------------------------------------------------------------|
|---------------------------------------------------------------------------|
|--10---9---9---7---10---9---9---10------10---9---9---7---10---9---9---10---|
|-----7---7---7---7----7---7---7----7-------7---7---7---7----7---7---7----7-|
|---------------------------------------------------------------------------|
|
|---------------------------------------------------------------------------|
|---------------------------------------------------------------------------|
|---5---4---------------------------------5----4----------------------------|
|---5---4-----2~--------------------------5----4---------2~-----------------|
|---3---2-----2~--------------------------3----2---------2~-----------------|
|-------------0~-----------------------------------------0~-----------------|

|---------------------------------------------------------------------------|
|---------------------------------------------------------------------------|
|---------------------------------------------------------------------------|
|--10---9---9---7---10---9---9---10------10---9---9---7---10---9---9---10---|
|-----7---7---7---7----7---7---7----7-------7---7---7---7----7---7---7----7-|
|---------------------------------------------------------------------------|
|
|---------------------------------------------------------------------------|
|---------------------------------------------------------------------------|
|---5---4---------------------------------5----4----------------------------|
|---5---4-----2~--------------------------5----4---------2~-----------------|
|---3---2-----2~--------------------------3----2---------2~-----------------|
|-------------0~-----------------------------------------0~-----------------|

Chorus 1:

|---------------------------------------------------------------------------|
|---------------------------------------------------------------------------|
|---------------------------------------------------------------------------|
|--5-------4-------2-------5-------4-----4----------------------------------|
|--3-------2-------2-------3-------2-----2--2------2------------------------|
|-----0-0-----0-0--0--0-0-----0-0-----0-----0--0-0-0-0-0-0-0-0-3-0-3-0-5-3-2|

|---------------------------------------------------------------------------|
|---------------------------------------------------------------------------|
|---------------------------------------------------------------------------|
|--5-------4-------2-------5-------4-----4----------------------------7-6-5-|
|--3-------2-------2-------3-------2-----2--2------2-----2----5-4-2---5-4-3-|
|-----0-0-----0-0--0--0-0-----0-0-----0-----0--0-0-0-0-0-0-0--3-2-0---------|

|---------------------------------------------------------------------------|
|---------------------------------------------------------------------------|
|---------------------------------------------------------------------------|
|--5-------4-------2-------5-------4-----4----------------------------------|
|--3-------2-------2-------3-------2-----2--2------2------------------------|
|-----0-0-----0-0--0--0-0-----0-0-----0-----0--0-0-0-0-0-0-0-0-3-0-3-0-5-3-2|

|---------------------------------------------------------------------------|
|---------------------------------------------------------------------------|
|---------------------------------------------------------------------------|
|--5-------4-------2-------5-------4-----4----------------------------7-6-5-|
|--3-------2-------2-------3-------2-----2--2------2-----2----5-4-2---5-4-3-|
|-----0-0-----0-0--0--0-0-----0-0-----0-----0--0-0-0-0-0-0-0--3-2-0---------|

Verse 2:

|--------7----------------7-------------------------------------------------|
|--------8----------------8---------------------7---------------------------|
|--------9----------------9-------8/9\8-------8---8-------8/9--11~----------|
|--9--9--9--9-------9-----9-----6-------6---6-------6---6-------9~----------|
|--7--9--7--9--10--10--7--7---4-----------4-----------4---------7~----------|
|---------------------------------------------------------------------------|

|---------------------------------------------------------------------------|
|---------------------------------------------------------------------------|
|------16p14-14-12----------------------------------------------------------|
|------------------12--------------------------------9--------------------9-|
|---------------------14-12~--------------------9-10-----------------9-10---|
|--0-0--------------------------0-0-0-0-0-0-0-0--------0-0-0-0-0-0-0--------|
|
|---------------------------------------------------------------------------|
|---------------------------------------------------------------------------|
|---------------------------------------------------------------------------|
|------17p16-16-14-----------------------------------5-------------------5--|
|------------------14---------------------------7-7------------------7-7----|
|--0-0----------------15-14~----0-0-0-0-0-0-0-0--------0-0-0-0-0-0-0--------|

|---------------------------------------------------------------------------|
|-----------------------------------7---------------------------------------|
|-------9-------------8/9\8-------8---8-------8/9---------------------------|
|-----9------9h10---6-------6---6-------6---6-------------------------------|
|--10-----10------4-----------4-----------4---------------------------------|
|---------------------------------------------------------------------------|
|
|---------------------------------------------------------------------------|
|---------------------------------------------------------------------------|
|-------4-------------------------------------------------------------------|
|-----5------5h7------------------------------------------------------------|
|---7------7----------4-7-4-------4-6-4-------4-7---------------------------|
|-----------------4-4-------4-4-4-------4-4-4-------------------------------|
|
|---------------------------------------------------------------------------|
|---------------------------------------------------------------------------|
|---------------------------------------------------------------------------|
|--5---5-------5---5--------5-----------------------------------------------|
|--3---3-------3---3--------3-----------------------------------------------|
|---------------------------------------------------------------------------|

Bridge 2:

|---------------------------------------------------------------------------|
|---------------------------------------------------------------------------|
|---------------------------------------------------------------------------|
|--10---9---9---7---10---9---9---10------10---9---9---7---10---9---9---10---|
|-----7---7---7---7----7---7---7----7-------7---7---7---7----7---7---7----7-|
|---------------------------------------------------------------------------|
|
|---------------------------------------------------------------------------|
|---------------------------------------------------------------------------|
|---5---4---------------------------------5----4----------------------------|
|---5---4-----2~--------------------------5----4---------2~-----------------|
|---3---2-----2~--------------------------3----2---------2~-----------------|
|-------------0~-----------------------------------------0~-----------------|
                                                                        PH
|---------------------------------------------------------------------------|
|---------------------------------------------------------------------------|
|-----------------------------------------------------------------------9~--|
|--10---9---9---7---10---9---9---10------10---9---9---7---10---9---9--------|
|-----7---7---7---7----7---7---7----7-------7---7---7---7----7---7---7------|
|---------------------------------------------------------------------------|
|
|---------------------------------------------------------------------------|
|---------------------------------------------------------------------------|
|---5---4-----7~--------------------------5----4----------------------------|
|---5---4-----7~--------------------------5----4---------2~-----------------|
|---3---2-----5~--------------------------3----2---------2~-----------------|
|--------------------------------------------------------0~-----------------|

Chorus 2:

|---------------------------------------------------------------------------|
|---------------------------------------------------------------------------|
|---------------------------------------------------------------------------|
|--5-------4-------2-------5-------4-----4----------------------------------|
|--3-------2-------2-------3-------2-----2--2------2------------------------|
|-----0-0-----0-0--0--0-0-----0-0-----0-----0--0-0-0-0-0-0-0-0-3-0-3-0-5-3-2|

|---------------------------------------------------------------------------|
|---------------------------------------------------------------------------|
|---------------------------------------------------------------------------|
|--5-------4-------2-------5-------4-----4----------------------------7-6-5-|
|--3-------2-------2-------3-------2-----2--2------2-----2----5-4-2---5-4-3-|
|-----0-0-----0-0--0--0-0-----0-0-----0-----0--0-0-0-0-0-0-0--3-2-0---------|

|---------------------------------------------------------------------------|
|---------------------------------------------------------------------------|
|---------------------------------------------------------------------------|
|--5-------4-------2-------5-------4-----4----------------------------------|
|--3-------2-------2-------3-------2-----2--2------2------------------------|
|-----0-0-----0-0--0--0-0-----0-0-----0-----0--0-0-0-0-0-0-0-0-3-0-3-0-5-3-2|

|---------------------------------------------------------------------------|
|---------------------------------------------------------------------------|
|---------------------------------------------------------------------------|
|--5-------4-------2-------5-------4-----4----------------------------7-6-5-|
|--3-------2-------2-------3-------2-----2--2------2-----2----5-4-2---5-4-3-|
|-----0-0-----0-0--0--0-0-----0-0-----0-----0--0-0-0-0-0-0-0--3-2-0---------|

=====
Solo
=====

|---------------------------------------------------------------------------|
|---------------------------15----------------------------------------------|
|---------------14----16----------17----16-14\12----12\11----11-------------|
|--/14-14-16-17----14----14----14----14----------14-------12----12----------|
|------------------------------------------------------------------12/14~---|
|---------------------------------------------------------------------------|
|
|---------------------------------------------------------------------------|
|---------------------------------------------------------------------------|
|---------------------------16----14----------------------------------------|
|------------14-16----17----------------17-16\14----14\12----12-------------|
|--/14-14-17-------14----14----14----14----------14-------12----12----------|
|--------------------------------------------------------------------/15~---|

|---------------------------------------------------------------------------|
|------------------------------15-------------------------------------------|
|--------14b16~----14----16----------17----14-16~---------------------------|
|---------------14----14----14----14----14----------------------------------|
|--14-12--------------------------------------------------------------------|
|---------------------------------------------------------------------------|
|
|---------------------------------------------------------------------------|
|---------------------------------------------------------------------------|
|------------------------------16----14-------------------------------------|
|--------16b17~----16----17----------------16-17~---------------------------|
|---------------14----14----14----14----14----------------------------------|
|--15-14--------------------------------------------------------------------|

|--15-14-12----------15-14-12-----------------------------------------------|
|-----------15-13-12----------15-13-12-15-13-12----------15-13-12-----------|
|-----------------------------------------------14-12-11----------14-12-11--|
|---------------------------------------------------------------------------|
|---------------------------------------------------------------------------|
|---------------------------------------------------------------------------|
|
|---------------------------------------------------------------------------|
|--17-15-13----------17-15-13-----------------------------------------------|
|-----------16-14-12----------16-14-12-16-14-12----------16-14-12-----------|
|-----------------------------------------------16-14-12----------16-14-12--|
|---------------------------------------------------------------------------|
|---------------------------------------------------------------------------|

|-----------16----14--------------------------------------------------------|
|--16b17r16----16----17-16\-16----------------------------------------------|
|-----------------------------16-13--13-16-14-13----------------------------|
|----------------------------------13------------16-14-13-------------------|
|---------------------------------------------------------16-14-12----------|
|------------------------------------------------------------------16-14-12-|
|
|---------------------------------------------------------------------------|
|---------------------------------------------------------------------------|
|--6------6----------6--------------------------------2---------------------|
|--6------6----------6--------------------------------2---------------------|
|--4------4----------4--------------------------------0---------------------|
|---------------------------------------------------------------------------|

|---------------------------------------------------------------------------|
|---------------------------------------------------------------------------|
|---------------------------------------------------------------------------|
|------------------------------------------------------------/13b14r13------|
|--16----------------------12-14-12-11-12-11-------7b8r7---------------14-11|
|-----16-12-14-12-11-12-11-------------------14-12-------7-4----------------|
|
|---------------------------------------------------------------------------|
|---------------------------------------------------------------------------|
|--2---------------------4-----------------------------------6------------6-|
|--2---------------------4-----------------------------------6------------6-|
|--0---------------------2-----------------------------------4------------4-|
|---------------------------------------------------------------------------|

|---------------------------------------------------------------------------|
|-----------------------------------9-12b14~--------------------------------|
|--11b12r11----9------------------9-----------------------------------------|
|-----------13---11-13-9-11-13-11-------------------------------------------|
|---------------------------------------------------------------------------|
|---------------------------------------------------------------------------|
|
|---------------------------------------------------------------------------|
|---------------------------------------------------------------------------|
|-------------2------------------------2------------------------------------|
|-------------2------------------------2------------------------------------|
|-------------0------------------------0------------------------------------|
|---------------------------------------------------------------------------|

|------------15h19t24p19t23p19h15-------------------------------------------|
|----------17--------------------17--17~------------------------------------|
|--------16------------------------16---------------------------------------|
|------17-------------------------------------------------------------------|
|----19---------------------------------------------------------------------|
|--19-----------------------------------------------------------------------|
|
|---------------------------------------------------------------------------|
|---------------------------------------------------------------------------|
|----------------------------------4----------------------------------------|
|----------------------------------4----------------------------------------|
|----------------------------------2----------------------------------------|
|---------------------------------------------------------------------------|

Bridge from solo:

|---------------------------------------------------------------------------|
|---------------------------------------------------------------------------|
|---------------------------------------------------------------------------|
|--10---9---9---7---10---9---9---10------10---9---9---7---10---9---9---10---|
|-----7---7---7---7----7---7---7----7-------7---7---7---7----7---7---7----7-|
|---------------------------------------------------------------------------|
|
|---------------------------------------------------------------------------|
|---------------------------------------------------------------------------|
|---5---4---------------------------------5----4----------------------------|
|---5---4-----2~--------------------------5----4---------2~-----------------|
|---3---2-----2~--------------------------3----2---------2~-----------------|
|-------------0~-----------------------------------------0~-----------------|

|---------------------------------------------------------------------------|
|---------------------------------------------------------------------------|
|---------------------------------------------------------------------------|
|--10---9---9---7---10---9---9---10------10---9---9---7---10----------------|
|-----7---7---7---7----7---7---7----7-------7---7---7---7-------------------|
|---------------------------------------------------------------------------|
|
|---------------------------------------------------------------------------|
|---------------------------------------------------------------------------|
|---5---4---------------------------------5----4----------------------------|
|---5---4-----2~--------------------------5----4---------2------------------|
|---3---2-----2~--------------------------3----2---------2------------------|
|-------------0~-----------------------------------------0------------------|

Bridge 3:

|---------------------------------------------------------------------------|
|---------------------------------------------------------------------------|
|---------------------------------------------------------------------------|
|--10---9---9---7---10---9---9---10------10---9---9---7---10---9---9---10---|
|-----7---7---7---7----7---7---7----7-------7---7---7---7----7---7---7----7-|
|---------------------------------------------------------------------------|
|
|---------------------------------------------------------------------------|
|---------------------------------------------------------------------------|
|---5---4---------------------------------5----4----------------------------|
|---5---4-----2~--------------------------5----4---------2~-----------------|
|---3---2-----2~--------------------------3----2---------2~-----------------|
|-------------0~---0---0---0---0---0---0-----------------0~-0--0--0--0--0--0|

|---------------------------------------------------------------------------|
|---------------------------------------------------------------------------|
|---------------------------------------------------------------------------|
|--10---9---9---7---10---9---9---10------10---9---9---7---10---9---9---10---|
|-----7---7---7---7----7---7---7----7-------7---7---7---7----7---7---7----7-|
|---------------------------------------------------------------------------|
|
|---------------------------------------------------------------------------|
|---------------------------------------------------------------------------|
|---5---4---------------------------------5----4----------------------------|
|---5---4-----2~--------------------------5----4---------2~-----------------|
|---3---2-----2~--------------------------3----2---------2~-----------------|
|-------------0~---0---0---0---0---0---0-----------------0~-0--0--0--0--0--0|

Chorus 3:

|---------------------------------------------------------------------------|
|---------------------------------------------------------------------------|
|---------------------------------------------------------------------------|
|--5-------4-------2-------5-------4-----4----------------------------------|
|--3-------2-------2-------3-------2-----2--2------2------------------------|
|-----0-0-----0-0--0--0-0-----0-0-----0-----0--0-0-0-0-0-0-0-0-3-0-3-0-5-3-2|

|---------------------------------------------------------------------------|
|---------------------------------------------------------------------------|
|---------------------------------------------------------------------------|
|--5-------4-------2-------5-------4-----4----------------------------7-6-5-|
|--3-------2-------2-------3-------2-----2--2------2-----2----5-4-2---5-4-3-|
|-----0-0-----0-0--0--0-0-----0-0-----0-----0--0-0-0-0-0-0-0--3-2-0---------|

|---------------------------------------------------------------------------|
|---------------------------------------------------------------------------|
|---------------------------------------------------------------------------|
|--5-------4-------2-------5-------4-----4----------------------------------|
|--3-------2-------2-------3-------2-----2--2------2------------------------|
|-----0-0-----0-0--0--0-0-----0-0-----0-----0--0-0-0-0-0-0-0-0-3-0-3-0-5-3-2|

|---------------------------------------------------------------------------|
|---------------------------------------------------------------------------|
|---------------------------------------------------------------------------|
|-5-------4-------2-------5-------4-----4--------------------------7-6-5-2~-|
|-3-------2-------2-------3-------2-----2--2------2-----2---5-4-2--5-4-3-2~-|
|----0-0-----0-0--0--0-0-----0-0-----0-----0--0-0-0-0-0-0-0-3-2-0--------0~-|

| b  bend
| r  release
| t  tap
| /  slide up
| \  slide down
| h  hammer-on
| p  pull-off
| ~  vibrato
| +  harmonic
| x  Mute note
| PH pinch harmonic
===============================================================================
comments
We did not receive enough feedback on this tab! Please rate:
print report bad tab
1 2 3 4 5
4 comments total. Showing first comments.
0 reply
Lil JP wrote on February 9 2009, 07:52 pm

Aren't they playing in D Standard?

0 reply
Mega-Tallica wrote on February 9 2009, 08:02 pm

^Nah, on Fall Of Ideals and Darkened Heart they are in D standard, but I think the entire Overcome album is in Db standard

0 reply
rictazero wrote on February 11 2009, 01:57 pm

That's correct they're in C# on overcome

I want to post or [tab]
guest
You may want to rate the tab now too:
select rating
Please do not post tabs as comments. Select "correction" instead!