Oops, an error
Loading. Please wait.

Sing For Liberty Tab

ver1
ver1

Whole song

Interactive

More versions @911Tabs.com
1,419 views 15 this week
no commentswrite comment
1 2 3 4 5
excellent!
x 2
Autoscroll
+/-
esc
set tempo
stop
Contributor
Difficulty
Tuning
intermediate
C# G# C# F# A# D#
WARNING: You are trying to view
                                    content from Ultimate-Guitar.com
                                    in an unauthorized application,
                                    which is prohibited.

                                    Please use an official Ultimate
                                    Guitar Tabs application for iPhone,
                                    iPad or Android to access legitimate
                                    chords, guitar, bass, and drum tabs
                                    from Ultimate-Guitar.com database.

                                    Type "ultimate guitar tabs" in Apple
                                    App Store's or Android Market's
                                    search to find the application.
----------------------------------------------------------------------------
                           Sing for Liberty
                           All That Remains
----------------------------------------------------------------------------

I knew ATR would show off the haters. This is my favorite song off of the 2012 
album and I am so glad they still have the spark. Enjoy!

Username: dkm817 (same on X box live)
Youtube Cover: http://www.youtube.com/watch?v=GsUzOcUDRms
Email: guitardrums@rockfan.com

Guitar 1 Rhythmic (C# G# C# F# A# D#)
Guitar 2 Lead     (C# G# C# F# A# D#)
Guitar 3 Rhythmic (C# G# C# F# A# D#)

NOTE: This was exported off of guitar pro.


Guitar 1

                                          PM PM PM     
                              E  E  E  E  E  E  E  E   
D#||-------|-------|-------|--------------------------|
A#||-------|-------|-------|--------------------------|
F#||-------|-------|-------|--------------------------|
C#||-------|-------|-------|--------------------3--5--|
G#||-------|-------|-------|--------------3--5--------|
C#||-------|-------|-------|--------------------------|


        PM    PM             PM    PM    PM           
  E  E  E  E  E  E  E  E     E  E  E  E  E  E  E  E   
--------------------------|--------------------------|
--------------------------|--------------------------|
--5--------------------0--|-----7-----5--------------|
-----7-----5-----3--3--L--|--3-----3-----3--5--------|
--------------------------|--------------------8--7--|
--------0-----0-----------|--------------------------|


        PM    PM    PM PM          PM    PM PM PM     
  E  E  E  E  E  E  E  E     E  E  E  E  E  E  E  E   
--------------------------|--------------------------|
--------------------------|--3--L-----5--------------|
--5-----------------------|--------------------------|
-----7-----5-----3--3--5--|-----5--3-----------3--5--|
--------------------------|--------------3--5--------|
--------0-----0-----------|--------------------------|


  PM PM PM PM PM PM PM PM PM          PM PM PM PM PM PM          PM PM PM PM  
  S  S  E  S  S  E  S  S  E     E  E  S  S  E  S  S  E     E  E  E  E  E  E   
-----------------------------|--------------------------|--------------------|
-----------------------------|--------------------------|--------------------|
-----------------------------|--------------------------|--------------------|
--0--0--0--0--0--0--0--0--0--|--------0--0--0--0--0--0--|--------------------|
--0--0--0--0--0--0--0--0--0--|--------0--0--0--0--0--0--|--8-----------------|
--0--0--0--0--0--0--0--0--0--|--------0--0--0--0--0--0--|-----8--7--8--7--8--|


        PM PM PM PM    PM PM PM PM PM PM PM PM PM          PM PM PM PM PM PM  
  E  E  E  E  E  E     S  S  E  S  S  E  S  S  E     E  E  S  S  E  S  S  E   
--------------------|-----------------------------|--------------------------|
--------------------|-----------------------------|--------------------------|
--------------------|-----------------------------|--------------------------|
--------------------|--0--0--0--0--0--0--0--0--0--|--------0--0--0--0--0--0--|
--7--0--------------|--0--0--0--0--0--0--0--0--0--|--------0--0--0--0--0--0--|
--------3--7--3--7--|--0--0--0--0--0--0--0--0--0--|--------0--0--0--0--0--0--|


        PM PM PM PM            PM  PM PM  PM    PM PM PM PM PM PM PM PM PM  
  E  E  E  E  E  E      E   E  E   E  E   E     S  S  E  S  S  E  S  S  E   
--------------------|------------------------|-----------------------------|
--------------------|------------------------|-----------------------------|
--------------------|------------------------|-----------------------------|
--------------------|------------------------|--0--0--0--0--0--0--0--0--0--|
--8-----------------|--10--------------------|--0--0--0--0--0--0--0--0--0--|
-----8--7--8--7--8--|------10--8--10--8--10--|--0--0--0--0--0--0--0--0--0--|


        PM PM PM PM PM PM          PM PM PM PM          PM PM PM PM  
  E  E  S  S  E  S  S  E     E  E  E  E  E  E     E  E  E  E  E  E   
--------------------------|--------------------|--------------------|
--------------------------|--------------------|--------------------|
--------------------------|--------------------|--------------------|
--------0--0--0--0--0--0--|--------------------|--------------------|
--------0--0--0--0--0--0--|--8-----------------|--7--0--------------|
--------0--0--0--0--0--0--|-----8--7--8--7--8--|--------3--7--3--7--|


  PM PM PM PM PM PM PM PM PM          PM PM PM PM PM PM          PM PM PM PM  
  S  S  E  S  S  E  S  S  E     E  E  S  S  E  S  S  E     E  E  E  E  E  E   
-----------------------------|--------------------------|--------------------|
-----------------------------|--------------------------|--------------------|
-----------------------------|--------------------------|--------------------|
--0--0--0--0--0--0--0--0--0--|--------0--0--0--0--0--0--|--------------------|
--0--0--0--0--0--0--0--0--0--|--------0--0--0--0--0--0--|--8-----------------|
--0--0--0--0--0--0--0--0--0--|--------0--0--0--0--0--0--|-----8--7--8--7--8--|


          PM  PM PM  PM    PM PM PM PM PM PM PM PM PM  
   E   E  E   E  E   E     S  S  E  S  S  E  S  S  E   
------------------------|-----------------------------|
------------------------|-----------------------------|
------------------------|-----------------------------|
------------------------|--0--0--0--0--0--0--0--0--0--|
--10--------------------|--0--0--0--0--0--0--0--0--0--|
------10--8--10--8--10--|--0--0--0--0--0--0--0--0--0--|


  PM PM PM PM PM PM PM PM PM          PM PM PM PM          PM PM PM PM  
  S  S  E  S  S  E  S  S  E     E  E  E  E  E  E     E  E  E  E  E  E   
-----------------------------|--------------------|--------------------|
-----------------------------|--------------------|--------------------|
-----------------------------|--------------------|--------------------|
--0--0--0--0--0--0--0--0--0--|--------------------|--------------------|
--0--0--0--0--0--0--0--0--0--|--8-----------------|--7--0--------------|
--0--0--0--0--0--0--0--0--0--|-----8--7--8--7--8--|--------3--7--3--7--|


  PM PM PM PM PM PM PM PM PM    PM PM PM PM PM PM PM PM PM  
  S  S  E  S  S  E  S  S  E     S  S  E  S  S  E  S  S  E   
-----------------------------|-----------------------------|
-----------------------------|-----------------------------|
-----------------------------|-----------------------------|
--0--0--0--0--0--0--0--0--0--|--0--0--0--0--0--0--0--0--0--|
--0--0--0--0--0--0--0--0--0--|--0--0--0--0--0--0--0--0--0--|
--0--0--0--0--0--0--0--0--0--|--0--0--0--0--0--0--0--0--0--|


        PM PM PM PM            PM  PM PM  PM    PM PM PM PM PM PM PM PM PM  
  E  E  E  E  E  E      E   E  E   E  E   E     S  S  E  S  S  E  S  S  E   
--------------------|------------------------|-----------------------------|
--------------------|------------------------|-----------------------------|
--------------------|------------------------|-----------------------------|
--------------------|------------------------|--0--0--0--0--0--0--0--0--0--|
--8-----------------|--10--------------------|--0--0--0--0--0--0--0--0--0--|
-----8--7--8--7--8--|------10--8--10--8--10--|--0--0--0--0--0--0--0--0--0--|


  PM PM PM PM PM PM PM PM PM          PM PM PM PM          PM PM PM PM  
  S  S  E  S  S  E  S  S  E     E  E  E  E  E  E     E  E  E  E  E  E   
-----------------------------|--------------------|--------------------|
-----------------------------|--------------------|--------------------|
-----------------------------|--------------------|--------------------|
--0--0--0--0--0--0--0--0--0--|--------------------|--------------------|
--0--0--0--0--0--0--0--0--0--|--8-----------------|--7--0--------------|
--0--0--0--0--0--0--0--0--0--|-----8--7--8--7--8--|--------3--7--3--7--|


  PM PM PM PM PM PM PM PM PM    PM PM PM PM PM PM PM PM PM  
  S  S  E  S  S  E  S  S  E     S  S  E  S  S  E  S  S  E   
-----------------------------|-----------------------------|
-----------------------------|-----------------------------|
-----------------------------|-----------------------------|
--0--0--0--0--0--0--0--0--0--|--0--0--0--0--0--0--0--0--0--|
--0--0--0--0--0--0--0--0--0--|--0--0--0--0--0--0--0--0--0--|
--0--0--0--0--0--0--0--0--0--|--0--0--0--0--0--0--0--0--0--|


     PM PM PM    PM       PM PM PM    PM       PM PM PM    PM  
  E  E  E  E  E  E     E  E  E  E  E  E     E  E  E  E  E  E   
--------------------|--------------------|--------------------|
--------------------|--------------------|--------------------|
--9-----------9-----|--7-----------7-----|--------------------|
-----7-----7-----7--|-----7-----7-----7--|--------------------|
--------8-----------|--------8-----------|--8-----------8-----|
--------------------|--------------------|-----8--7--8-----8--|


     PM PM PM    PM       PM PM PM    PM       PM PM PM    PM  
  E  E  E  E  E  E     E  E  E  E  E  E     E  E  E  E  E  E   
--------------------|--------------------|--------------------|
--------------------|--------------------|--------------------|
--------------------|--------------------|--------------------|
--------------------|--------------------|--------------------|
--8-----------8-----|--7-----------7-----|--7-----------7-----|
-----8--7--8-----8--|-----7--5--7-----7--|-----7--5--7-----7--|


     PM PM PM    PM       PM PM PM    PM       PM PM PM    PM  
  E  E  E  E  E  E     E  E  E  E  E  E     E  E  E  E  E  E   
--------------------|--------------------|--------------------|
--------------------|--------------------|--------------------|
--------------------|--------------------|--------------------|
--------------------|--------------------|--------------------|
--7-----------7-----|--7-----------7-----|--5-----------5-----|
-----7--3--7-----7--|-----7--3--7-----7--|-----3--0--3-----3--|


     PM PM PM    PM       PM PM PM    PM       PM PM PM    PM  
  E  E  E  E  E  E     E  E  E  E  E  E     E  E  E  E  E  E   
--------------------|--------------------|--------------------|
--------------------|--------------------|--------------------|
--------------------|--------------------|--------------------|
--------------------|--------------------|--------------------|
--5-----------5-----|--8-----------8-----|--8-----------8-----|
-----3--0--3-----3--|-----8--7--8-----8--|-----8--7--8-----8--|


       PM PM PM    PM         PM PM PM    PM       PM    PM    PM  
   E   E  E  E  E  E      E   E  E  E  E  E     E  E  E  E  E  E   
----------------------|----------------------|--------------------|
----------------------|----------------------|--------------------|
----------------------|----------------------|--------------------|
----------------------|----------------------|--------------------|
--10------------8-----|--10------------8-----|--------------------|
------10--7--8-----8--|------10--7--8-----8--|--8--0--7--0--0--0--|


     PM    PM     PM       PM     PM         PM PM PM PM PM PM PM PM PM  
  E  E  E  E   E  E     E  E   E  E  Q       S  S  E  S  S  E  S  S  E   
---------------------|--------------------|-----------------------------|
---------------------|--------------------|-----------------------------|
---------------------|--------------------|-----------------------------|
---------------------|--------------------|--0--0--0--0--0--0--0--0--0--|
---------------------|---------------5----|--0--0--0--0--0--0--0--0--0--|
--7--0--8--0--10--0--|--8--0--10--0-------|--0--0--0--0--0--0--0--0--0--|


  PM PM PM PM PM PM PM PM PM    PM PM PM PM PM PM PM PM PM  
  S  S  E  S  S  E  S  S  E     S  S  E  S  S  E  S  S  E   
-----------------------------|-----------------------------|
-----------------------------|-----------------------------|
-----------------------------|-----------------------------|
--0--0--0--0--0--0--0--0--0--|--0--0--0--0--0--0--0--0--0--|
--0--0--0--0--0--0--0--0--0--|--0--0--0--0--0--0--0--0--0--|
--0--0--0--0--0--0--0--0--0--|--0--0--0--0--0--0--0--0--0--|


        PM PM PM PM          PM PM PM PM    PM PM PM PM PM PM PM PM PM  
  E  E  E  E  E  E     E  E  E  E  E  E     S  S  E  S  S  E  S  S  E   
--------------------|--------------------|-----------------------------|
--------------------|--------------------|-----------------------------|
--------------------|--------------------|-----------------------------|
--------------------|--------------------|--0--0--0--0--0--0--0--0--0--|
--8-----------------|--7--0--------------|--0--0--0--0--0--0--0--0--0--|
-----8--7--8--7--8--|--------3--7--3--7--|--0--0--0--0--0--0--0--0--0--|


  PM PM PM PM PM PM PM PM PM          PM PM PM PM            PM  PM PM  PM  
  S  S  E  S  S  E  S  S  E     E  E  E  E  E  E      E   E  E   E  E   E   
-----------------------------|--------------------|------------------------|
-----------------------------|--------------------|------------------------|
-----------------------------|--------------------|------------------------|
--0--0--0--0--0--0--0--0--0--|--------------------|------------------------|
--0--0--0--0--0--0--0--0--0--|--8-----------------|--10--------------------|
--0--0--0--0--0--0--0--0--0--|-----8--7--8--7--8--|------10--8--10--8--10--|


  PM PM PM PM PM PM PM PM PM    PM PM PM PM PM PM PM PM PM  
  S  S  E  S  S  E  S  S  E     S  S  E  S  S  E  S  S  E   
-----------------------------|-----------------------------|
-----------------------------|-----------------------------|
-----------------------------|-----------------------------|
--0--0--0--0--0--0--0--0--0--|--0--0--0--0--0--0--0--0--0--|
--0--0--0--0--0--0--0--0--0--|--0--0--0--0--0--0--0--0--0--|
--0--0--0--0--0--0--0--0--0--|--0--0--0--0--0--0--0--0--0--|


        PM PM PM PM          PM PM PM PM    PM PM PM PM PM PM PM PM PM  
  E  E  E  E  E  E     E  E  E  E  E  E     S  S  E  S  S  E  S  S  E   
--------------------|--------------------|-----------------------------|
--------------------|--------------------|-----------------------------|
--------------------|--------------------|-----------------------------|
--------------------|--------------------|--0--0--0--0--0--0--0--0--0--|
--8-----------------|--7--0--------------|--0--0--0--0--0--0--0--0--0--|
-----8--7--8--7--8--|--------3--7--3--7--|--0--0--0--0--0--0--0--0--0--|


  PM PM PM PM PM PM PM PM PM                   PM PM PM    PM  
  S  S  E  S  S  E  S  S  E                 E  E  E  E  E  E   
-----------------------------|-----|-----|--------------------|
-----------------------------|-----|-----|--------------------|
-----------------------------|-----|-----|--------------------|
--0--0--0--0--0--0--0--0--0--|-pickslide-|--------------------|
--0--0--0--0--0--0--0--0--0--|-----|-----|--8-----------8-----|
--0--0--0--0--0--0--0--0--0--|-----|-----|-----8--7--8-----8--|


     PM PM PM    PM       PM PM PM    PM       PM PM PM    PM  
  E  E  E  E  E  E     E  E  E  E  E  E     E  E  E  E  E  E   
--------------------|--------------------|--------------------|
--------------------|--------------------|--------------------|
--------------------|--------------------|--------------------|
--------------------|--------------------|--------------------|
--8-----------8-----|--7-----------7-----|--7-----------7-----|
-----8--7--8-----8--|-----7--5--7-----7--|-----7--5--7-----7--|


     PM PM PM    PM       PM PM PM    PM       PM PM PM    PM  
  E  E  E  E  E  E     E  E  E  E  E  E     E  E  E  E  E  E   
--------------------|--------------------|--------------------|
--------------------|--------------------|--------------------|
--------------------|--------------------|--------------------|
--------------------|--------------------|--------------------|
--7-----------7-----|--7-----------7-----|--5-----------5-----|
-----7--3--7-----7--|-----7--3--7-----7--|-----3--0--3-----3--|


     PM PM PM    PM       PM PM PM    PM       PM PM PM    PM  
  E  E  E  E  E  E     E  E  E  E  E  E     E  E  E  E  E  E   
--------------------|--------------------|--------------------|
--------------------|--------------------|--------------------|
--------------------|--------------------|--------------------|
--------------------|--------------------|--------------------|
--5-----------5-----|--8-----------8-----|--8-----------8-----|
-----3--0--3-----3--|-----8--7--8-----8--|-----8--7--8-----8--|


       PM PM PM    PM         PM PM PM    PM       PM    PM    PM  
   E   E  E  E  E  E      E   E  E  E  E  E     E  E  E  E  E  E   
----------------------|----------------------|--------------------|
----------------------|----------------------|--------------------|
----------------------|----------------------|--------------------|
----------------------|----------------------|--------------------|
--10------------8-----|--10------------8-----|--------------------|
------10--7--8-----8--|------10--7--8-----8--|--8--0--7--0--0--0--|


     PM    PM     PM       PM     PM         PM PM PM PM PM PM PM PM PM  
  E  E  E  E   E  E     E  E   E  E  Q       S  S  E  S  S  E  S  S  E   
---------------------|--------------------|-----------------------------|
---------------------|--------------------|-----------------------------|
---------------------|--------------------|-----------------------------|
---------------------|--------------------|--0--0--0--0--0--0--0--0--0--|
---------------------|---------------5----|--0--0--0--0--0--0--0--0--0--|
--7--0--8--0--10--0--|--8--0--10--0-------|--0--0--0--0--0--0--0--0--0--|


     PM PM PM    PM       PM PM PM    PM       PM PM PM    PM  
  E  E  E  E  E  E     E  E  E  E  E  E     E  E  E  E  E  E   
--------------------|--------------------|--------------------|
--------------------|--------------------|--------------------|
--------------------|--------------------|--------------------|
--------------------|--------------------|--------------------|
--8-----------8-----|--8-----------8-----|--7-----------7-----|
-----8--7--8-----8--|-----8--7--8-----8--|-----7--5--7-----7--|


     PM PM PM    PM       PM PM PM    PM       PM PM PM    PM  
  E  E  E  E  E  E     E  E  E  E  E  E     E  E  E  E  E  E   
--------------------|--------------------|--------------------|
--------------------|--------------------|--------------------|
--------------------|--------------------|--------------------|
--------------------|--------------------|--------------------|
--7-----------7-----|--7-----------7-----|--7-----------7-----|
-----7--5--7-----7--|-----7--3--7-----7--|-----7--3--7-----7--|


     PM PM PM    PM       PM PM PM    PM       PM PM PM    PM  
  E  E  E  E  E  E     E  E  E  E  E  E     E  E  E  E  E  E   
--------------------|--------------------|--------------------|
--------------------|--------------------|--------------------|
--------------------|--------------------|--------------------|
--------------------|--------------------|--------------------|
--5-----------5-----|--5-----------5-----|--8-----------8-----|
-----3--0--3-----3--|-----3--0--3-----3--|-----8--7--8-----8--|


     PM PM PM    PM         PM PM PM    PM         PM PM PM    PM  
  E  E  E  E  E  E      E   E  E  E  E  E      E   E  E  E  E  E   
--------------------|----------------------|----------------------|
--------------------|----------------------|----------------------|
--------------------|----------------------|----------------------|
--------------------|----------------------|----------------------|
--8-----------8-----|--10------------8-----|--10------------8-----|
-----8--7--8-----8--|------10--7--8-----8--|------10--7--8-----8--|


     PM    PM    PM       PM    PM          PM PM    PM     PM  
  E  E  E  E  E  E     E  E  E  E   Q       E  E  E  E   E  E   
--------------------|--------------------|---------------------|
--------------------|--------------------|---------------------|
--------------------|--------------------|---------------------|
--------------------|--------------------|---------------------|
--------------------|--------------------|---------------------|
--8--0--7--0--0--0--|--7--0--8--0--10----|--0--0--8--0--10--0--|


     PM    PM                               PM    PM           
  E  E  E  E  Q                       E  E  E  E  E  E  E  E   
-------------------|-------|-------|--------------------------|
-------------------|-------|-------|--------------------------|
-------------------|-------|-------|--5--------------------0--|
-------------------|-------|-------|-----7-----5-----3--3--L--|
--8-----7-----5----|-------|-------|--------------------------|
-----0-----0-------|-------|-------|--------0-----0-----------|


  PM    PM    PM                   PM    PM    PM PM  
  E  E  E  E  E  E  E  E     E  E  E  E  E  E  E  E   
--------------------------|--------------------------|
--------------------------|--------------------------|
-----7-----5--------------|--5-----------------------|
--3-----3-----3--5--------|-----7-----5-----3--3--5--|
--------------------8--7--|--------------------------|
--------------------------|--------0-----0-----------|


        PM    PM PM PM       PM PM PM PM PM PM PM PM PM PM PM PM PM PM PM PM  
  E  E  E  E  E  E  E  E     S  S  S  S  S  S  S  S  S  S  S  S  S  S  S  S   
--------------------------|--------------------------------------------------|
--3--L-----5--------------|--------------------------------------------------|
--------------------------|--------------------------------------------------|
-----5--3-----------3--5--|--------------------------------------------------|
--------------3--5--------|--------------------------------------------------|
--------------------------|--3--3--3--3--3--3--3--3--3--3--3--3--3--3--3--3--|


                      PM PM PM PM PM PM PM PM PM PM PM PM PM PM PM PM  
  W                   S  S  S  S  S  S  S  S  S  S  S  S  S  S  S  S   
-------------------|--------------------------------------------------|
-------------------|--------------------------------------------------|
-------------------|--------------------------------------------------|
--3----------------|--------------------------------------------------|
--3----------------|--4--4--4--4--4--4--4--4--4--4--4--4--4--4--4--4--|
--3----------------|--------------------------------------------------|


                      PM PM PM PM PM PM PM PM PM PM PM PM PM PM PM PM  
  W                   S  S  S  S  S  S  S  S  S  S  S  S  S  S  S  S   
-------------------|--------------------------------------------------|
-------------------|--------------------------------------------------|
--6----------------|--------------------------------------------------|
--6----------------|--------------------------------------------------|
--4----------------|--------------------------------------------------|
-------------------|--3--3--3--3--3--3--3--3--3--3--3--3--3--3--3--3--|


                      PM PM PM PM PM PM PM PM PM PM PM PM PM PM PM PM  
  W                   S  S  S  S  S  S  S  S  S  S  S  S  S  S  S  S   
-------------------|--------------------------------------------------|
-------------------|--------------------------------------------------|
-------------------|--------------------------------------------------|
--3----------------|--------------------------------------------------|
--3----------------|--------------------------------------------------|
--3----------------|--1--1--1--1--1--1--1--1--1--1--1--1--1--1--1--1--|


                      PM PM PM PM PM PM PM PM PM PM PM PM PM PM PM PM  
  W                   S  S  S  S  S  S  S  S  S  S  S  S  S  S  S  S   
-------------------|--------------------------------------------------|
-------------------|--------------------------------------------------|
-------------------|--------------------------------------------------|
--1----------------|--------------------------------------------------|
--1----------------|--------------------------------------------------|
--1----------------|--3--3--3--3--3--3--3--3--3--3--3--3--3--3--3--3--|


                      PM PM PM PM PM PM PM PM PM PM PM PM PM PM PM PM  
  W                   S  S  S  S  S  S  S  S  S  S  S  S  S  S  S  S   
-------------------|--------------------------------------------------|
-------------------|--------------------------------------------------|
-------------------|--------------------------------------------------|
--3----------------|--------------------------------------------------|
--3----------------|--4--4--4--4--4--4--4--4--4--4--4--4--4--4--4--4--|
--3----------------|--------------------------------------------------|


                      PM    PM    PM    PM       PM    PM    PM    PM     
  W                   E  E  E  E  E  E  E  E     E  E  E  E  E  E  E  E   
-------------------|--------------------------|--------------------------|
-------------------|--------------------------|--------------------------|
--6----------------|--------------------------|--------------------------|
--6----------------|--------------------------|-----5-----5-----6-----5--|
--4----------------|-----3-----3-----3-----3--|--3-----3-----3-----3-----|
-------------------|--3-----3-----3-----3-----|--------------------------|


  PM    PM    PM    PM       PM    PM    PM    PM     
  E  E  E  E  E  E  E  E     E  E  E  E  E  E  E  E   
--------------------------|--------------------------|
--------------------------|--------------------------|
--------------------------|--------------------------|
-----6-----6-----6-----6--|--------------------------|
--4-----4-----4-----4-----|-----1-----1-----1-----1--|
--------------------------|--1-----1-----1-----1-----|


  PM PM PM PM PM    PM       PM PM PM PM PM    PM PM          PM      PM        
  E  E  E  E  E  E  E  E     E  E  E  E  E  E  E  E     E  E  E  Q    E  E  E   
--------------------------|--------------------------|-------------------------|
--------------------------|--------------------------|-------------------------|
--------------------------|--------------------------|-------------------------|
--------------------------|--------------------------|-------------------------|
--------------------------|--------------------------|-------------------------|
--0--0--0--0--0--8--0--7--|--0--0--0--0--0--8--0--0--|--7--3--0--2----0--7--8--|


  PM    PM      PM            PM PM PM PM PM PM PM PM PM PM PM PM  
  E  E  E  Q    E    Q        S  S  E  S  S  E  S  S  E  S  S  E   
---------------------------|--------------------------------------|
---------------------------|--------------------------------------|
---------------------------|--------------------------------------|
-------------------/12\----|--0--0--0--0--0--0--0--0--0--0--0--0--|
-----8-----7-------/12\----|--0--0--0--0--0--0--0--0--0--0--0--0--|
--0-----0-------0--/12\----|--0--0--0--0--0--0--0--0--0--0--0--0--|


  PM PM PM PM PM PM PM PM PM PM PM PM    PM PM PM PM PM PM PM PM PM PM PM PM  
  S  S  E  S  S  E  S  S  E  S  S  E     S  S  E  S  S  E  S  S  E  S  S  E   
--------------------------------------|--------------------------------------|
--------------------------------------|--------------------------------------|
--------------------------------------|--------------------------------------|
--0--0--0--0--0--0--0--0--0--0--0--0--|--0--0--0--0--0--0--0--0--0--0--0--0--|
--0--0--0--0--0--0--0--0--0--0--0--0--|--0--0--0--0--0--0--0--0--0--0--0--0--|
--0--0--0--0--0--0--0--0--0--0--0--0--|--0--0--0--0--0--0--0--0--0--0--0--0--|


        PM      PM          PM    PM      PM       
  E  E  E  Q    E  E  E     E  E  E  Q    E  Q     
-------------------------|------------------------|
-------------------------|------------------------|
-------------------------|------------------------|
-------------------------|-------------------5----|
-------------------------|-----8-----7-------3----|
--7--3--0--2----0--7--8--|--0-----0-------0--2----|


  PM PM PM PM PM PM PM PM PM PM PM PM    PM PM PM PM PM PM PM PM PM PM PM PM  
  S  S  E  S  S  E  S  S  E  S  S  E     S  S  E  S  S  E  S  S  E  S  S  E   
--------------------------------------|--------------------------------------|
--------------------------------------|--------------------------------------|
--------------------------------------|--------------------------------------|
--0--0--0--0--0--0--0--0--0--0--0--0--|--0--0--0--0--0--0--0--0--0--0--0--0--|
--0--0--0--0--0--0--0--0--0--0--0--0--|--0--0--0--0--0--0--0--0--0--0--0--0--|
--0--0--0--0--0--0--0--0--0--0--0--0--|--0--0--0--0--0--0--0--0--0--0--0--0--|


  PM PM PM PM PM PM PM PM PM PM PM PM           PM      PM          
  S  S  E  S  S  E  S  S  E  S  S  E      E  E  E  Q    E   E   E   
--------------------------------------|----------------------------|
--------------------------------------|----------------------------|
--------------------------------------|----------------------------|
--0--0--0--0--0--0--0--0--0--0--0--0--|----------------------------|
--0--0--0--0--0--0--0--0--0--0--0--0--|----------------------------|
--0--0--0--0--0--0--0--0--0--0--0--0--|--10--7--0--5----0--10--12--|


  PM     PM       PM         PM PM PM PM PM PM PM PM PM PM PM PM  
  E   E  E   Q    E  Q       S  S  E  S  S  E  S  S  E  S  S  E   
--------------------------|--------------------------------------|
--------------------------|--------------------------------------|
--------------------------|--------------------------------------|
---------------------5----|--0--0--0--0--0--0--0--0--0--0--0--0--|
-----12-----10-------3----|--0--0--0--0--0--0--0--0--0--0--0--0--|
--0------0--------0--2----|--0--0--0--0--0--0--0--0--0--0--0--0--|


  PM PM PM PM PM PM PM PM PM PM PM PM    PM PM PM PM PM PM PM PM PM PM PM PM  
  S  S  E  S  S  E  S  S  E  S  S  E     S  S  E  S  S  E  S  S  E  S  S  E   
--------------------------------------|--------------------------------------|
--------------------------------------|--------------------------------------|
--------------------------------------|--------------------------------------|
--0--0--0--0--0--0--0--0--0--0--0--0--|--0--0--0--0--0--0--0--0--0--0--0--0--|
--0--0--0--0--0--0--0--0--0--0--0--0--|--0--0--0--0--0--0--0--0--0--0--0--0--|
--0--0--0--0--0--0--0--0--0--0--0--0--|--0--0--0--0--0--0--0--0--0--0--0--0--|


         PM      PM            PM     PM       PM                         
   E  E  E  Q    E   E   E     E   E  E   Q    E  Q       Q    Q    Q     
----------------------------|--------------------------|-----------------|
----------------------------|--------------------------|-----------------|
----------------------------|--------------------------|-----------------|
----------------------------|---------------------5----|--0--------------|
----------------------------|-----12-----10-------3----|--0--------------|
--10--7--0--5----0--10--12--|--0------0--------0--2----|--0--------------|


     PM PM PM    PM       PM PM PM    PM       PM PM PM    PM  
  E  E  E  E  E  E     E  E  E  E  E  E     E  E  E  E  E  E   
--------------------|--------------------|--------------------|
--------------------|--------------------|--------------------|
--------------------|--------------------|--------------------|
--------------------|--------------------|--------------------|
--8-----------8-----|--8-----------8-----|--7-----------7-----|
-----8--7--8-----8--|-----8--7--8-----8--|-----7--5--7-----7--|


     PM PM PM    PM       PM PM PM    PM       PM PM PM    PM  
  E  E  E  E  E  E     E  E  E  E  E  E     E  E  E  E  E  E   
--------------------|--------------------|--------------------|
--------------------|--------------------|--------------------|
--------------------|--------------------|--------------------|
--------------------|--------------------|--------------------|
--7-----------7-----|--7-----------7-----|--7-----------7-----|
-----7--5--7-----7--|-----7--3--7-----7--|-----7--3--7-----7--|


     PM PM PM    PM       PM PM PM    PM       PM PM PM    PM  
  E  E  E  E  E  E     E  E  E  E  E  E     E  E  E  E  E  E   
--------------------|--------------------|--------------------|
--------------------|--------------------|--------------------|
--------------------|--------------------|--------------------|
--------------------|--------------------|--------------------|
--5-----------5-----|--5-----------5-----|--8-----------8-----|
-----3--0--3-----3--|-----3--0--3-----3--|-----8--7--8-----8--|


     PM PM PM    PM         PM PM PM    PM         PM PM PM    PM  
  E  E  E  E  E  E      E   E  E  E  E  E      E   E  E  E  E  E   
--------------------|----------------------|----------------------|
--------------------|----------------------|----------------------|
--------------------|----------------------|----------------------|
--------------------|----------------------|----------------------|
--8-----------8-----|--10------------8-----|--10------------8-----|
-----8--7--8-----8--|------10--7--8-----8--|------10--7--8-----8--|


     PM    PM    PM       PM    PM     PM       PM     PM       
  E  E  E  E  E  E     E  E  E  E   E  E     E  E   E  E  Q     
--------------------|---------------------|--------------------|
--------------------|---------------------|--------------------|
--------------------|---------------------|--------------------|
--------------------|---------------------|--------------------|
--------------------|---------------------|---------------5----|
--8--0--7--0--0--0--|--7--0--8--0--10--0--|--8--0--10--0-------|


  PM PM PM PM PM PM PM PM PM       PM PM PM    PM       PM PM PM    PM  
  S  S  E  S  S  E  S  S  E     E  E  E  E  E  E     E  E  E  E  E  E   
-----------------------------|--------------------|--------------------|
-----------------------------|--------------------|--------------------|
-----------------------------|--------------------|--------------------|
--0--0--0--0--0--0--0--0--0--|--------------------|--------------------|
--0--0--0--0--0--0--0--0--0--|--8-----------8-----|--8-----------8-----|
--0--0--0--0--0--0--0--0--0--|-----8--7--8-----8--|-----8--7--8-----8--|


     PM PM PM    PM       PM PM PM    PM       PM PM PM    PM  
  E  E  E  E  E  E     E  E  E  E  E  E     E  E  E  E  E  E   
--------------------|--------------------|--------------------|
--------------------|--------------------|--------------------|
--------------------|--------------------|--------------------|
--------------------|--------------------|--------------------|
--7-----------7-----|--7-----------7-----|--7-----------7-----|
-----7--5--7-----7--|-----7--5--7-----7--|-----7--3--7-----7--|


     PM PM PM    PM       PM PM PM    PM       PM PM PM    PM  
  E  E  E  E  E  E     E  E  E  E  E  E     E  E  E  E  E  E   
--------------------|--------------------|--------------------|
--------------------|--------------------|--------------------|
--------------------|--------------------|--------------------|
--------------------|--------------------|--------------------|
--7-----------7-----|--5-----------5-----|--5-----------5-----|
-----7--3--7-----7--|-----3--0--3-----3--|-----3--0--3-----3--|


     PM PM PM    PM       PM PM PM    PM         PM PM PM    PM  
  E  E  E  E  E  E     E  E  E  E  E  E      E   E  E  E  E  E   
--------------------|--------------------|----------------------|
--------------------|--------------------|----------------------|
--------------------|--------------------|----------------------|
--------------------|--------------------|----------------------|
--8-----------8-----|--8-----------8-----|--10------------8-----|
-----8--7--8-----8--|-----8--7--8-----8--|------10--7--8-----8--|


       PM PM PM    PM       PM    PM    PM       PM    PM        
   E   E  E  E  E  E     E  E  E  E  E  E     E  E  E  E   Q     
----------------------|--------------------|--------------------|
----------------------|--------------------|--------------------|
----------------------|--------------------|--------------------|
----------------------|--------------------|--------------------|
--10------------8-----|--------------------|--------------------|
------10--7--8-----8--|--8--0--7--0--0--0--|--7--0--8--0--10----|


  PM PM    PM     PM       PM    PM         PM PM PM PM PM PM PM PM PM  
  E  E  E  E   E  E     E  E  E  E  Q       S  S  E  S  S  E  S  S  E   
---------------------|-------------------|-----------------------------|
---------------------|-------------------|-----------------------------|
---------------------|-------------------|-----------------------------|
---------------------|-------------------|--0--0--0--0--0--0--0--0--0--|
---------------------|--8-----7-----5----|--0--0--0--0--0--0--0--0--0--|
--0--0--8--0--10--0--|-----0-----0-------|--0--0--0--0--0--0--0--0--0--|


  PM PM PM PM PM PM PM PM PM    PM PM PM PM PM PM PM PM PM  
  S  S  E  S  S  E  S  S  E     S  S  E  S  S  E  S  S  E   
-----------------------------|-----------------------------|
-----------------------------|-----------------------------|
-----------------------------|-----------------------------|
--0--0--0--0--0--0--0--0--0--|--0--0--0--0--0--0--0--0--0--|
--0--0--0--0--0--0--0--0--0--|--0--0--0--0--0--0--0--0--0--|
--0--0--0--0--0--0--0--0--0--|--0--0--0--0--0--0--0--0--0--|


  PM PM PM PM PM PM PM PM PM                          
  S  S  E  S  S  E  S  S  E                           
-----------------------------|-----|-----|-----|-----|
-----------------------------|-----|-----|-----|-----|
-----------------------------|-----|-----|-----|-----|
--0--0--0--0--0--0--0--0--0--|-----|-----|-----|-----|
--0--0--0--0--0--0--0--0--0--|-----|-----|-----|-----|
--0--0--0--0--0--0--0--0--0--|-----|-----|-----|-----|


  PM PM PM PM PM PM PM PM PM    PM PM PM PM PM PM PM PM PM  
  S  S  E  S  S  E  S  S  E     S  S  E  S  S  E  S  S  E   
-----------------------------|-----------------------------|
-----------------------------|-----------------------------|
-----------------------------|-----------------------------|
--0--0--0--0--0--0--0--0--0--|--0--0--0--0--0--0--0--0--0--|
--0--0--0--0--0--0--0--0--0--|--0--0--0--0--0--0--0--0--0--|
--0--0--0--0--0--0--0--0--0--|--0--0--0--0--0--0--0--0--0--|


  PM PM PM PM PM PM PM PM PM    PM PM PM PM PM PM PM PM PM                    
  S  S  E  S  S  E  S  S  E     S  S  E  S  S  E  S  S  E                     
-----------------------------|-----------------------------|-----|-----|-----|
-----------------------------|-----------------------------|-----|-----|-----|
-----------------------------|-----------------------------|-----|-----|-----|
--0--0--0--0--0--0--0--0--0--|--0--0--0--0--0--0--0--0--0--|-----|-----|-----|
--0--0--0--0--0--0--0--0--0--|--0--0--0--0--0--0--0--0--0--|-----|-----|-----|
--0--0--0--0--0--0--0--0--0--|--0--0--0--0--0--0--0--0--0--|-----|-----|-----|


          PM PM PM PM PM PM PM PM PM    PM PM PM PM PM PM PM PM PM  
          S  S  E  S  S  E  S  S  E     S  S  E  S  S  E  S  S  E   
-----||------------------------------|-----------------------------|
-----||------------------------------|-----------------------------|
-----||*-----------------------------|-----------------------------|
-----||*--0--0--0--0--0--0--0--0--0--|--0--0--0--0--0--0--0--0--0--|
-----||---0--0--0--0--0--0--0--0--0--|--0--0--0--0--0--0--0--0--0--|
-----||---0--0--0--0--0--0--0--0--0--|--0--0--0--0--0--0--0--0--0--|


  PM PM PM PM PM PM PM PM PM    PM PM PM PM PM PM PM PM PM    
  S  S  E  S  S  E  S  S  E     S  S  E  S  S  E  S  S  E   8x
-----------------------------|------------------------------||
-----------------------------|------------------------------||
-----------------------------|-----------------------------*||
--0--0--0--0--0--0--0--0--0--|--0--0--0--0--0--0--0--0--0--*||
--0--0--0--0--0--0--0--0--0--|--0--0--0--0--0--0--0--0--0---||
--0--0--0--0--0--0--0--0--0--|--0--0--0--0--0--0--0--0--0---||


  PM PM PM               
  S  S  E  E  E  E  E    
-----------------------||
-----------------------||
-----------------------||
--0--0--0--------------||
--0--0--0--------------||
--0--0--0--------------||


Guitar 2

            PM    PM             PM    PM    PM           
      E  E  E  E  E  E  E  E     E  E  E  E  E  E  E  E   
D#||--------------------------|--------------------------|
A#||--------------------------|-----6-----5--------------|
F#||-----------------------3--|-----------------5--------|
C#||--7-----------------7--L--|--7-----7-----7-----7--5--|
G#||-----8-----7-----5--------|--------------------------|
C#||--------0-----0-----------|--------------------------|


        PM    PM    PM PM          PM     PM PM  PM      
  E  E  E  E  E  E  E  E     E  E  E  E   E  E   E   E   
--------------------------|-----------------------------|
--------------------------|--6--L-----8-----------------|
--------------------------|-----9-----------------------|
--7-----------------7--8--|--------7----------------10--|
-----8-----7-----5--------|------------------8--10------|
--------0-----0-----------|--------------10-------------|


        PM    PM             PM    PM    PM           
  E  E  E  E  E  E  E  E     E  E  E  E  E  E  E  E   
--------------------------|--------------------------|
--------------------------|-----6-----5--------------|
-----------------------3--|-----------------5--------|
--7-----------------7--L--|--7-----7-----7-----7--5--|
-----8-----7-----5--------|--------------------------|
--------0-----0-----------|--------------------------|


        PM    PM    PM PM          PM     PM PM  PM      
  E  E  E  E  E  E  E  E     E  E  E  E   E  E   E   E   
--------------------------|-----------------------------|
--------------------------|--6--L-----8-----------------|
--------------------------|-----9-----------------------|
--7-----------------7--8--|--------7----------------10--|
-----8-----7-----5--------|------------------8--10------|
--------0-----0-----------|--------------10-------------|


  PM PM PM PM PM PM PM PM PM          PM PM PM PM PM PM          PM PM PM PM  
  S  S  E  S  S  E  S  S  E     E  E  S  S  E  S  S  E     E  E  E  E  E  E   
-----------------------------|--------------------------|--------------------|
-----------------------------|--------------------------|--------------------|
-----------------------------|--------------------------|--------------------|
--0--0--0--0--0--0--0--0--0--|--------0--0--0--0--0--0--|--------------------|
--0--0--0--0--0--0--0--0--0--|--------0--0--0--0--0--0--|--8-----------------|
--0--0--0--0--0--0--0--0--0--|--------0--0--0--0--0--0--|-----8--7--8--7--8--|


        PM PM PM PM    PM PM PM PM PM PM PM PM PM          PM PM PM PM PM PM  
  E  E  E  E  E  E     S  S  E  S  S  E  S  S  E     E  E  S  S  E  S  S  E   
--------------------|-----------------------------|--------------------------|
--------------------|-----------------------------|--------------------------|
--------------------|-----------------------------|--------------------------|
--------------------|--0--0--0--0--0--0--0--0--0--|--------0--0--0--0--0--0--|
--7--0--------------|--0--0--0--0--0--0--0--0--0--|--------0--0--0--0--0--0--|
--------3--7--3--7--|--0--0--0--0--0--0--0--0--0--|--------0--0--0--0--0--0--|


        PM PM PM PM            PM  PM PM  PM    PM PM PM PM PM PM PM PM PM  
  E  E  E  E  E  E      E   E  E   E  E   E     S  S  E  S  S  E  S  S  E   
--------------------|------------------------|-----------------------------|
--------------------|------------------------|-----------------------------|
--------------------|------------------------|-----------------------------|
--------------------|------------------------|--0--0--0--0--0--0--0--0--0--|
--8-----------------|--10--------------------|--0--0--0--0--0--0--0--0--0--|
-----8--7--8--7--8--|------10--8--10--8--10--|--0--0--0--0--0--0--0--0--0--|


        PM PM PM PM PM PM          PM PM PM PM          PM PM PM PM  
  E  E  S  S  E  S  S  E     E  E  E  E  E  E     E  E  E  E  E  E   
--------------------------|--------------------|--------------------|
--------------------------|--------------------|--------------------|
--------------------------|--------------------|--------------------|
--------0--0--0--0--0--0--|--------------------|--------------------|
--------0--0--0--0--0--0--|--8-----------------|--7--0--------------|
--------0--0--0--0--0--0--|-----8--7--8--7--8--|--------3--7--3--7--|


  PM PM PM PM PM PM PM PM PM          PM PM PM PM PM PM          PM PM PM PM  
  S  S  E  S  S  E  S  S  E     E  E  S  S  E  S  S  E     E  E  E  E  E  E   
-----------------------------|--------------------------|--------------------|
-----------------------------|--------------------------|--------------------|
-----------------------------|--------------------------|--------------------|
--0--0--0--0--0--0--0--0--0--|--------0--0--0--0--0--0--|--------------------|
--0--0--0--0--0--0--0--0--0--|--------0--0--0--0--0--0--|--8-----------------|
--0--0--0--0--0--0--0--0--0--|--------0--0--0--0--0--0--|-----8--7--8--7--8--|


                      PM PM PM PM PM PM PM PM PM    PM PM PM PM PM PM PM PM PM  
    H         Q       S  S  E  S  S  E  S  S  E     S  S  E  S  S  E  S  S  E   
-------------------|-----------------------------|-----------------------------|
-------------------|-----------------------------|-----------------------------|
-------------------|-----------------------------|-----------------------------|
--/12\--------L----|--0--0--0--0--0--0--0--0--0--|--0--0--0--0--0--0--0--0--0--|
--/12\--------L----|--0--0--0--0--0--0--0--0--0--|--0--0--0--0--0--0--0--0--0--|
--/12\--------L----|--0--0--0--0--0--0--0--0--0--|--0--0--0--0--0--0--0--0--0--|


     PM PM PM PM PM       PM PM PM PM PM    PM PM PM PM PM PM PM PM PM  
  E  E  E  E  E  E     E  E  E  E  E  E     S  S  E  S  S  E  S  S  E   
--------------------|--------------------|-----------------------------|
--------------------|--------------------|-----------------------------|
--------------------|--------------------|-----------------------------|
--7-----------------|--5-----------------|--0--0--0--0--0--0--0--0--0--|
-----5--0--5--0--5--|-----3--0--3--0--3--|--0--0--0--0--0--0--0--0--0--|
--------------------|--------------------|--0--0--0--0--0--0--0--0--0--|


  PM PM PM PM PM PM PM PM PM          PM PM PM PM          PM PM PM PM  
  S  S  E  S  S  E  S  S  E     E  E  E  E  E  E     E  E  E  E  E  E   
-----------------------------|--------------------|--------------------|
-----------------------------|--------------------|--------------------|
-----------------------------|--------------------|--5-----------------|
--0--0--0--0--0--0--0--0--0--|--7-----------------|-----2--0--2--0--2--|
--0--0--0--0--0--0--0--0--0--|-----5--0--5--0--5--|--------------------|
--0--0--0--0--0--0--0--0--0--|--------------------|--------------------|


  PM PM PM PM PM PM PM PM PM    PM PM PM PM PM PM PM PM PM  
  S  S  E  S  S  E  S  S  E     S  S  E  S  S  E  S  S  E   
-----------------------------|-----------------------------|
-----------------------------|-----------------------------|
-----------------------------|-----------------------------|
--0--0--0--0--0--0--0--0--0--|--0--0--0--0--0--0--0--0--0--|
--0--0--0--0--0--0--0--0--0--|--0--0--0--0--0--0--0--0--0--|
--0--0--0--0--0--0--0--0--0--|--0--0--0--0--0--0--0--0--0--|


        PM PM PM PM          PM PM PM PM    PM PM PM PM PM PM PM PM PM  
  E  E  E  E  E  E     E  E  E  E  E  E     S  S  E  S  S  E  S  S  E   
--------------------|--------------------|-----------------------------|
--------------------|--------------------|-----------------------------|
--------------------|--------------------|-----------------------------|
--7-----------------|--5-----------------|--0--0--0--0--0--0--0--0--0--|
-----5--0--5--0--5--|-----3--0--3--0--3--|--0--0--0--0--0--0--0--0--0--|
--------------------|--------------------|--0--0--0--0--0--0--0--0--0--|


  PM PM PM PM PM PM PM PM PM       PM PM PM    PM       PM PM PM    PM  
  S  S  E  S  S  E  S  S  E     E  E  E  E  E  E     E  E  E  E  E  E   
-----------------------------|--------------------|--------------------|
-----------------------------|--------------------|--------------------|
-----------------------------|--------------------|--------------------|
--0--0--0--0--0--0--0--0--0--|--5-----------5-----|--7-----------7-----|
--0--0--0--0--0--0--0--0--0--|-----3--5--3-----3--|-----5--8--5-----5--|
--0--0--0--0--0--0--0--0--0--|--------------------|--------------------|


     PM PM PM    PM       PM PM PM    PM       PM PM PM    PM  
  E  E  E  E  E  E     E  E  E  E  E  E     E  E  E  E  E  E   
--------------------|--------------------|--------------------|
--------------------|--------------------|--------------------|
--------------------|--------------------|--------------------|
--7-----------7-----|--7-----------7-----|--5-----------5-----|
-----5--0--5-----5--|-----5--0--5-----5--|-----5--0--5-----5--|
--------------------|--------------------|--------------------|


     PM PM PM    PM       PM PM PM    PM       PM PM PM    PM  
  E  E  E  E  E  E     E  E  E  E  E  E     E  E  E  E  E  E   
--------------------|--------------------|--------------------|
--------------------|--------------------|--------------------|
--------------------|--------------------|--------------------|
--5-----------5-----|--5-----------5-----|--5-----------5-----|
-----5--0--5-----5--|-----3--0--3-----3--|-----3--0--3-----3--|
--------------------|--------------------|--------------------|


     PM PM PM    PM       PM PM PM    PM       PM PM PM    PM  
  E  E  E  E  E  E     E  E  E  E  E  E     E  E  E  E  E  E   
--------------------|--------------------|--------------------|
--------------------|--------------------|--------------------|
--------------------|--------------------|--------------------|
--------------------|--------------------|--7-----------7-----|
--8--5--0--5--8--5--|--8--5--0--5--8--5--|-----5--0--5-----5--|
--------------------|--------------------|--------------------|


     PM PM PM    PM        PM  PM PM     PM        PM  PM PM     PM  
  E  E  E  E  E  E      E  E   E  E   E  E      E  E   E  E   E  E   
--------------------|-----------------------|-----------------------|
--------------------|-----------------------|-----------------------|
--------------------|-----------------------|-----------------------|
--7-----------7-----|--10------------10-----|--10------------10-----|
-----5--0--5-----5--|------7------7------7--|------7------7------7--|
--------------------|---------10------------|---------10------------|


     PM    PM    PM       PM    PM    PM       PM    PM       
  E  E  E  E  E  E     E  E  E  E  E  E     E  E  E  E  Q     
--------------------|--------------------|-------------------|
--------------------|--------------------|-------------------|
--------------------|--------------------|-------------------|
--------------------|--------------------|--3----------------|
--7-----3-----0-----|--7-----3-----7-----|--------7-----5----|
-----0-----0-----0--|-----0-----0-----0--|-----0-----0-------|


  PM PM PM PM PM PM PM PM PM    PM PM PM PM PM PM PM PM PM  
  S  S  E  S  S  E  S  S  E     S  S  E  S  S  E  S  S  E   
-----------------------------|-----------------------------|
-----------------------------|-----------------------------|
-----------------------------|-----------------------------|
--0--0--0--0--0--0--0--0--0--|--0--0--0--0--0--0--0--0--0--|
--0--0--0--0--0--0--0--0--0--|--0--0--0--0--0--0--0--0--0--|
--0--0--0--0--0--0--0--0--0--|--0--0--0--0--0--0--0--0--0--|


  PM PM PM PM PM PM PM PM PM       PM PM PM PM PM       PM PM PM PM PM  
  S  S  E  S  S  E  S  S  E     E  E  E  E  E  E     E  E  E  E  E  E   
-----------------------------|--------------------|--------------------|
-----------------------------|--------------------|--------------------|
-----------------------------|--------------------|--------------------|
--0--0--0--0--0--0--0--0--0--|--7-----------------|--5-----------------|
--0--0--0--0--0--0--0--0--0--|-----5--0--5--0--5--|-----3--0--3--0--3--|
--0--0--0--0--0--0--0--0--0--|--------------------|--------------------|


  PM PM PM PM PM PM PM PM PM    PM PM PM PM PM PM PM PM PM  
  S  S  E  S  S  E  S  S  E     S  S  E  S  S  E  S  S  E   
-----------------------------|-----------------------------|
-----------------------------|-----------------------------|
-----------------------------|-----------------------------|
--0--0--0--0--0--0--0--0--0--|--0--0--0--0--0--0--0--0--0--|
--0--0--0--0--0--0--0--0--0--|--0--0--0--0--0--0--0--0--0--|
--0--0--0--0--0--0--0--0--0--|--0--0--0--0--0--0--0--0--0--|


        PM PM PM PM          PM PM PM PM    PM PM PM PM PM PM PM PM PM  
  E  E  E  E  E  E     E  E  E  E  E  E     S  S  E  S  S  E  S  S  E   
--------------------|--------------------|-----------------------------|
--------------------|--------------------|-----------------------------|
--------------------|--5-----------------|-----------------------------|
--7-----------------|-----2--0--2--0--2--|--0--0--0--0--0--0--0--0--0--|
-----5--0--5--0--5--|--------------------|--0--0--0--0--0--0--0--0--0--|
--------------------|--------------------|--0--0--0--0--0--0--0--0--0--|


  PM PM PM PM PM PM PM PM PM          PM PM PM PM          PM PM PM PM  
  S  S  E  S  S  E  S  S  E     E  E  E  E  E  E     E  E  E  E  E  E   
-----------------------------|--------------------|--------------------|
-----------------------------|--------------------|--------------------|
-----------------------------|--------------------|--------------------|
--0--0--0--0--0--0--0--0--0--|--7-----------------|--5-----------------|
--0--0--0--0--0--0--0--0--0--|-----5--0--5--0--5--|-----3--0--3--0--3--|
--0--0--0--0--0--0--0--0--0--|--------------------|--------------------|


  PM PM PM PM PM PM PM PM PM    PM PM PM PM PM PM PM PM PM              
  S  S  E  S  S  E  S  S  E     S  S  E  S  S  E  S  S  E               
-----------------------------|-----------------------------|-----|-----|
-----------------------------|-----------------------------|-----|-----|
-----------------------------|-----------------------------|-----|-----|
--0--0--0--0--0--0--0--0--0--|--0--0--0--0--0--0--0--0--0--|-pickslide-|
--0--0--0--0--0--0--0--0--0--|--0--0--0--0--0--0--0--0--0--|-----|-----|
--0--0--0--0--0--0--0--0--0--|--0--0--0--0--0--0--0--0--0--|-----|-----|


     PM PM PM    PM       PM PM PM    PM       PM PM PM    PM  
  E  E  E  E  E  E     E  E  E  E  E  E     E  E  E  E  E  E   
--------------------|--------------------|--------------------|
--------------------|--------------------|--------------------|
--------------------|--------------------|--------------------|
--7-----------7-----|--7-----------7-----|--5-----------5-----|
-----5--0--5-----5--|-----5--0--5-----5--|-----5--0--5-----5--|
--------------------|--------------------|--------------------|


     PM PM PM    PM       PM PM PM    PM       PM PM PM    PM  
  E  E  E  E  E  E     E  E  E  E  E  E     E  E  E  E  E  E   
--------------------|--------------------|--------------------|
--------------------|--------------------|--------------------|
--------------------|--------------------|--------------------|
--5-----------5-----|--5-----------5-----|--5-----------5-----|
-----5--0--5-----5--|-----3--0--3-----3--|-----3--0--3-----3--|
--------------------|--------------------|--------------------|


     PM PM PM    PM       PM PM PM    PM       PM PM PM    PM  
  E  E  E  E  E  E     E  E  E  E  E  E     E  E  E  E  E  E   
--------------------|--------------------|--------------------|
--------------------|--------------------|--------------------|
--------------------|--------------------|--------------------|
--------------------|--------------------|--7-----------7-----|
--8--5--0--5--8--5--|--8--5--0--5--8--5--|-----5--0--5-----5--|
--------------------|--------------------|--------------------|


     PM PM PM    PM        PM  PM PM     PM        PM  PM PM     PM  
  E  E  E  E  E  E      E  E   E  E   E  E      E  E   E  E   E  E   
--------------------|-----------------------|-----------------------|
--------------------|-----------------------|-----------------------|
--------------------|-----------------------|-----------------------|
--7-----------7-----|--10------------10-----|--10------------10-----|
-----5--0--5-----5--|------7------7------7--|------7------7------7--|
--------------------|---------10------------|---------10------------|


     PM    PM    PM       PM    PM    PM       PM    PM       
  E  E  E  E  E  E     E  E  E  E  E  E     E  E  E  E  Q     
--------------------|--------------------|-------------------|
--------------------|--------------------|-------------------|
--------------------|--------------------|-------------------|
--------------------|--------------------|--3----------------|
--7-----3-----0-----|--7-----3-----7-----|--------7-----5----|
-----0-----0-----0--|-----0-----0-----0--|-----0-----0-------|


  PM PM PM PM PM PM PM PM PM       PM PM PM    PM       PM PM PM    PM  
  S  S  E  S  S  E  S  S  E     E  E  E  E  E  E     E  E  E  E  E  E   
-----------------------------|--------------------|--------------------|
-----------------------------|--------------------|--------------------|
-----------------------------|--------------------|--------------------|
--0--0--0--0--0--0--0--0--0--|--7-----------7-----|--7-----------7-----|
--0--0--0--0--0--0--0--0--0--|-----5--0--5-----5--|-----5--0--5-----5--|
--0--0--0--0--0--0--0--0--0--|--------------------|--------------------|


     PM PM PM    PM       PM PM PM    PM       PM PM PM    PM  
  E  E  E  E  E  E     E  E  E  E  E  E     E  E  E  E  E  E   
--------------------|--------------------|--------------------|
--------------------|--------------------|--------------------|
--------------------|--------------------|--------------------|
--5-----------5-----|--5-----------5-----|--5-----------5-----|
-----5--0--5-----5--|-----5--0--5-----5--|-----3--0--3-----3--|
--------------------|--------------------|--------------------|


     PM PM PM    PM       PM PM PM    PM       PM PM PM    PM  
  E  E  E  E  E  E     E  E  E  E  E  E     E  E  E  E  E  E   
--------------------|--------------------|--------------------|
--------------------|--------------------|--------------------|
--------------------|--------------------|--------------------|
--5-----------5-----|--------------------|--------------------|
-----3--0--3-----3--|--8--5--0--5--8--5--|--8--5--0--5--8--5--|
--------------------|--------------------|--------------------|


     PM PM PM    PM       PM PM PM    PM        PM  PM PM     PM  
  E  E  E  E  E  E     E  E  E  E  E  E      E  E   E  E   E  E   
--------------------|--------------------|-----------------------|
--------------------|--------------------|-----------------------|
--------------------|--------------------|-----------------------|
--7-----------7-----|--7-----------7-----|--10------------10-----|
-----5--0--5-----5--|-----5--0--5-----5--|------7------7------7--|
--------------------|--------------------|---------10------------|


      PM  PM PM     PM       PM    PM    PM       PM    PM       
   E  E   E  E   E  E     E  E  E  E  E  E     E  E  E  E  Q     
-----------------------|--------------------|-------------------|
-----------------------|--------------------|-------------------|
-----------------------|--------------------|-------------------|
--10------------10-----|--------------------|-------------------|
------7------7------7--|--7-----3-----0-----|--7-----3-----7----|
---------10------------|-----0-----0-----0--|-----0-----0-------|


  PM PM    PM    PM       PM    PM               PM    PM           
  E  E  E  E  E  E     E  E  E  E  Q       E  E  E  E  E  E  E  E   
--------------------|-------------------|--------------------------|
--------------------|-------------------|--------------------------|
--------------------|-------------------|-----------------------3--|
--------------------|--7-----5----------|--7-----------------7--L--|
--------7-----8-----|--------------8----|-----8-----7-----5--------|
--0--0-----0-----0--|-----0-----0-------|--------0-----0-----------|


  PM    PM    PM                   PM    PM           
  E  E  E  E  E  E  E  E     E  E  E  E  E  E  E  E   
--------------------------|--------------------------|
-----6-----5--------------|--------------------------|
-----------------5--------|-----------------------3--|
--7-----7-----7-----7--5--|--7-----------------7--L--|
--------------------------|-----8-----7-----5--------|
--------------------------|--------0-----0-----------|


  PM    PM    PM                   PM    PM    PM PM        
  E  E  E  E  E  E  E  E     E  E  E  E  E  E  E  E         
--------------------------|--------------------------|-p-s-|
-----6-----5--------------|--------------------------|-i-l-|
-----------------5--------|--------------------------|-c-i-|
--7-----7-----7-----7--5--|--7-----------------7--8--|-k-d-|
--------------------------|-----8-----7-----5--------|---e-|
--------------------------|--------0-----0-----------|-----|


   Q    E   H          E     E   H         Q     E      H         H         
--------------------------|-------------------------|----------------------|
--13----L-----------------|-------------------------|------------16--------|
-----------13--------/12--|--L--10------------------|----------------------|
--------------------------|---------------10----11--|---L------------------|
--------------------------|-------------------------|----------------------|
--------------------------|-------------------------|----------------------|


   E   E   E   E   E   E   E   E     H        Q    E   S  S  
----------------------------------|-------------------------|
--18--16--------------------------|-------------------------|
----------17--------------15------|-------------------------|
--------------18--15--18------17--|--L--------L----L--------|
----------------------------------|-------------------10-12-|
----------------------------------|-------------------------|


   |---3---|   |---3---|   |---3---|   |---3---|   
   E   E   E   E   E   E   E   E   E   E   E   E   
--------------------------------------------------|
------------------------------------------13------|
----------------------12------13--12--13------13--|
------13------15----------13----------------------|
--13------13------15------------------------------|
--------------------------------------------------|


   |---3---|   |---3---|                 
   E   E   E   E   E   E   Q     E   E   
----------------------------------------|
--16------18--16--18--16--18------------|
------15------------------------17------|
------------------------------------15--|
----------------------------------------|
----------------------------------------|


                     |---3---|   |---3---|   
   S  S  E   E   E   E   E   E   E   E   E   
--------------------------------------------|
--------------------------------------------|
--18-17-15--17------18--17--15--------------|
----------------15--------------18--17--15--|
--------------------------------------------|
--------------------------------------------|


   |---3---|   |---3---|   |---3---|   |---3---|   
   E   E   E   E   E   E   E   E   E   E   E   E   
--------------------------------------------------|
----------------------11----------------------11--|
--13--12--10--12--13------13--12--10--12--13------|
--------------------------------------------------|
--------------------------------------------------|
--------------------------------------------------|


   |---3---|   |---3---|   |---3---|   |---3---|   
   E   E   E   E   E   E   E   E   E   E   E   E   
--------------------------------------------------|
--------------11--13--11--------------------------|
--13--12--13--------------13--12--13--15--13--12--|
--------------------------------------------------|
--------------------------------------------------|
--------------------------------------------------|


   H         S  S  S S  S  S S  S     S S  S  S S  S  S S  S S  S  S  S S  S S  
----------------------------------|--------------------------------------------|
----------------------------------|-------------9---------13-9-11-13-11-9----9-|
--13------------------------------|-----8-10-11---11-10-8-----------------12---|
---------------------8-10-11-8-10-|--11----------------------------------------|
------------10-11-13--------------|--------------------------------------------|
----------------------------------|--------------------------------------------|


   H         H             Q       E    E   E   E   E   E   
-----------------------|---------/20--/20------------------|
-----------------------|-------------------20--18----------|
--10--------15b--------|--15b----------------------17--17--|
-----------------------|-----------------------------------|
-----------------------|-----------------------------------|
-----------------------|-----------------------------------|


    H         E   E   E   E       H         E  S  E  S  E   
-----------------------------|-----------------------------|
-----------------------------|-----------------------------|
--/18--------18--20--15--17--|--/15--------15--L-17--L-15--|
-----------------------------|-----------------------------|
-----------------------------|-----------------------------|
-----------------------------|-----------------------------|


                                                  PM      PM        
    W                   W                   E  E  E  Q    E  E  E   
---------------------|-------------------|-------------------------|
---------------------|-------------------|-------------------------|
--/14----------------|--L----------------|-------------------------|
---------------------|-------------------|-------------------------|
---------------------|-------------------|-------------------------|
---------------------|-------------------|--7--3--0--2----0--7--8--|


  PM    PM      PM            PM PM PM PM PM PM PM PM PM PM PM PM  
  E  E  E  Q    E    Q        S  S  E  S  S  E  S  S  E  S  S  E   
---------------------------|--------------------------------------|
---------------------------|--------------------------------------|
---------------------------|--------------------------------------|
-------------------/12\----|--0--0--0--0--0--0--0--0--0--0--0--0--|
-----8-----7-------/12\----|--0--0--0--0--0--0--0--0--0--0--0--0--|
--0-----0-------0--/12\----|--0--0--0--0--0--0--0--0--0--0--0--0--|


  PM PM PM PM PM PM PM PM PM PM PM PM    PM PM PM PM PM PM PM PM PM PM PM PM  
  S  S  E  S  S  E  S  S  E  S  S  E     S  S  E  S  S  E  S  S  E  S  S  E   
--------------------------------------|--------------------------------------|
--------------------------------------|--------------------------------------|
--------------------------------------|--------------------------------------|
--0--0--0--0--0--0--0--0--0--0--0--0--|--0--0--0--0--0--0--0--0--0--0--0--0--|
--0--0--0--0--0--0--0--0--0--0--0--0--|--0--0--0--0--0--0--0--0--0--0--0--0--|
--0--0--0--0--0--0--0--0--0--0--0--0--|--0--0--0--0--0--0--0--0--0--0--0--0--|


        PM      PM          PM    PM      PM       
  E  E  E  Q    E  E  E     E  E  E  Q    E  Q     
-------------------------|------------------------|
-------------------------|------------------------|
-------------------------|------------------------|
-------------------------|-------------------5----|
-------------------------|-----8-----7-------3----|
--7--3--0--2----0--7--8--|--0-----0-------0--2----|


  PM PM PM PM PM PM PM PM PM PM PM PM    PM PM PM PM PM PM PM PM PM PM PM PM  
  S  S  E  S  S  E  S  S  E  S  S  E     S  S  E  S  S  E  S  S  E  S  S  E   
--------------------------------------|--------------------------------------|
--------------------------------------|--------------------------------------|
--------------------------------------|--------------------------------------|
--0--0--0--0--0--0--0--0--0--0--0--0--|--0--0--0--0--0--0--0--0--0--0--0--0--|
--0--0--0--0--0--0--0--0--0--0--0--0--|--0--0--0--0--0--0--0--0--0--0--0--0--|
--0--0--0--0--0--0--0--0--0--0--0--0--|--0--0--0--0--0--0--0--0--0--0--0--0--|


  PM PM PM PM PM PM PM PM PM PM PM PM          PM      PM        
  S  S  E  S  S  E  S  S  E  S  S  E     E  E  E  Q    E  E  E   
--------------------------------------|-------------------------|
--------------------------------------|-------------------------|
--------------------------------------|-------------------------|
--0--0--0--0--0--0--0--0--0--0--0--0--|-------------------------|
--0--0--0--0--0--0--0--0--0--0--0--0--|-------------------------|
--0--0--0--0--0--0--0--0--0--0--0--0--|--7--3--0--2----0--7--8--|


  PM    PM      PM         PM PM PM PM PM PM PM PM PM PM PM PM  
  E  E  E  Q    E  Q       S  S  E  S  S  E  S  S  E  S  S  E   
------------------------|--------------------------------------|
------------------------|--------------------------------------|
------------------------|--------------------------------------|
-------------------5----|--0--0--0--0--0--0--0--0--0--0--0--0--|
-----8-----7-------3----|--0--0--0--0--0--0--0--0--0--0--0--0--|
--0-----0-------0--2----|--0--0--0--0--0--0--0--0--0--0--0--0--|


  PM PM PM PM PM PM PM PM PM PM PM PM    PM PM PM PM PM PM PM PM PM PM PM PM  
  S  S  E  S  S  E  S  S  E  S  S  E     S  S  E  S  S  E  S  S  E  S  S  E   
--------------------------------------|--------------------------------------|
--------------------------------------|--------------------------------------|
--------------------------------------|--------------------------------------|
--0--0--0--0--0--0--0--0--0--0--0--0--|--0--0--0--0--0--0--0--0--0--0--0--0--|
--0--0--0--0--0--0--0--0--0--0--0--0--|--0--0--0--0--0--0--0--0--0--0--0--0--|
--0--0--0--0--0--0--0--0--0--0--0--0--|--0--0--0--0--0--0--0--0--0--0--0--0--|


        PM      PM          PM    PM      PM                         
  E  E  E  Q    E  E  E     E  E  E  Q    E  Q       Q    Q    Q     
-------------------------|------------------------|-----------------|
-------------------------|------------------------|-----------------|
-------------------------|------------------------|-----------------|
-------------------------|-------------------5----|--0--------------|
-------------------------|-----8-----7-------3----|--0--------------|
--7--3--0--2----0--7--8--|--0-----0-------0--2----|--0--------------|


     PM PM PM    PM       PM PM PM    PM       PM PM PM    PM  
  E  E  E  E  E  E     E  E  E  E  E  E     E  E  E  E  E  E   
--------------------|--------------------|--------------------|
--------------------|--------------------|--------------------|
--------------------|--------------------|--------------------|
--7-----------7-----|--7-----------7-----|--5-----------5-----|
-----5--0--5-----5--|-----5--0--5-----5--|-----5--0--5-----5--|
--------------------|--------------------|--------------------|


     PM PM PM    PM       PM PM PM    PM       PM PM PM    PM  
  E  E  E  E  E  E     E  E  E  E  E  E     E  E  E  E  E  E   
--------------------|--------------------|--------------------|
--------------------|--------------------|--------------------|
--------------------|--------------------|--------------------|
--5-----------5-----|--5-----------5-----|--5-----------5-----|
-----5--0--5-----5--|-----3--0--3-----3--|-----3--0--3-----3--|
--------------------|--------------------|--------------------|


     PM PM PM    PM       PM PM PM    PM       PM PM PM    PM  
  E  E  E  E  E  E     E  E  E  E  E  E     E  E  E  E  E  E   
--------------------|--------------------|--------------------|
--------------------|--------------------|--------------------|
--------------------|--------------------|--------------------|
--------------------|--------------------|--7-----------7-----|
--8--5--0--5--8--5--|--8--5--0--5--8--5--|-----5--0--5-----5--|
--------------------|--------------------|--------------------|


     PM PM PM    PM        PM  PM PM     PM        PM  PM PM     PM  
  E  E  E  E  E  E      E  E   E  E   E  E      E  E   E  E   E  E   
--------------------|-----------------------|-----------------------|
--------------------|-----------------------|-----------------------|
--------------------|-----------------------|-----------------------|
--7-----------7-----|--10------------10-----|--10------------10-----|
-----5--0--5-----5--|------7------7------7--|------7------7------7--|
--------------------|---------10------------|---------10------------|


     PM    PM    PM       PM    PM    PM       PM    PM       
  E  E  E  E  E  E     E  E  E  E  E  E     E  E  E  E  Q     
--------------------|--------------------|-------------------|
--------------------|--------------------|-------------------|
--------------------|--------------------|-------------------|
--------------------|--------------------|--3----------------|
--7-----3-----0-----|--7-----3-----7-----|--------7-----5----|
-----0-----0-----0--|-----0-----0-----0--|-----0-----0-------|


  PM PM PM PM PM PM PM PM PM       PM PM PM    PM       PM PM PM    PM  
  S  S  E  S  S  E  S  S  E     E  E  E  E  E  E     E  E  E  E  E  E   
-----------------------------|--------------------|--------------------|
-----------------------------|--------------------|--------------------|
-----------------------------|--------------------|--------------------|
--0--0--0--0--0--0--0--0--0--|--7-----------7-----|--7-----------7-----|
--0--0--0--0--0--0--0--0--0--|-----5--0--5-----5--|-----5--0--5-----5--|
--0--0--0--0--0--0--0--0--0--|--------------------|--------------------|


     PM PM PM    PM       PM PM PM    PM       PM PM PM    PM  
  E  E  E  E  E  E     E  E  E  E  E  E     E  E  E  E  E  E   
--------------------|--------------------|--------------------|
--------------------|--------------------|--------------------|
--------------------|--------------------|--------------------|
--5-----------5-----|--5-----------5-----|--5-----------5-----|
-----5--0--5-----5--|-----5--0--5-----5--|-----3--0--3-----3--|
--------------------|--------------------|--------------------|


     PM PM PM    PM       PM PM PM    PM       PM PM PM    PM  
  E  E  E  E  E  E     E  E  E  E  E  E     E  E  E  E  E  E   
--------------------|--------------------|--------------------|
--------------------|--------------------|--------------------|
--------------------|--------------------|--------------------|
--5-----------5-----|--------------------|--------------------|
-----3--0--3-----3--|--8--5--0--5--8--5--|--8--5--0--5--8--5--|
--------------------|--------------------|--------------------|


     PM PM PM    PM       PM PM PM    PM        PM  PM PM     PM  
  E  E  E  E  E  E     E  E  E  E  E  E      E  E   E  E   E  E   
--------------------|--------------------|-----------------------|
--------------------|--------------------|-----------------------|
--------------------|--------------------|-----------------------|
--7-----------7-----|--7-----------7-----|--10------------10-----|
-----5--0--5-----5--|-----5--0--5-----5--|------7------7------7--|
--------------------|--------------------|---------10------------|


      PM  PM PM     PM       PM    PM    PM       PM    PM       
   E  E   E  E   E  E     E  E  E  E  E  E     E  E  E  E  Q     
-----------------------|--------------------|-------------------|
-----------------------|--------------------|-------------------|
-----------------------|--------------------|-------------------|
--10------------10-----|--------------------|-------------------|
------7------7------7--|--7-----3-----0-----|--7-----3-----7----|
---------10------------|-----0-----0-----0--|-----0-----0-------|


  PM PM    PM    PM       PM    PM         PM PM PM PM PM PM PM PM PM  
  E  E  E  E  E  E     E  E  E  E  Q       S  S  E  S  S  E  S  S  E   
--------------------|-------------------|-----------------------------|
--------------------|-------------------|-----------------------------|
--------------------|-------------------|-----------------------------|
--------------------|--7-----5----------|--0--0--0--0--0--0--0--0--0--|
--------7-----8-----|--------------8----|--0--0--0--0--0--0--0--0--0--|
--0--0-----0-----0--|-----0-----0-------|--0--0--0--0--0--0--0--0--0--|


  PM PM PM PM PM PM PM PM PM    PM PM PM PM PM PM PM PM PM  
  S  S  E  S  S  E  S  S  E     S  S  E  S  S  E  S  S  E   
-----------------------------|-----------------------------|
-----------------------------|-----------------------------|
-----------------------------|-----------------------------|
--0--0--0--0--0--0--0--0--0--|--0--0--0--0--0--0--0--0--0--|
--0--0--0--0--0--0--0--0--0--|--0--0--0--0--0--0--0--0--0--|
--0--0--0--0--0--0--0--0--0--|--0--0--0--0--0--0--0--0--0--|


  PM PM PM PM PM PM PM PM PM                          
  S  S  E  S  S  E  S  S  E                           
-----------------------------|-----|-----|-----|-----|
-----------------------------|-----|-----|-----|-----|
-----------------------------|-----|-----|-----|-----|
--0--0--0--0--0--0--0--0--0--|-----|-----|-----|-----|
--0--0--0--0--0--0--0--0--0--|-----|-----|-----|-----|
--0--0--0--0--0--0--0--0--0--|-----|-----|-----|-----|


  PM PM PM PM PM PM PM PM PM    PM PM PM PM PM PM PM PM PM  
  S  S  E  S  S  E  S  S  E     S  S  E  S  S  E  S  S  E   
-----------------------------|-----------------------------|
-----------------------------|-----------------------------|
-----------------------------|-----------------------------|
--0--0--0--0--0--0--0--0--0--|--0--0--0--0--0--0--0--0--0--|
--0--0--0--0--0--0--0--0--0--|--0--0--0--0--0--0--0--0--0--|
--0--0--0--0--0--0--0--0--0--|--0--0--0--0--0--0--0--0--0--|


  PM PM PM PM PM PM PM PM PM    PM PM PM PM PM PM PM PM PM                    
  S  S  E  S  S  E  S  S  E     S  S  E  S  S  E  S  S  E                     
-----------------------------|-----------------------------|-----|-----|-----|
-----------------------------|-----------------------------|-----|-----|-----|
-----------------------------|-----------------------------|-----|-----|-----|
--0--0--0--0--0--0--0--0--0--|--0--0--0--0--0--0--0--0--0--|-----|-----|-----|
--0--0--0--0--0--0--0--0--0--|--0--0--0--0--0--0--0--0--0--|-----|-----|-----|
--0--0--0--0--0--0--0--0--0--|--0--0--0--0--0--0--0--0--0--|-----|-----|-----|


          PM PM PM PM PM PM PM PM PM    PM PM PM PM PM PM PM PM PM  
          S  S  E  S  S  E  S  S  E     S  S  E  S  S  E  S  S  E   
-----||------------------------------|-----------------------------|
-----||------------------------------|-----------------------------|
-----||*-----------------------------|-----------------------------|
-----||*--0--0--0--0--0--0--0--0--0--|--0--0--0--0--0--0--0--0--0--|
-----||---0--0--0--0--0--0--0--0--0--|--0--0--0--0--0--0--0--0--0--|
-----||---0--0--0--0--0--0--0--0--0--|--0--0--0--0--0--0--0--0--0--|


  PM PM PM PM PM PM PM PM PM    PM PM PM PM PM PM PM PM PM    
  S  S  E  S  S  E  S  S  E     S  S  E  S  S  E  S  S  E   8x
-----------------------------|------------------------------||
-----------------------------|------------------------------||
-----------------------------|-----------------------------*||
--0--0--0--0--0--0--0--0--0--|--0--0--0--0--0--0--0--0--0--*||
--0--0--0--0--0--0--0--0--0--|--0--0--0--0--0--0--0--0--0---||
--0--0--0--0--0--0--0--0--0--|--0--0--0--0--0--0--0--0--0---||


  PM PM PM               
  S  S  E  E  E  E  E    
-----------------------||
-----------------------||
-----------------------||
--0--0--0--------------||
--0--0--0--------------||
--0--0--0--------------||


Guitar 3

(Only During Chorus)

          H        Q       H        Q       H        Q       H        Q     
|----------------|----------------|----------------|----------------|
|----------------|----------------|----------------|----------------|
|----------------|----------------|----------------|----------------|
|--8--------L----|--L--------L----|--5--------L----|--L--------L----|
|--8--------L----|--L--------L----|--5--------L----|--L--------L----|
|--8--------L----|--L--------L----|--5--------L----|--L--------L----|


   H        Q       H        Q       H        Q       H        Q     
-----------------|----------------|----------------|----------------|
-----------------|----------------|----------------|----------------|
-----------------|----------------|----------------|----------------|
--10--------L----|--L--------L----|--0--------L----|--L--------L----|
--10--------L----|--L--------L----|--0--------L----|--L--------L----|
--10--------L----|--L--------L----|--0--------L----|--L--------L----|


  H        Q       H        Q        H        Q       H        Q             
----------------|----------------|-----------------|----------------|-------|
----------------|----------------|-----------------|----------------|-------|
----------------|----------------|-----------------|----------------|-------|
--8--------L----|--L--------L----|--10--------L----|--L--------L----|-------|
--8--------L----|--L--------L----|--10--------L----|--L--------L----|-------|
--8--------L----|--L--------L----|--10--------L----|--L--------L----|-------|


Duration Legend
---------------
W - whole
H - half
Q - quarter
E - 8th
S - 16th
T - 32nd
X - 64th
. - note dotted
|-n-|  - n-tuplets


Tablature Legend
----------------
L - tied note
x - dead note
g - grace note
(n) - ghost note
> - accentuded note
NH - natural harmonic
AH - artificial harmonic
TH - tapped harmonic
SH - semi harmonic
PH - pitch harmonic
h - hammer on
p - pull off
b - bend
br - bendRelease
pb - preBend
pbr - preBendRelease
brb - bendReleaseBend
\n/ - tremolo bar dip
\n - tremolo bar dive
-/n - tremolo bar Release up
/n\ - tremolo bar inverted dip
/n - tremolo bar return
-\n - tremolo bar Release down
S - shift slide
s - legato slide
/ -  slide into from below or out of upwards
\ -  slide into from above or out of downwards
~ - vibrato
W - wide vibrato
tr - trill
TP - tremolo picking
T - tapping
S - slap
P - pop
< - fade in
^ - brush up
v - brush down


That is all! I hope this helped, and be sure to check out my cover if you are
having problems with the tab. Thanks, oh and one last thing... ROCK OUT!!!!
comments
We did not receive enough feedback on this tab! Please rate:
print report bad tab
1 2 3 4 5
I want to post or [tab]
guest
You may want to rate the tab now too:
select rating
Please do not post tabs as comments. Select "correction" instead!