Oops, an error
Loading. Please wait.

Six Tab

12,636 views 1 this week
7 commentsread comments
1 2 3 4 5
accurate
x 4
Autoscroll
+/-
esc
set tempo
stop
Contributor
Difficulty
Tuning
intermediate
D A D G B E
Hey! There's an official Ultimate Guitar app which is ideal
for learning songs when you're away from computer. Get the app
WARNING: You are trying to view
                                    content from Ultimate-Guitar.com
                                    in an unauthorized application,
                                    which is prohibited.

                                    Please use an official Ultimate
                                    Guitar Tabs application for iPhone,
                                    iPad or Android to access legitimate
                                    chords, guitar, bass, and drum tabs
                                    from Ultimate-Guitar.com database.

                                    Type "ultimate guitar tabs" in Apple
                                    App Store's or Android Market's
                                    search to find the application.
Q=180
 4/4
  Gtr I
  Q  S S S S E E E E   Q  S S S S E E E E
|--------------------|--------------------|
|--------------------|--------------------|
|-3--------------5---|-5--------------5-7-|
|-3------------3---3-|-5------------5-----|
|-1--1-1-1-1-1-------|-3--3-3-3-3-3-------|
|--------------------|--------------------|
|
| Gtr II
| Q  H           Q     Q  H           Q
|--------------------|--------------------|
|--------------------|--------------------|
|-3------------------|-5------------------|
|-3------------------|-5------------------|
|-1------------------|-3------------------|
|--------------------|--------------------|


  PM      PM      PM        PM      PM      PM
  E  E  E E  E  E E  E    E E  E  E E  E  E E
|----------------------|-----------------------|
|----------------------|-----------------------|
|----------------------|-----------------------|
|------14------14------|-15------15------15----|
|---12------12------12-|------12------12-------|
|-0-------0-------0----|----0-------0-------0--|
|
| PM|     PM|     PM|       PM|     PM|     PM
| E  E  E E  E  E E  E    E E  E  E E  E  E E
|----------------------|-----------------------|
|----------------------|-----------------------|
|------12------12------|-14------14------14----|
|---10------10------10-|------10------10-------|
|----------------------|-----------------------|
|-0-------0-------0----|----0-------0-------0--|


  Gtr I
  Q  S S S S E  E  E  E    Q   S  S  S  S  E  E  E  E
|-----------------------|-----------------------------|
|-----------------------|-----------------------------|
|-3----------------5----|--5---------------------5--7-|
|-3-------------3-----3-|--5------------------5-------|
|-1--1-1-1-1-1----------|--3---3--3--3--3--3----------|
|-----------------------|-----------------------------|
|
| Gtr II
| Q  S S S S E  E  E  E    Q   S  S  S  S  E  E  E  E
|-----------------------|-----------------------------|
|-----------------13----|-----------------------13-15-|
|--------------10----10-|--------------------12-------|
|-8--8-8-8-8-8----------|-10--10-10-10-10-10----------|
|-----------------------|-----------------------------|
|-----------------------|-----------------------------|


  PM      PM      PM        PM      PM      PM
  E  E  E E  E  E E  E    E E  E  E E  E  E E
|----------------------|----------------------|
|----------------------|----------------------|
|----------------------|----------------------|
|------14------14------|-15------15------15---|
|---12------12------12-|------12------12------|
|-0-------0-------0----|----0-------0-------0-|
|
| PM|     PM|     PM|       PM|     PM|     PM
| E  E  E E  E  E E  E    E E  E  E E  E  E E
|----------------------|----------------------|
|----------------------|----------------------|
|------12------12------|-14------14------14---|
|---10------10------10-|------10------10------|
|----------------------|----------------------|
|-0-------0-------0----|----0-------0-------0-|


  Gtr I
  S S S S S S S S S S S S S S S S   S S S S S S S S S S S S S S S S
|---------------------------------|---------------------------------|
|---------------------------------|---------------------------------|
|-----------------5-5-5-5---------|-----------------7-7-7-7---------|
|---------3-3-3-3---------3-3-3-3-|---------5-5-5-5---------5-5-5-5-|
|-1-1-1-1-------------------------|-3-3-3-3-------------------------|
|---------------------------------|---------------------------------|
|
| Gtr II
| S S S S S S S S S S S S S S S S   S S S S S S S S S S S S S S S S
|---------------------------------|---------------------------------|
|---------------------------------|---------------------------------|
|-----------------5-5-5-5---------|-----------------7-7-7-7---------|
|---------3-3-3-3---------3-3-3-3-|-7-7-7-7-----------------5-5-5-5-|
|-1-1-1-1-------------------------|---------5-5-5-5-----------------|
|---------------------------------|---------------------------------|


  Gtr I
  S S S S S S S S S S S S S S S S
|---------------------------------|
|---------5-5-5-5-6-6-6-6-8-8-8-8-|
|---------------------------------|
|---------------------------------|
|-5-5-5-5-------------------------|
|---------------------------------|
|
| Gtr II
| S S S S S S S S S S S S S S S S
|---------------------------------|
|---------------------------------|
|---------------------------------|
|-0-0-0-0-5-5-5-5-7-7-7-7-8-8-8-8-|
|---------------------------------|
|---------------------------------|


                  ~
  S S S S S S S S H      S S S S S S S S S S S S S S S S
|----------------------|----------------------------------|
|-6-6-6-6-5-5-5-5-6----|----------------------------------|
|----------------------|-----------------5-5-5-5----------|
|----------------------|---------3-3-3-3---------3-3-3-3--|
|----------------------|-1-1-1-1--------------------------|
|----------------------|----------------------------------|
|
|                 ~
| S S S S S S S S H      S S S S S S S S S S S S S S S S
|----------------------|----------------------------------|
|----------------------|----------------------------------|
|----------------------|-----------------5-5-5-5----------|
|-7-7-7-7-5-5-5-5-7----|---------3-3-3-3---------3-3-3-3--|
|----------------------|-1-1-1-1--------------------------|
|----------------------|----------------------------------|


  Gtr I
  S S S S S S S S S S S S S S S S   S S S S S S S S S S S S S S S S
|---------------------------------|---------------------------------|
|---------------------------------|---------5-5-5-5-6-6-6-6-8-8-8-8-|
|-----------------7-7-7-7---------|---------------------------------|
|---------5-5-5-5---------5-5-5-5-|---------------------------------|
|-3-3-3-3-------------------------|-5-5-5-5-------------------------|
|---------------------------------|---------------------------------|
|
| Gtr II
| S S S S S S S S S S S S S S S S   S S S S S S S S S S S S S S S S
|---------------------------------|---------------------------------|
|---------------------------------|---------------------------------|
|-----------------7-7-7-7---------|---------------------------------|
|-7-7-7-7-----------------5-5-5-5-|-0-0-0-0-5-5-5-5-7-7-7-7-8-8-8-8-|
|---------5-5-5-5-----------------|---------------------------------|
|---------------------------------|---------------------------------|


  Gtr I
  S S S S S S S S S S S S S S S S   S S S S S S S S S S S S S S S S
|---------------------------------|---------------------------------|
|-6-6-6-6-5-5-5-5-3-3-3-3-1-1-1-1-|---------------------------------|
|---------------------------------|-----------------5-5-5-5---------|
|---------------------------------|---------3-3-3-3---------3-3-3-3-|
|---------------------------------|-1-1-1-1-------------------------|
|---------------------------------|---------------------------------|
|
| Gtr II
| S S S S S S S S S S S S S S S S   S S S S S S S S S S S S S S S S
|---------------------------------|---------------------------------|
|---------------------------------|---------------------------------|
|---------------------------------|-----------------5-5-5-5---------|
|-7-7-7-7-5-5-5-5-3-3-3-3-2-2-2-2-|---------3-3-3-3---------3-3-3-3-|
|---------------------------------|-1-1-1-1-------------------------|
|---------------------------------|---------------------------------|


  Gtr I
  S S S S S S S S S S S S S S S S
|---------------------------------|
|---------------------------------|
|-----------------7-7-7-7---------|
|---------5-5-5-5---------5-5-5-5-|
|-3-3-3-3-------------------------|
|---------------------------------|
|
|   Gtr II
| S S S S S S S S S S S S S S S S
|---------------------------------|
|---------------------------------|
|-----------------7-7-7-7---------|
|-7-7-7-7-----------------5-5-5-5-|
|---------5-5-5-5-----------------|
|---------------------------------|


                                                    ~
  S S S S S S S S S S S S S S S S   S S S S S S S S H
|---------------------------------|----------------------|
|---------5-5-5-5-6-6-6-6-8-8-8-8-|-6-6-6-6-5-5-5-5-6----|
|---------------------------------|----------------------|
|---------------------------------|----------------------|
|-5-5-5-5-------------------------|----------------------|
|---------------------------------|----------------------|
|
|                                                   ~
| S S S S S S S S S S S S S S S S   S S S S S S S S H
|---------------------------------|----------------------|
|---------------------------------|----------------------|
|---------------------------------|----------------------|
|-0-0-0-0-5-5-5-5-7-7-7-7-8-8-8-8-|-7-7-7-7-5-5-5-5-7----|
|---------------------------------|----------------------|
|---------------------------------|----------------------|


  Gtr I
  S S S S S S S S S S S S S S S S   S S S S S S S S S S S S S S S S
|---------------------------------|---------------------------------|
|---------------------------------|---------------------------------|
|-----------------5-5-5-5---------|-----------------7-7-7-7---------|
|---------3-3-3-3---------3-3-3-3-|---------5-5-5-5---------5-5-5-5-|
|-1-1-1-1-------------------------|-3-3-3-3-------------------------|
|---------------------------------|---------------------------------|
|
| Gtr II
| S S S S S S S S S S S S S S S S   S S S S S S S S S S S S S S S S
|---------------------------------|---------------------------------|
|---------------------------------|---------------------------------|
|-----------------5-5-5-5---------|-----------------7-7-7-7---------|
|---------3-3-3-3---------3-3-3-3-|-7-7-7-7-----------------5-5-5-5-|
|-1-1-1-1-------------------------|---------5-5-5-5-----------------|
|---------------------------------|---------------------------------|


  Gtr I
                                                   ~
  S S S S S S S S S S S S S S S S    E E E E E E E E   E E S S E E E S S E
|---------------------------------|------------------|----------------------|
|---------5-5-5-5-6-6-6-6-8-8-8-8-|------------------|----------------------|
|---------------------------------|-10-9-7-5-7-5-3-2-|----------------------|
|---------------------------------|------------------|----------------------|
|-5-5-5-5-------------------------|------------------|----------------------|
|---------------------------------|------------------|-0-0-0-0-0-0-0-0-0-0--|
|
| Gtr II
| S S S S S S S S S S S S S S S S    E E E E E E E E   E E S S E E E S S E
|---------------------------------|------------------|----------------------|
|---------------------------------|------------------|----------------------|
|---------------------------------|--5-3-2-0-2-0-----|----------------------|
|-0-0-0-0-5-5-5-5-7-7-7-7-8-8-8-8-|--------------3-2-|----------------------|
|---------------------------------|------------------|----------------------|
|---------------------------------|------------------|-0-0-0-0-0-0-0-0-0-0--|


  Gtr I
  E E S S E E E E E   E E S S E E E S S E   E E S S E E E E E
|-------------------|---------------------|-------------------|
|-------------------|---------------------|-------------------|
|-------------0---2-|---------------------|-------------0---2-|
|-------------------|---------------------|-------------------|
|-------------------|---------------------|-------------------|
|-0-0-0-0-0-0---0---|-0-0-0-0-0-0-0-0-0-0-|-0-0-0-0-0-0---0---|
|
| Gtr II
| E E S S E E E E E   E E S S E E E S S E   E E S S E E E E E
|-------------------|---------------------|-------------------|
|-------------------|---------------------|-------------------|
|-------------0---2-|---------------------|-------------0---2-|
|-------------------|---------------------|-------------------|
|-------------------|---------------------|-------------------|
|-0-0-0-0-0-0---0---|-0-0-0-0-0-0-0-0-0-0-|-0-0-0-0-0-0---0---|


  Gtr I
  E E S S E E E S S E   E E S S E E E E E   E E S S E E E S S E
|---------------------|-------------------|----------------------|
|---------------------|-------------------|----------------------|
|---------------------|-------------------|----------------------|
|---------------------|-------------------|----------------------|
|---------------------|-------------7---8-|----------------------|
|-8-8-8-8-8-8-8-8-8-8-|-8-8-8-8-8-8---8---|-8-8-8-8-8-8-8-8-8-8--|
|
| Gtr II
| E E S S E E E S S E   E E S S E E E E E   E E S S E E E S S E
|---------------------|-------------------|----------------------|
|---------------------|-------------------|----------------------|
|---------------------|-------------------|----------------------|
|---------------------|-------------------|----------------------|
|---------------------|-------------7---8-|----------------------|
|-8-8-8-8-8-8-8-8-8-8-|-8-8-8-8-8-8---8---|-8-8-8-8-8-8-8-8-8-8--|


  Gtr I
  E E S S E E E E E   E E S S E E E S S E   E E S S E E E E E
|-------------------|---------------------|-------------------|
|-------------------|---------------------|-------------------|
|-------------------|---------------------|-------------0---2-|
|-------------------|---------------------|-------------------|
|-------------7---8-|---------------------|-------------------|
|-8-8-8-8-8-8---8---|-0-0-0-0-0-0-0-0-0-0-|-0-0-0-0-0-0---0---|
|
| Gtr II
| E E S S E E E E E   E E S S E E E S S E   E E S S E E E E E
|-------------------|---------------------|-------------------|
|-------------------|---------------------|-------------------|
|-------------------|---------------------|-------------0---2-|
|-------------------|---------------------|-------------------|
|-------------7---8-|---------------------|-------------------|
|-8-8-8-8-8-8---8---|-0-0-0-0-0-0-0-0-0-0-|-0-0-0-0-0-0---0---|


  Gtr I
  E E S S E E E S S E   E E S S E E E E E   E E S S E E E S S E
|---------------------|-------------------|----------------------|
|---------------------|-------------------|----------------------|
|---------------------|-------------0---2-|----------------------|
|---------------------|-------------------|----------------------|
|---------------------|-------------------|----------------------|
|-0-0-0-0-0-0-0-0-0-0-|-0-0-0-0-0-0---0---|-8-8-8-8-8-8-8-8-8-8--|
|
| Gtr II
| E E S S E E E S S E   E E S S E E E E E   E E S S E E E S S E
|---------------------|-------------------|----------------------|
|---------------------|-------------------|----------------------|
|---------------------|-------------0---2-|----------------------|
|---------------------|-------------------|----------------------|
|---------------------|-------------------|----------------------|
|-0-0-0-0-0-0-0-0-0-0-|-0-0-0-0-0-0---0---|-8-8-8-8-8-8-8-8-8-8--|


  Gtr I
  E E S S E E E E E   E E S S E E E S S E   E E S S E H       E E E E E E E E
|-------------------|---------------------|-----------------|-----------------|
|-------------------|---------------------|-----------------|-----------------|
|-------------------|---------------------|-----------------|-----------------|
|-------------------|---------------------|-----------------|-----------------|
|-------------7---8-|---------------------|-----------8\----|-7-5-7-0-0-7-5-7-|
|-8-8-8-8-8-8---8---|-8-8-8-8-8-8-8-8-8-8-|-8-8-8-8-8-8\----|-7-5-7-0-0-7-5-7-|
|
| Gtr II
| E E S S E E E E E   E E S S E E E S S E   E E S S E H       E E E E E E E E
|-------------------|---------------------|-----------------|-----------------|
|-------------------|---------------------|-----------------|-----------------|
|-------------------|---------------------|-----------------|-----------------|
|-------------------|---------------------|-----------------|-7-5-7-0-0-7-5-7-|
|-------------7---8-|---------------------|-----------8\----|-----------------|
|-8-8-8-8-8-8---8---|-8-8-8-8-8-8-8-8-8-8-|-8-8-8-8-8-8\----|-----------------|


  Gtr I
  E E E E S S E E E   E E E E E E E E   E E E E S S E E E   E E E E E E E E
|-------------------|-----------------|-------------------|-----------------|
|-------------------|-----------------|-------------------|-----------------|
|-------------------|-----------------|-------------------|-----------------|
|-------------------|-----------------|-------------------|-----------------|
|-0-0-0-0-0-0-0-0-0-|-7-5-7-0-0-7-5-7-|-0-0-0-0-0-0-0-0-0-|-7-5-7-0-0-7-5-7-|
|-0-0-0-0-0-0-0-0-0-|-7-5-7-0-0-7-5-7-|-0-0-0-0-0-0-0-0-0-|-7-5-7-0-0-7-5-7-|
|
| Gtr II
| E E E E S S E E E   E E E E E E E E   E E E E S S E E E   E E E E E E E E
|-------------------|-----------------|-------------------|-----------------|
|-------------------|-----------------|-------------------|-----------------|
|-------------------|-----------------|-------------------|-----------------|
|-0-0-0-0-0-0-0-0-0-|-7-5-7-0-0-7-5-7-|-0-0-0-0-0-0-0-0-0-|-7-5-7-0-0-7-5-7-|
|-------------------|-----------------|-------------------|-----------------|
|-------------------|-----------------|-------------------|-----------------|


  Gtr I
  E E E E S S E E E   E E E E E E E E
|-------------------|-----------------|
|-------------------|-----------------|
|-------------------|-----------------|
|-------------------|-----------------|
|-0-0-0-0-0-0-0-0-0-|-7-5-7-0-0-7-5-7-|
|-0-0-0-0-0-0-0-0-0-|-7-5-7-0-0-7-5-7-|
|
| Gtr II
| E E E E S S E E E   E E E E E E E E
|-------------------|-----------------|
|-------------------|-----------------|
|-------------------|-----------------|
|-0-0-0-0-0-0-0-0-0-|-7-5-7-0-0-7-5-7-|
|-------------------|-----------------|
|-------------------|-----------------|


  E E E E S S E E E   E E S S E E E S S E
|-------------------|---------------------|
|-------------------|---------------------|
|-------------------|---------------------|
|-------------------|---------------------|
|-0-0-0-0-0-0-0-0-0-|---------------------|
|-0-0-0-0-0-0-0-0-0-|-0-0-0-0-0-0-0-0-0-0-|
|
| E E E E S S E E E   E E S S E E E S S E
|-------------------|---------------------|
|-------------------|---------------------|
|-------------------|---------------------|
|-0-0-0-0-0-0-0-0-0-|---------------------|
|-------------------|---------------------|
|-------------------|-0-0-0-0-0-0-0-0-0-0-|


  Gtr I
  E E S S E E E E E   E E S S E E E S S E   E E S S E E E E E
|-------------------|---------------------|-------------------|
|-------------------|---------------------|-------------------|
|-------------0---2-|---------------------|-------------0---2-|
|-------------------|---------------------|-------------------|
|-------------------|---------------------|-------------------|
|-0-0-0-0-0-0---0---|-0-0-0-0-0-0-0-0-0-0-|-0-0-0-0-0-0---0---|
|
| Gtr II
| E E S S E E E E E   E E S S E E E S S E   E E S S E E E E E
|-------------------|---------------------|-------------------|
|-------------------|---------------------|-------------------|
|-------------0---2-|---------------------|-------------0---2-|
|-------------------|---------------------|-------------------|
|-------------------|---------------------|-------------------|
|-0-0-0-0-0-0---0---|-0-0-0-0-0-0-0-0-0-0-|-0-0-0-0-0-0---0---|


  Gtr I
  E E S S E E E S S E   E E S S E E E E E   E E S S E E E S S E
|---------------------|-------------------|----------------------|
|---------------------|-------------------|----------------------|
|---------------------|-------------------|----------------------|
|---------------------|-------------------|----------------------|
|---------------------|-------------7---8-|----------------------|
|-8-8-8-8-8-8-8-8-8-8-|-8-8-8-8-8-8---8---|-8-8-8-8-8-8-8-8-8-8--|
|
| Gtr II
| E E S S E E E S S E   E E S S E E E E E   E E S S E E E S S E
|---------------------|-------------------|----------------------|
|---------------------|-------------------|----------------------|
|---------------------|-------------------|----------------------|
|---------------------|-------------------|----------------------|
|---------------------|-------------7---8-|----------------------|
|-8-8-8-8-8-8-8-8-8-8-|-8-8-8-8-8-8---8---|-8-8-8-8-8-8-8-8-8-8--|


  Gtr I
  E E S S E E E E E   E E E   E E E E   E
|-------------------|---------------------|
|-------------------|---------------------|
|-------------------|-----2-----3---0-----|
|-------------------|---------------------|
|-------------7---8-|---------------------|
|-8-8-8-8-8-8---8---|-0-0-----0---0-----0-|
|
| Gtr II
| E E S S E E E E E   E E S S E E E S S E
|-------------------|---------------------|
|-------------------|---------------------|
|-------------------|---------------------|
|-------------------|---------------------|
|-------------7---8-|---------------------|
|-8-8-8-8-8-8---8---|-0-0-0-0-0-0-0-0-0-0-|


  E E E   E E E E E   E E E   E E E E   E
|-------------------|---------------------|
|-------------------|---------------------|
|-2---------0-0-0-2-|-----2-----3---0-----|
|-----3-------------|---------------------|
|-------------------|---------------------|
|---0-----0---------|-0-0-----0---0-----0-|
|
| E E S S E E E E E   E E S S E E E S S E
|-------------------|---------------------|
|-------------------|---------------------|
|-------------0---2-|---------------------|
|-------------------|---------------------|
|-------------------|---------------------|
|-0-0-0-0-0-0---0---|-0-0-0-0-0-0-0-0-0-0-|


    Gtr I
  E E E   E E E E E   E E E   E E E    E E
|-------------------|----------------------|
|-------------------|----------------------|
|-2---------2-0-----|----------------------|
|-----3---------3-2-|-----7-----8----------|
|-------------------|-----------------10---|
|---0-----0---------|-8-8-----8---8------8-|
|
| Gtr II
| E E S S E E E E E   E E S S E E S S  E E
|-------------------|----------------------|
|-------------------|----------------------|
|-------------0---2-|----------------------|
|-------------------|----------------------|
|-------------------|----------------------|
|-0-0-0-0-0-0---0---|-8-8-8-8-8-8-8-8--8-8-|


  E E E   E E E E E   E E E   E E E    E E
|-------------------|----------------------|
|-------------------|----------------------|
|-----------0-0-0-2-|----------------------|
|-7-----------------|-----7-----8----------|
|-----8-------------|-----------------10---|
|---8-----8---------|-8-8-----8---8------8-|
|
| E E S S E E E E E   E E S S E E S S  E E
|-------------------|----------------------|
|-------------------|----------------------|
|-------------------|----------------------|
|-------------------|----------------------|
|-------------7---8-|----------------------|
|-8-8-8-8-8-8---8---|-8-8-8-8-8-8-8-8--8-8-|


  Gtr I
  E E E   E E  E E E   E E E E E E E E   E E E E S S E E E   E E E E E E E E
|--------------------|-----------------|-------------------|-----------------|
|--------------------|-----------------|-------------------|-----------------|
|-----------2--0-----|-----------------|-------------------|-----------------|
|-7--------------3-2-|-----------------|-------------------|-----------------|
|-----8--------------|-7-5-7-0-0-7-5-7-|-0-0-0-0-0-0-0-0-0-|-7-5-7-0-0-7-5-7-|
|---8-----8----------|-7-5-7-0-0-7-5-7-|-0-0-0-0-0-0-0-0-0-|-7-5-7-0-0-7-5-7-|
|
| Gtr II
| E E S S E H          E E E E E E E E   E E E E S S E E E   E E E E E E E E
|--------------------|-----------------|-------------------|-----------------|
|--------------------|-----------------|-------------------|-----------------|
|--------------------|-----------------|-------------------|-----------------|
|--------------------|-7-5-7-0-0-7-5-7-|-0-0-0-0-0-0-0-0-0-|-7-5-7-0-0-7-5-7-|
|-----------8\-------|-----------------|-------------------|-----------------|
|-8-8-8-8-8-8\-------|-----------------|-------------------|-----------------|


  Gtr I
  E E E E S S E E E   E E E E E E E E   E E E E S S E E E   E E E E E E E E
|-------------------|-----------------|-------------------|-----------------|
|-------------------|-----------------|-------------------|-----------------|
|-------------------|-----------------|-------------------|-----------------|
|-------------------|-----------------|-------------------|-----------------|
|-0-0-0-0-0-0-0-0-0-|-7-5-7-0-0-7-5-7-|-0-0-0-0-0-0-0-0-0-|-7-5-7-0-0-------|
|-0-0-0-0-0-0-0-0-0-|-7-5-7-0-0-7-5-7-|-0-0-0-0-0-0-0-0-0-|-7-5-7-0-0-2-3-2-|
|
| Gtr II
| E E E E S S E E E   E E E E E E E E   E E E E S S E E E   E E E E E E E E
|-------------------|-----------------|-------------------|-----------------|
|-------------------|-----------------|-------------------|-----------------|
|-------------------|-----------------|-------------------|-----------------|
|-0-0-0-0-0-0-0-0-0-|-7-5-7-0-0-7-5-7-|-0-0-0-0-0-0-0-0-0-|-7-5-7-0-0-------|
|-------------------|-----------------|-------------------|-----------------|
|-------------------|-----------------|-------------------|-----------2-3-2-|


  Gtr I
  E E E E E E E E   E E E E E E E E   E E E E S S E E E   E E E E E E E E
|-----------------|-----------------|-------------------|------------------|
|-----------------|-----------------|-------------------|------------------|
|-----------------|-----------------|-------------------|------------------|
|-----------------|-----------------|-------------------|------------------|
|-0---------------|-7-5-7-0-0-7-5-7-|-0-0-0-0-0-0-0-0-0-|-7-5-7-0-0-7-5-7--|
|---5-3-2-0-2-3-5-|-7-5-7-0-0-7-5-7-|-0-0-0-0-0-0-0-0-0-|-7-5-7-0-0-7-5-7--|
|
| Gtr II
| E E E E E E E E   E E E E E E E E   E E E E S S E E E   E E E E E E E E
|-----------------|-----------------|-------------------|------------------|
|-----------------|-----------------|-------------------|------------------|
|-----------------|-----------------|-------------------|------------------|
|-----------------|-7-5-7-0-0-7-5-7-|-0-0-0-0-0-0-0-0-0-|-7-5-7-0-0-7-5-7--|
|-0---------------|-----------------|-------------------|------------------|
|---5-3-2-0-2-3-5-|-----------------|-------------------|------------------|


  Gtr I
  E E E E S S E E E   E E E E E E E E   E E E E S S E E E   E E E E E E E E
|-------------------|-----------------|-------------------|-----------------|
|-------------------|-----------------|-------------------|-----------------|
|-------------------|-----------------|-------------------|-----------------|
|-------------------|-----------------|-------------------|-----------------|
|-0-0-0-0-0-0-0-0-0-|-7-5-7-0-0-7-5-7-|-0-0-0-0-0-0-0-0-0-|-7-5-7-x-x-7-5-7-|
|-0-0-0-0-0-0-0-0-0-|-7-5-7-0-0-7-5-7-|-0-0-0-0-0-0-0-0-0-|-7-5-7-x-x-7-5-7-|
|
| Gtr II
| E E E E S S E E E   E E E E E E E E   E E E E S S E E E   E E E E E E E E
|-------------------|-----------------|-------------------|-----------------|
|-------------------|-----------------|-------------------|-----------------|
|-------------------|-----------------|-------------------|-----------------|
|-0-0-0-0-0-0-0-0-0-|-7-5-7-0-0-7-5-7-|-0-0-0-0-0-0-0-0-0-|-7-5-7-x-x-7-5-7-|
|-------------------|-----------------|-------------------|-----------------|
|-------------------|-----------------|-------------------|-----------------|


  Gtr IV
  W          E E  E  E  E   E  E E    E  E  E   E  E E  E   E
|----------|-----------------------|---------------------------|
|----------|------1-----3----------|--------1--(1)-3-----------|
|----------|-----------------------|---------------------------|
|----------|---3-(3)-3-(3)--3----3-|-(3)-3-(3)--3----3-(3)--3--|
|----------|-1-------------(1)-1---|--3-----------------3--(3)-|
|----------|-----------------------|---------------------------|


  E E E  E  E E  E  E   E E E  E  E E  E  E
|---------------------|---------------------|
|-----1-(1)-3---------|-----1-(1)-3---------|
|---------------------|---------------------|
|---3----3----3-(3)-3-|---3----3----3-(3)-3-|
|-5--------------5----|-5--------------5----|
|---------------------|---------------------|


  Gtr IV
  E E  E  E  E   E  E E    E  E  E   E  E E  E   E
|-----------------------|---------------------------|
|------1-----3----------|--------1--(1)-3-----------|
|-----------------------|---------------------------|
|---3-(3)-3-(3)--3----3-|-(3)-3-(3)--3----3-(3)--3--|
|-1-------------(1)-1---|--3-----------------3--(3)-|
|-----------------------|---------------------------|


  E E E  E  E E  E  E   E E E  E  E E  E  E
|---------------------|---------------------|
|-----1-(1)-3---------|-----1-(1)-3---------|
|---------------------|---------------------|
|---3----3----3-(3)-3-|---3----3----3-(3)-3-|
|-5--------------5----|-5--------------5----|
|---------------------|---------------------|


  Gtr III
  H          E   E   E  E    +E  Q      Q    Q      E
|-------------------------|----------------------------|
|-----------10--10--10-10-|-(10)-8---------------------|
|-------------------------|------------10----9------9--|
|-------------------------|----------------------------|
|-------------------------|----------------------------|
|-------------------------|----------------------------|
|
| Gtr IV
| E E  E  E  E   E   E  E     E  E  E   E  E E  E   E
|-------------------------|----------------------------|
|------1-----3------------|---------1--(1)-3-----------|
|-------------------------|----------------------------|
|---3-(3)-3-(3)--3------3-|--(3)-3-(3)--3----3-(3)--3--|
|-1-------------(1)--1----|---3-----------------3--(3)-|
|-------------------------|----------------------------|


   H         E  E  E  E   E E E  E  E Q.
|-----------------------|----------------------|
|-----------------------|----------------------|
|-10---------9-10--9--7-|-9-7-5--7--5-2--------|
|-----------------------|----------------------|
|-----------------------|----------------------|
|-----------------------|----------------------|
|
|  E E E  E  E  E  E  E   E E E  E  E E   E  E
|-----------------------|----------------------|
|------1-(1)-3----------|-----1-(1)-3----------|
|-----------------------|----------------------|
|----3----3-----3-(3)-3-|---3----3----3--(3)-3-|
|--5---------------5----|-5---------------5----|
|-----------------------|----------------------|


  Gtr III
  H          E   E   E  E    +E  Q      Q     Q      E
|-------------------------|-----------------------------|
|-----------10--10--10-10-|-(10)-8-----10----13-----10--|
|-------------------------|-----------------------------|
|-------------------------|-----------------------------|
|-------------------------|-----------------------------|
|-------------------------|-----------------------------|
|
| Gtr IV
| E E  E  E  E   E   E  E     E  E  E   E  E  E  E   E
|-------------------------|-----------------------------|
|------1-----3------------|---------1--(1)-3------------|
|-------------------------|-----------------------------|
|---3-(3)-3-(3)--3------3-|--(3)-3-(3)--3-----3-(3)--3--|
|-1-------------(1)--1----|---3------------------3--(3)-|
|-------------------------|-----------------------------|


   +H          E  E  E  E   +E   Q     Q    S  S  E  E
|-----------------------8-|-(8)-(8)---------------------|
|-(10)---------8-10--8----|-----------------------------|
|-------------------------|------9-----9----9-10--9--5--|
|-------------------------|-----------------------------|
|-------------------------|-----------------------------|
|-------------------------|-----------------------------|
|
|   E  E E  E  E  E  E  E    E   E  E  E  E E     E  E
|-------------------------|-----------------------------|
|--------1-(1)-3----------|---------1-(1)-3-------------|
|-------------------------|-----------------------------|
|------3----3-----3-(3)-3-|------3-----3----3----(3)-3--|
|---5----------------5----|--5--------------------5-----|
|-------------------------|-----------------------------|


  Gtr III
  H          E   E   E  E    +E  Q      Q    Q      E
|-------------------------|----------------------------|
|-----------10--10--10-10-|-(10)-8---------------------|
|-7-----------------------|------------10----9------9--|
|-------------------------|----------------------------|
|-------------------------|----------------------------|
|-------------------------|----------------------------|
|
|   Gtr IV
| E E  E  E  E   E   E  E     E  E  E   E  E E  E   E
|-------------------------|----------------------------|
|------1-----3------------|---------1--(1)-3-----------|
|-------------------------|----------------------------|
|---3-(3)-3-(3)--3------3-|------3-(3)--3----3-(3)--3--|
|-1-------------(1)--1----|---3-----------------3--(3)-|
|-------------------------|----------------------------|


   H         E  E  E  E   E E E  E  E Q.
|-----------------------|----------------------|
|-----------------------|----------------------|
|-10---------9-10--9--7-|-9-7-5--7--5-2--------|
|-----------------------|----------------------|
|-----------------------|----------------------|
|-----------------------|----------------------|
|
|  E E E  E  E  E  E  E   E E E  E  E E   E  E
|-----------------------|----------------------|
|------1-(1)-3----------|-----1-(1)-3----------|
|-----------------------|----------------------|
|----3----3-----3-(3)-3-|---3----3----3--(3)-3-|
|--5---------------5----|-5---------------5----|
|-----------------------|----------------------|


  Gtr III
  H          E   E   E  E    +E  Q      Q     Q      E
|-------------------------|-----------------------------|
|-----------10--10--10-10-|-(10)-8-----10----13-----10--|
|-------------------------|-----------------------------|
|-------------------------|-----------------------------|
|-------------------------|-----------------------------|
|-------------------------|-----------------------------|
|
|           Gtr IV
| E E  E  E  E   E   E  E     E  E  E   E  E  E  E   E
|-------------------------|-----------------------------|
|------1-----3------------|---------1--(1)-3------------|
|-------------------------|-----------------------------|
|---3-(3)-3-(3)--3------3-|------3-(3)--3-----3-(3)--3--|
|-3-------------(1)--1----|---3------------------3--(3)-|
|-------------------------|-----------------------------|


   +H          E  E  E  E   +E   Q     Q    S  S  E  E
|-----------------------8-|-(8)-(8)---------------------|
|-(10)---------8-10--8----|-----------------------------|
|-------------------------|------9-----9----9-10--9--5--|
|-------------------------|-----------------------------|
|-------------------------|-----------------------------|
|-------------------------|-----------------------------|
|
|   E  E E  E  E  E  E  E    E   E  E  E  E E     E  E
|-------------------------|-----------------------------|
|--------1-(1)-3----------|---------1-(1)-3-------------|
|-------------------------|-----------------------------|
|------3----3-----3-(3)-3-|------3-----3----3----(3)-3--|
|---5----------------5----|--5--------------------5-----|
|-------------------------|-----------------------------|


  Gtr I
  W           W            H.      E E   H      E  E  E   E
|----------|------------|--------------|--------------------|
|----------|------------|--------------|-------10-10-10--10-|
|----------|------------|------------5-|-7------------------|
|----------|------------|--------------|--------------------|
|----------|------------|--------------|--------------------|
|----------|------------|--------------|--------------------|
|
| Gtr II
| <
| W          +W           +W             H.          +E   E
|----------|------------|--------------|--------------------|
|----------|------------|--------------|--------------------|
|----------|------------|--------------|--------------------|
|-0--------|-(0)--------|-(0)----------|-0-----------(0)--2-|
|-0--------|-(0)--------|-(0)----------|-0-----------(0)--2-|
|-0--------|-(0)--------|-(0)----------|-0-----------(0)--2-|


   E  E E  E E E  E  E    E E  E E E  E E  E
|----------------------|----------------------|
|-----8----------------|----------------------|
|---------10---9-----9-|-10-9-10-x-x-10-9-10--|
|----------------------|----------------------|
|----------------------|----------------------|
|----------------------|----------------------|
|
| +H.            +E  E    E E  E E E  E E  E
|----------------------|----------------------|
|----------------------|----------------------|
|--------------------9-|-10-9-10-----10-9-10--|
|-(2)------------(2)-9-|-10-9-10-----10-9-10--|
|-(2)------------(2)-7-|--8-7--8-0-0--8-7--8--|
|-(2)------------(2)---|---------0-0----------|


  Gtr I
  H       E  E E E   W                W
|------------------|---------------|----------------|
|------------------|---------------|----------------|
|---------9-10-9-5-|-7-------------|--9-------------|
|------------------|---------------|----------------|
|------------------|---------------|----------------|
|------------------|---------------|----------------|
|
| Gtr II
| E E E E E  E E E   H.      +E  E   +H.      +E  E
|------------------|---------------|----------------|
|------------------|---------------|----------------|
|------------------|---------------|--------------9-|
|---------3--2-----|-0-------(0)-2-|-(2)------(2)-9-|
|-0-0-0-0------3-2-|-0-------(0)-2-|-(2)------(2)-7-|
|-0-0-0-0----------|-0-------(0)-2-|-(2)------(2)---|


  E  E E E E E E E   E E E E E S S E E   H      E  E  E   E
|--------0---1---3-|---1---0---0-1-0---|--------------------|
|-3--3-3---3---3---|-3---3-----------1-|-------10-10-10--10-|
|------------------|-------------------|-7------------------|
|------------------|-------------------|--------------------|
|------------------|-------------------|--------------------|
|------------------|-------------------|--------------------|
|
| Q    H       Q     W                   H.          +E   E
|------------------|-------------------|--------------------|
|------------------|-------------------|--------------------|
|-7\---------------|-------------------|--------------------|
|-7\---------------|-------------------|-0-----------(0)--2-|
|-5\---------------|-------------------|-0-----------(0)--2-|
|------------------|-------------------|-0-----------(0)--2-|


  Gtr I
  E  E E  E E E  E  E    E E  E E E  E E  E   H       E  E E E
|---------------------|---------------------|------------------|
|----8----------------|---------------------|------------------|
|--------10---9-----9-|-10-9-10-x-x-10-9-10-|---------9-10-9-5-|
|---------------------|---------------------|------------------|
|---------------------|---------------------|------------------|
|---------------------|---------------------|------------------|
|
| Gtr II
| H.            +E  E    E E  E E E  E E  E   E E E E E  E E E
|---------------------|---------------------|------------------|
|---------------------|---------------------|------------------|
|-------------------9-|-10-9-10-----10-9-10-|------------------|
|-2-------------(2)-9-|-10-9-10-----10-9-10-|---------3--2-----|
|-2-------------(2)-7-|--8-7--8-0-0--8-7--8-|-0-0-0-0------3-2-|
|-2-------------(2)---|---------0-0---------|-0-0-0-0----------|


  W               W               E  E E E E E E E
|---------------|---------------|--------0---1---3--|
|---------------|---------------|-3--3-3---3---3----|
|-7-------------|-9-------------|-------------------|
|---------------|---------------|-------------------|
|---------------|---------------|-------------------|
|---------------|---------------|-------------------|
|
| H.      +E  E   H.      +E  E   Q    H       Q
|---------------|---------------|-------------------|
|---------------|---------------|-------------------|
|---------------|-------------9-|-7\----------------|
|-0-------(0)-2-|-2-------(2)-9-|-7\----------------|
|-0-------(0)-2-|-2-------(2)-7-|-5\----------------|
|-0-------(0)-2-|-2-------(2)---|-------------------|


  Gtr I
                       ~~~
                              |-3--|
  E E E E E S S E E    H      E E  E  Q
|---1---0---0-1-0---|------------------------|
|-3---3-----------1-|-10-----10-8-----8b10r==|
|-------------------|-------------10---------|
|-------------------|------------------------|
|-------------------|------------------------|
|-------------------|------------------------|
|
| Gtr II
| W                    H.            +E    E
|-------------------|------------------------|
|-------------------|------------------------|
|-------------------|------------------------|
|-------------------|--0-------------(0)---2-|
|-------------------|--0-------------(0)---2-|
|-------------------|--0-------------(0)---2-|


                            ~~
                                 |---3---|  |---3----|  |---3----|
  +E   E E  E E  E  E  E    Q    E  E    E  E  E     E  E  E     E
|-------------8----------|------17-15---13--------------------------|
|-(8)----8-10---10--8----|-----------------17-15----13--------------|
|-----10---------------9-|-10--------------------------15-14----12--|
|------------------------|------------------------------------------|
|------------------------|------------------------------------------|
|------------------------|------------------------------------------|
|
|  H.              +E  E    E E  E    E     E     E     E     E
|------------------------|------------------------------------------|
|------------------------|------------------------------------------|
|----------------------9-|-10-9-10---------------10-----9----10-----|
|--2---------------(2)-9-|-10-9-10---------------10-----9----10-----|
|--2---------------(2)-7-|--8-7--8----0-----0-----8-----7-----8-----|
|--2---------------(2)---|------------0-----0-----------------------|


  Gtr I
   |---3---|  |---3---|  |---3---|  |---3---|
   E  E    E  E  E    E  E  E    E  E  E    E
|---------------------------------------------|
|---------------------------------------------|
|---------------------------------------------|
|-15-14---12----------------------------------|
|------------15-13---12-----------------------|
|-----------------------15-14---12-10-12---14-|
|
| Gtr II
|  E    E     E    E     E    E     E    E
|---------------------------------------------|
|---------------------------------------------|
|---------------------------------------------|
|------------------------3----2---------------|
|--0----0-----0----0----------------3----2----|
|--0----0-----0----0--------------------------|


      |--3--|  |--3--|  |--3---|    |--3--| |--3--| |-3-|  |---3---|
  Q   E  E  E  E  E  E  E  E   E    E  E  E E  E  E E E E  E  E    E
|--------------------------------|------------------------------------|
|--------------------------------|------------------------------------|
|--------------------------------|------------------------------------|
|--------------------------------|------------------5-7-8--7--8---10--|
|-----------------------5--7---8-|--7--8-10-8-10-12-------------------|
|-8---8-10-12-10-12-14-----------|------------------------------------|
|
| H.                   +E    E     +H.                    +E    E
|--------------------------------|------------------------------------|
|--------------------------------|------------------------------------|
|--------------------------------|------------------------------9-----|
|-0--------------------(0)---2---|-(2)--------------------(2)---9-----|
|-0--------------------(0)---2---|-(2)--------------------(2)---7-----|
|-0--------------------(0)---2---|-(2)--------------------(2)---------|


  Gtr I
                                           ~~~~
                           |----3----|
   Q    E  Q    E  E  E    Q    Q    Q     H
|-----------------------|---------------------------|
|-17---18-15---15-17-18-|-20---18---17---[18]-------|
|-----------------------|---------------------------|
|-14---15-12---12-14-15-|-17---15---14----15--------|
|-----------------------|---------------------------|
|-----------------------|---------------------------|
|
| Gtr II
|  E E  E  E E  E  E  E    E E    E    E   E  E E E
|-----------------------|---------------------------|
|-----------------------|---------------------------|
|-10-9-10------10--9-10-|---------------------------|
|-10-9-10------10--9-10-|------------------3--2-----|
|--8-7--8--0-0--8--7--8-|--0-0----0----0--------3-2-|
|----------0-0----------|--0-0----0----0------------|


   Q    H       Q     W                   E E E E E E E E
|-------------------|-------------------|-----------------|
|-18\---------------|-------------------|-----------------|
|-------------------|-------------------|-----------------|
|-15\---------------|-------------------|-----------------|
|-------------------|-------------------|-7-5-7-0-0-7-5-7-|
|-------------------|-------------------|-7-5-7-0-0-7-5-7-|
|
|  E  E E E E E E E   E E E E S S E E E   E E E E E E E E
|-------------------|-------------------|-----------------|
|-------------------|-------------------|-----------------|
|-------------------|-------------------|-----------------|
|--7--5-7-0-0-7-5-7-|-0-0-0-0-0-0-0-0-0-|-7-5-7-0-0-7-5-7-|
|-------------------|-------------------|-----------------|
|-------------------|-------------------|-----------------|


  Gtr I
  E E E E S S E E E   E E E E E E E E   E E E E S S E E E   E E E E E E E E
|-------------------|-----------------|-------------------|-----------------|
|-------------------|-----------------|-------------------|-----------------|
|-------------------|-----------------|-------------------|-----------------|
|-------------------|-----------------|-------------------|-----------------|
|-0-0-0-0-0-0-0-0-0-|-7-5-7-0-0-7-5-7-|-0-0-0-0-0-0-0-0-0-|-7-5-7-0-0-------|
|-0-0-0-0-0-0-0-0-0-|-7-5-7-0-0-7-5-7-|-0-0-0-0-0-0-0-0-0-|-7-5-7-0-0-2-3-2-|
|
| Gtr II
| E E E E S S E E E   E E E E E E E E   E E E E S S E E E   E E E E E E E E
|-------------------|-----------------|-------------------|-----------------|
|-------------------|-----------------|-------------------|-----------------|
|-------------------|-----------------|-------------------|-----------------|
|-0-0-0-0-0-0-0-0-0-|-7-5-7-0-0-7-5-7-|-0-0-0-0-0-0-0-0-0-|-7-5-7-0-0-------|
|-------------------|-----------------|-------------------|-----------------|
|-------------------|-----------------|-------------------|-----------2-3-2-|


  Gtr I
  E E E E E E E E   E E E E E E E E   E E E E S S E E E   E E E E E E E E
|-----------------|-----------------|-------------------|------------------|
|-----------------|-----------------|-------------------|------------------|
|-----------------|-----------------|-------------------|------------------|
|-----------------|-----------------|-------------------|------------------|
|-0---------------|-7-5-7-0-0-7-5-7-|-0-0-0-0-0-0-0-0-0-|-7-5-7-0-0-7-5-7--|
|---5-3-2-0-2-3-5-|-7-5-7-0-0-7-5-7-|-0-0-0-0-0-0-0-0-0-|-7-5-7-0-0-7-5-7--|
|
| Gtr II
| E E E E E E E E   E E E E E E E E   E E E E S S E E E   E E E E E E E E
|-----------------|-----------------|-------------------|------------------|
|-----------------|-----------------|-------------------|------------------|
|-----------------|-----------------|-------------------|------------------|
|-----------------|-7-5-7-0-0-7-5-7-|-0-0-0-0-0-0-0-0-0-|-7-5-7-0-0-7-5-7--|
|-0---------------|-----------------|-------------------|------------------|
|---5-3-2-0-2-3-5-|-----------------|-------------------|------------------|


  Gtr I
  E E E E S S E E E   E E E E E E E E   E E E E S S E E E   E E E E  E E E E
|-------------------|-----------------|-------------------|------------------|
|-------------------|-----------------|-------------------|------------------|
|-------------------|-----------------|-------------------|------------------|
|-------------------|-----------------|-------------------|-0-0-2-0--3-0-5-0-|
|-0-0-0-0-0-0-0-0-0-|-7-5-7-0-0-7-5-7-|-0-0-0-0-0-0-0-0-0-|------------------|
|-0-0-0-0-0-0-0-0-0-|-7-5-7-0-0-7-5-7-|-0-0-0-0-0-0-0-0-0-|------------------|
|
| Gtr II
| E E E E S S E E E   E E E E E E E E   E E E E S S E E E   E E E E  E E E E
|-------------------|-----------------|-------------------|------------------|
|-------------------|-----------------|-------------------|------------------|
|-------------------|-----------------|-------------------|-7-7-9---10---7---|
|-0-0-0-0-0-0-0-0-0-|-7-5-7-0-0-7-5-7-|-0-0-0-0-0-0-0-0-0-|-------0----0---0-|
|-------------------|-----------------|-------------------|------------------|
|-------------------|-----------------|-------------------|------------------|


  Gtr I
  E E E E E E E E   S S S S S S S S S S S S S S S S
|-----------------|---------------------------------|
|-----------------|---------------------------------|
|-----------------|-----------------5-5-5-5---------|
|-3-0-2-0-2-0-----|---------3-3-3-3---------3-3-3-3-|
|-------------3-0-|-1-1-1-1-------------------------|
|-----------------|---------------------------------|
|
| Gtr II
| E E E E E E E E   S S S S S S S S S S S S S S S S
|-----------------|---------------------------------|
|-----------------|---------------------------------|
|-9---5---9-7-5-2-|-----------------5-5-5-5---------|
|---0---0---------|---------3-3-3-3---------3-3-3-3-|
|-----------------|-1-1-1-1-------------------------|
|-----------------|---------------------------------|


  S S S S S S S S S S S S S S S S
|-----------------------------------|
|-----------------------------------|
|-----------------7-7-7-7-----------|
|---------5-5-5-5---------5-5-5-5---|
|-3-3-3-3---------------------------|
|-----------------------------------|
|
| S S S S S S S S S S S S S S S S
|-----------------------------------|
|-----------------------------------|
|-----------------7-7-7-7-----------|
|-7-7-7-7-----------------5-5-5-5---|
|---------5-5-5-5-------------------|
|-----------------------------------|


  Gtr I
  S S S S S S S S S S S S S S S S
|---------------------------------|
|---------5-5-5-5-6-6-6-6-8-8-8-8-|
|---------------------------------|
|---------------------------------|
|-5-5-5-5-------------------------|
|---------------------------------|
|
| Gtr II
| S S S S S S S S S S S S S S S S
|---------------------------------|
|---------------------------------|
|---------------------------------|
|-0-0-0-0-5-5-5-5-7-7-7-7-8-8-8-8-|
|---------------------------------|
|---------------------------------|


                  ~
  S S S S S S S S H      S S S S S S S S S S S S S S S S
|----------------------|----------------------------------|
|-6-6-6-6-5-5-5-5-6----|----------------------------------|
|----------------------|-----------------5-5-5-5----------|
|----------------------|---------3-3-3-3---------3-3-3-3--|
|----------------------|-1-1-1-1--------------------------|
|----------------------|----------------------------------|
|
|                 ~
| S S S S S S S S H      S S S S S S S S S S S S S S S S
|----------------------|----------------------------------|
|----------------------|----------------------------------|
|----------------------|-----------------5-5-5-5----------|
|-7-7-7-7-5-5-5-5-7----|---------3-3-3-3---------3-3-3-3--|
|----------------------|-1-1-1-1--------------------------|
|----------------------|----------------------------------|


  Gtr I
  S S S S S S S S S S S S S S S S   S S S S S S S S S S S S S S S S
|---------------------------------|---------------------------------|
|---------------------------------|---------5-5-5-5-6-6-6-6-8-8-8-8-|
|-----------------7-7-7-7---------|---------------------------------|
|---------5-5-5-5---------5-5-5-5-|---------------------------------|
|-3-3-3-3-------------------------|-5-5-5-5-------------------------|
|---------------------------------|---------------------------------|
|
| Gtr II
| S S S S S S S S S S S S S S S S   S S S S S S S S S S S S S S S S
|---------------------------------|---------------------------------|
|---------------------------------|---------------------------------|
|-----------------7-7-7-7---------|---------------------------------|
|-7-7-7-7-----------------5-5-5-5-|-0-0-0-0-5-5-5-5-7-7-7-7-8-8-8-8-|
|---------5-5-5-5-----------------|---------------------------------|
|---------------------------------|---------------------------------|


  Gtr I
  S S S S S S S S S S S S S S S S   S S S S S S S S S S S S S S S S
|---------------------------------|---------------------------------|
|-6-6-6-6-5-5-5-5-3-3-3-3-1-1-1-1-|---------------------------------|
|---------------------------------|-----------------5-5-5-5---------|
|---------------------------------|---------3-3-3-3---------3-3-3-3-|
|---------------------------------|-1-1-1-1-------------------------|
|---------------------------------|---------------------------------|
|
| Gtr II
| S S S S S S S S S S S S S S S S   S S S S S S S S S S S S S S S S
|---------------------------------|---------------------------------|
|---------------------------------|---------------------------------|
|---------------------------------|-----------------5-5-5-5---------|
|-7-7-7-7-5-5-5-5-3-3-3-3-2-2-2-2-|---------3-3-3-3---------3-3-3-3-|
|---------------------------------|-1-1-1-1-------------------------|
|---------------------------------|---------------------------------|


  Gtr I
  S S S S S S S S S S S S S S S S
|---------------------------------|
|---------------------------------|
|-----------------7-7-7-7---------|
|---------5-5-5-5---------5-5-5-5-|
|-3-3-3-3-------------------------|
|---------------------------------|
|
| Gtr II
| S S S S S S S S S S S S S S S S
|---------------------------------|
|---------------------------------|
|-----------------7-7-7-7---------|
|-7-7-7-7-----------------5-5-5-5-|
|---------5-5-5-5-----------------|
|---------------------------------|


                                                    ~
  S S S S S S S S S S S S S S S S   S S S S S S S S H
|---------------------------------|----------------------|
|---------5-5-5-5-6-6-6-6-8-8-8-8-|-6-6-6-6-5-5-5-5-6----|
|---------------------------------|----------------------|
|---------------------------------|----------------------|
|-5-5-5-5-------------------------|----------------------|
|---------------------------------|----------------------|
|
|                                                   ~
| S S S S S S S S S S S S S S S S   S S S S S S S S H
|---------------------------------|----------------------|
|---------------------------------|----------------------|
|---------------------------------|----------------------|
|-0-0-0-0-5-5-5-5-7-7-7-7-8-8-8-8-|-7-7-7-7-5-5-5-5-7----|
|---------------------------------|----------------------|
|---------------------------------|----------------------|


  Gtr I
  S S S S S S S S S S S S S S S S   S S S S S S S S S S S S S S S S
|---------------------------------|---------------------------------|
|---------------------------------|---------------------------------|
|-----------------5-5-5-5---------|-----------------7-7-7-7---------|
|---------3-3-3-3---------3-3-3-3-|---------5-5-5-5---------5-5-5-5-|
|-1-1-1-1-------------------------|-3-3-3-3-------------------------|
|---------------------------------|---------------------------------|
|
| Gtr II
| S S S S S S S S S S S S S S S S   S S S S S S S S S S S S S S S S
|---------------------------------|---------------------------------|
|---------------------------------|---------------------------------|
|-----------------5-5-5-5---------|-----------------7-7-7-7---------|
|---------3-3-3-3---------3-3-3-3-|-7-7-7-7-----------------5-5-5-5-|
|-1-1-1-1-------------------------|---------5-5-5-5-----------------|
|---------------------------------|---------------------------------|


  Gtr I
  S S S S S S S S S S S S S S S S    E E E E E E E E   +E  H    Q  E
|---------------------------------|------------------|----------------*|
|---------5-5-5-5-6-6-6-6-8-8-8-8-|------------------|----------------*|
|---------------------------------|-10-9-7-5-7-5-3---|----------------*|
|---------------------------------|----------------0-|-(0)------------*|
|-5-5-5-5-------------------------|----------------0-|-(0)------------*|
|---------------------------------|----------------0-|-(0)------------*|
|
| Gtr II
| S S S S S S S S S S S S S S S S    E E E E E E E E   +E  H    Q  E
|---------------------------------|------------------|----------------*|
|---------------------------------|------------------|----------------*|
|---------------------------------|--5-3-2-0-2-0-----|----------------*|
|-0-0-0-0-5-5-5-5-7-7-7-7-8-8-8-8-|--------------3-0-|-(0)------------*|
|---------------------------------|----------------0-|-(0)------------*|
|---------------------------------|----------------0-|-(0)------------*|




--------------------------------------------------------------------------------


Duration Legend
---------------
W - whole; H - half; Q - quarter; E - 8th; S - 16th; T - 32nd; X - 64th; a - acciaccatura
+ - note tied to previous; . - note dotted; .. - note double dotted
Uncapitalized letters represent notes that are staccato (1/2 duration)
Irregular groupings are notated above the duration line
Duration letters will always appear directly above the note/fret number it represents the
duration for.  Duration letters with no fret number below them represent rests.  Multi-
bar rests are notated in the form Wxn, where n is the number of bars to rest for.  Low
melody durations appear below the staff

Tablature Legend
----------------
 h   - hammer-on
 p   - pull-off
 b   - bend
 pb  - pre-bend
 r   - bend release (if no number after the r, then release immediately)
 /\  - slide into or out of (from/to "nowhere")
 s   - legato slide
 S   - shift slide
<n> - natural harmonic
[n]  - artificial harmonic
n(n) - tapped harmonic
 ~   - vibrato
 tr  - trill
 T   - tap
 TP  - trem. picking
 PM  - palm muting
\n/  - tremolo bar dip; n = amount to dip
 \n  - tremolo bar down
 n/  - tremolo bar up
/n\  - tremolo bar inverted dip
 =   - hold bend; also acts as connecting device for hammers/pulls
 <> - volume swell (louder/softer)
 x   - on rhythm slash represents muted slash
 o   - on rhythm slash represents single note slash

Misc Legend
-----------
 |  - bar
||  - double bar
||o - repeat start
o|| - repeat end
*|  - double bar (ending)
 :  - bar (freetime)
 $  - Segno
 &  - Coda

comments
print report bad tab
7 comments total. Showing first comments.
0 reply
ghostshadow69 wrote on March 11 2007, 05:54 pm

Tuning?

0 reply
ghostshadow69 wrote on March 11 2007, 05:55 pm

Nevr mind i found it

0 reply
penguinkiller72 wrote on March 12 2007, 11:13 am

hey, this is pretty good! kudos

I want to post or [tab]
guest
You may want to rate the tab now too:
select rating
Please do not post tabs as comments. Select "correction" instead!