Oops, an error
Loading. Please wait.

Six Tab

ver7
ver7
More versions @911Tabs.com
15,089 views 3 this week
9 commentsread comments
1 2 3 4 5
accurate
x 11
Autoscroll
+/-
esc
set tempo
stop
Contributor
WARNING: You are trying to view
                                    content from Ultimate-Guitar.com
                                    in an unauthorized application,
                                    which is prohibited.

                                    Please use an official Ultimate
                                    Guitar Tabs application for iPhone,
                                    iPad or Android to access legitimate
                                    chords, guitar, bass, and drum tabs
                                    from Ultimate-Guitar.com database.

                                    Type "ultimate guitar tabs" in Apple
                                    App Store's or Android Market's
                                    search to find the application.
Band: All That Remains
Song: Six
CD:   The Fall of Ideals
Year: 2006
Tune: DGCFAD
________________________
h = hammer on           |
p = pull off            |
\ = slide               |
b = bend                |
* = pinch harmonic      |
________________________|

*First off, Im not really a fan of these guys but after hearing this song on guitar
I found it catchy and decided to learn it to teach my cousin as its his favourite. Anyway,
is a modded version of tab 3. I made it out easier to read and to play (at least to me) 
each riff in order instead of having it the way that one is.I also added and
the odd few notes as I saw fit. Credit for the tab, goes to that guy. I just changed it
a bit. Update (July 25th/07): Changed the intro/outro and bridge leads a bit*

Intro:
d|-----------------------------------|-------------------------------------|    
A|-----------------------------------|-------------------------------------|
F|-5---------7----7-----------9------|------11-----11-----12-----12-----12-|
C|-5-------5---5--7-------7-5--------|----9------9------9------9------9----|
G|-3-33333--------5-55555------------|-7-------7------7------7------7------|
D|-----------------------------------|-------------------------------------|

Intro cont:
d|----------------------------------------------------------------------------|
A|----------------------------------------------------------------------------|
F|-----------777-------------999-----999-111111-121212-141414-121212-1111-12--|
C|-------555-----555-777-555-----777------------------------------------------|
G|---333----------------------------------------------------------------------|
D|----------------------------------------------------------------------------|

d|--------------------------------------------------------------------------|
A|--------------------------------------------------------------------------|
F|---------777-------------999-----999-111111-121212-141414-----------------|
C|-----555-----555-777-555-----777--------------------------141414-121212---|
G|-333----------------------------------------------------------------------|
D|--------------------------------------------------------------------------|

d|----------------------------------------------------------------------------|
A|----------------------------------------------------------------------------|
F|-----------777-------------999-----999-111111-121212-141414-121212-1111-12--|
C|-------555-----555-777-555-----777------------------------------------------|
G|---333----------------------------------------------------------------------|
D|----------------------------------------------------------------------------|

d|-----------------------------------------------------------------------------------|
A|-----------------------------------------------------------------------------------|
F|---------777-------------999-----999-111111-121212-141414-12-11-9----9-------------|
C|-----555-----555-777-555-----777----------------------------------12---12-10-9---2-|
G|-333-----------------------------------------------------------------------------2-|
D|---------------------------------------------------------------------------------0-|

Verse:
d|----------------------------------|----------------------------------|
A|----------------------------------|----------------------------------|
F|----------------------------------|----------------------------------|
C|-2-------------------------7---9--|-2-------------------------7---9--|
G|-2--------------------------------|-2--------------------------------|
D|-0-0-000-0-0-000-0-0-000-0---0----|-0-0-000-0-0-000-0-0-000-0---0----|
   . . ... . . ... . . ... .    .      . . ... . . ... . . ... .    .
d|----------------------------------|----------------------------------|
A|----------------------------------|----------------------------------|
F|----------------------------------|----------------------------------|
C|----------------------------------|----------------------------------|
G|---------------------------9---10-|---------------------------9---10-|
D|-8-8-888-8-8-888-8-8-888-8---8----|-8-8-888-8-8-888-8-8-888-8---8----|

d|----------------------------------|----------------------------------|
A|----------------------------------|----------------------------------|
F|----------------------------------|----------------------------------|
C|-2-------------------------7---9--|-2-------------------------7---9--|
G|-2--------------------------------|-2--------------------------------|
D|-0-0-000-0-0-000-0-0-000-0---0----|-0-0-000-0-0-000-0-0-000-0---0----|
   . . ... . . ... . . ... .    .      . . ... . . ... . . ... .    .
d|----------------------------------|----------------------------------|
A|----------------------------------|----------------------------------|
F|----------------------------------|----------------------------------|
C|----------------------------------|----------------------------------|
G|---------------------------9---10-|---------------------------9---10-|
D|-8-8-888-8-8-888-8-8-888-8---8----|-8-8-888-8-8-888-8-8-888-8---8----|


Pre-chorus:
d|---------------------------------|---------------------------------|   
A|---------------------------------|---------------------------------|   
F|---------------------------------|---------------------------------|   
C|---------------------------------|---------------------------------|  
G|-2p0h2-----2p0h2-----------------|-2p0h2-----2p0h2-----------------|
D|-------0-0-------0-0-0-0-000-0-0-|-------0-0-------0-0-0-0-000-0-0-|

d|---------------------------------|---------------------------------|   
A|---------------------------------|---------------------------------|   
F|---------------------------------|---------------------------------|   
C|---------------------------------|---------------------------------|  
G|-2p0h2-----2p0h2-----------------|-2p0h2-----2p0h2-----------------|
D|-------0-0-------0-0-0-0-000-0-0-|-------0-0-------0-0-0-0-000-0-0-|

d|----------------------------------|----------------------------------|
A|----------------------------------|----------------------------------|
F|----------------------------------|----------------------------------|
C|-2-------------------------7---9--|-2-------------------------7---9--|
G|-2--------------------------------|-2--------------------------------|
D|-0-0-000-0-0-000-0-0-000-0---0----|-0-0-000-0-0-000-0-0-000-0---0----|
   . . ... . . ... . . ... .    .      . . ... . . ... . . ... .    .
d|----------------------------------|----------------------------------|
A|----------------------------------|----------------------------------|
F|----------------------------------|----------------------------------|
C|----------------------------------|----------------------------------|
G|---------------------------9---10-|---------------------------9---10-|
D|-8-8-888-8-8-888-8-8-888-8---8----|-8-8-888-8-8-888-8-8-888-8---8----|


Verse:
d|-------------------------------|-----------------------------|
A|-------------------------------|-----------------------------|
F|-------------------------------|-----------------------------|
C|-------------------------------|-----------------------------|
G|----14-15-12-14-10-12-12-12-14-|----14-15-12-14-10-12-10-9-7-|
D|-0-0--0--0--0--0--0------------|-0-0--0--0--0--0-------------|

d|-------------------------------|-----------------------------|
A|-------------------------------|-----------------------------|
F|-------------------------------|-----------------------------|
C|-------------------------------|-----------------------------|
G|----14-15-12-14-10-12-12-12-14-|----14-15-12-14-10-12-10-9-7-|
D|-0-0--0--0--0--0--0------------|-0-0--0--0--0--0-------------|

Pre-chorus:
d|---------------------------------|---------------------------------|   
A|---------------------------------|---------------------------------|   
F|---------------------------------|---------------------------------|   
C|---------------------------------|---------------------------------|  
G|-2p0h2-----2p0h2-----------------|-2p0h2-----2p0h2-----------------|
D|-------0-0-------0-0-0-0-000-0-0-|-------0-0-------0-0-0-0-000-0-0-|

d|---------------------------------|---------------------------------|   
A|---------------------------------|---------------------------------|   
F|---------------------------------|---------------------------------|   
C|---------------------------------|---------------------------------|  
G|-2p0h2-----2p0h2-----------------|-2p0h2-----2p0h2-----------------|
D|-------0-0-------0-0-0-0-000-0-0-|-------0-0-------0-0-0-0-000-0-0-|


Chorus:
d|---------------------------------|---------------------------------|   
A|---------------------------------|---------------------------------|   
F|---------------------------------|---------------------------------|   
C|---------------------------------|---------------------------------|  
G|-2p0h2-----2p0h2-----------------|-2p0h2-----2p0h2-----------------|
D|-------0-0-------0-0-0-0-000-0-0-|-------0-0-------0-0-0-0-000-0-0-|

d|---------------------------------|---------------------------------|   
A|---------------------------------|---------------------------------|   
F|---------------------------------|---------------------------------|   
C|---------------------------------|---------------------------------|  
G|-2p0h2-----2p0h2-----------------|-2p0h2-----2p0h2-----------------|
D|-------0-0-------0-0-0-0-000-0-0-|-------0-0-------0-0-0-0-000-0-0-|

d|---------------------------------|
A|---------------------------------|
F|---------------------------------|
C|---------------------------------|
G|-2p0-2-----------2-1-------0-----|
D|-0---0-0-0-0-2-3-----3-0-2---3-0-|

d|---------------------------------|---------------------------------|   
A|---------------------------------|---------------------------------|   
F|---------------------------------|---------------------------------|   
C|---------------------------------|---------------------------------|  
G|-2p0h2-----2p0h2-----------------|-2p0h2-----2p0h2-----------------|
D|-------0-0-------0-0-0-0-000-0-0-|-------0-0-------0-0-0-0-000-0-0-|

d|---------------------------------|---------------------------------|   
A|---------------------------------|---------------------------------|   
F|---------------------------------|---------------------------------|   
C|---------------------------------|---------------------------------|  
G|-2p0h2-----2p0h2-----------------|-2p0h2-----2p0h2-----------------|
D|-------0-0-------0-0-0-0-000-0-0-|-------0-0-------0-0-0-0-000-0-0-|

d|--------------|
A|--------------|
F|--------------|
C|--------------|
G|-2-0-2--2-0-2-|
D|-0-0-0--0-0-0-|       


Bridge: (6 times)
d|-------0----------------0---------------0---------------0-------|
A|----------------------------------------------------------------|
F|-----5---5---5------7-----7---7-----9-----9---9-----9-----9---9-|
C|---5-------5------7---7-----7-----9---9-----9-----9---9-----9---|
G|-3--------------5---------------7---------------7---------------|
D|----------------------------------------------------------------|


Lead over bridge (after 3rd time):
d|-------------------------------------------------------|
A|-------------------------------------------------------|
F|-16-16-16-16-14-12-11-11h12----14---12---11---9-7------|
C|----------------------------12---10----9----7----------|
G|-------------------------------------------------------|
D|-------------------------------------------------------|

d|-------------------------------------------------------|
A|-------------------15-------------15-------------------|
F|-16-16-16-16-14-16----16-11h12-11----12-11-11h12p11----|
C|----------------------------------------------------14-|
G|-------------------------------------------------------|
D|-------------------------------------------------------|

d|-------------------------------------------------------|
A|-------------------------------------------------------|
F|-16-16-16-16-14-12-11-11h12----14---12---11---9-7------|
C|----------------------------12---10----9----7----------|
G|-------------------------------------------------------|
D|-------------------------------------------------------|

d|-------------------------------------------------------|
A|-------------------15-------------15-------------------|
F|-16-16-16-16-14-16----16-11h12-11----12-11-11h12p11----|
C|----------------------------------------------------14-|
G|-------------------------------------------------------|
D|-------------------------------------------------------|

Pre-solo:
d|--------------------------------------------------------------|
A|--------------------------------------------------------------|
F|-16-16-16-16-14-12-11-11/12\11-12-----12\11/12----------12\11-|
C|--x--x--x--x--x--x--x--x--x--x--x------x--x--x-----------x--x-|
G|-14-14-14-14-12-10--9--9/10\-9-10-----10\-9/10----------10\-9-|
D|----------------------------------0-0-----------0-0-0-0-------|

d|---------------------------------------------------|
A|------------------------------------10-------------|
F|-9--9--11--11--12\----9---11---12--------12---11-9-|
C|-x--x---x---x---x---9---9----9----9----9----9------|
G|-7--7---9---9--10\---------------------------------|
D|---------------------------------------------------|

d|--------------------------------------------------------------|
A|--------------------------------------------------------------|
F|-16-16-16-16-14-12-11-11/12\11-12-----12\11/12----------12\11-|
C|--x--x--x--x--x--x--x--x--x--x--x------x--x--x-----------x--x-|
G|-14-14-14-14-12-10--9--9/10\-9-10-----10\-9/10----------10\-9-|
D|----------------------------------0-0-----------0-0-0-0-------|

d|---------------------------------------------------|
A|------------------------------------10-------------|
F|-9--9--11--11--12\----9---11---12--------12---11-9-|
C|-x--x---x---x---x---9---9----9----9----9----9------|
G|-7--7---9---9--10\---------------------------------|
D|---------------------------------------------------|

Solo:
d|--------------------------------------19p15-------------------------|
A|---------------------------15---------------17----17----------------|
F|-14b-14b*-14p12-14b---11-12---12p11-12---------16----16-------------|
C|--------------------9-----------------------------------17----------|
G|-----------------------------------------------------------19-15-14-|
D|--------------------------------------------------------------------|

d|-------------------------------------------------------------------|
A|-------------------------------------------------------------------|
F|-------------------------------------------------------------------|
C|---------------------------------------------------9-10-12---------|
G|-15-17-15-14------------------------7-9-10-9-10-12---------9-10-12-|
D|-------------17-15-14-12-8--8-10-12--------------------------------|


d|------------------------------------|-------------------------------|
A|-----------------10-12-10-----------|-------------------------------|
F|---------9-11-12----------12-11-10~-|-14-16-12-14h16-16b*-16-14-14*-|
C|-9-10-12----------------------------|-------------------------------|
G|------------------------------------|-------------------------------|
D|------------------------------------|-------------------------------|
 |                                                                    |
 |                                      2nd guitar plays as a harmony |
d|------------------------------------|-------------------------------|
A|------------------------------------|-------------------------------|
F|------------------------------------|-------------------------------|
C|------------------------------------|-16-17-14-16h17-17b*-17-16-16*-|
G|------------------------------------|-------------------------------|
D|------------------------------------|-------------------------------|


Pre-chorus:
d|---------------------------------|---------------------------------|   
A|---------------------------------|---------------------------------|   
F|---------------------------------|---------------------------------|   
C|---------------------------------|---------------------------------|  
G|-2p0h2-----2p0h2-----------------|-2p0h2-----2p0h2-----------------|
D|-------0-0-------0-0-0-0-000-0-0-|-------0-0-------0-0-0-0-000-0-0-|

d|---------------------------------|---------------------------------|   
A|---------------------------------|---------------------------------|   
F|---------------------------------|---------------------------------|   
C|---------------------------------|---------------------------------|  
G|-2p0h2-----2p0h2-----------------|-2p0h2-----2p0h2-----------------|
D|-------0-0-------0-0-0-0-000-0-0-|-------0-0-------0-0-0-0-000-0-0-|

d|---------------------------------|
A|---------------------------------|
F|---------------------------------|
C|---------------------------------|
G|-2p0h2-----------2-1-------0-----|
D|-------0-0-0-2-3-----3-0-2---3-0-|

d|---------------------------------|---------------------------------|   
A|---------------------------------|---------------------------------|   
F|---------------------------------|---------------------------------|   
C|---------------------------------|---------------------------------|  
G|-2p0h2-----2p0h2-----------------|-2p0h2-----2p0h2-----------------|
D|-------0-0-------0-0-0-0-000-0-0-|-------0-0-------0-0-0-0-000-0-0-|

d|---------------------------------|---------------------------------|   
A|---------------------------------|---------------------------------|   
F|---------------------------------|---------------------------------|   
C|---------------------------------|---------------------------------|  
G|-2p0h2-----2p0h2-----------------|-2p0h2-----2p0h2-----------------|
D|-------0-0-------0-0-0-0-000-0-0-|-------0-0-------0-0-0-0-000-0-0-|

d|----------------------------------------|
A|----------------------------------------|
F|----------------------------------------|
C|----------------------------------------|
G|-----14---15---12---14---10---12-10-9---|
D|-0-0----0----0----0----0----0--------12-|

Outro:
d|----------------------------------------------------------------------------|
A|----------------------------------------------------------------------------|
F|-----------777-------------999-----999-111111-121212-141414-121212-1111-12--|
C|-------555-----555-777-555-----777------------------------------------------|
G|---333----------------------------------------------------------------------|
D|----------------------------------------------------------------------------|

d|--------------------------------------------------------------------------|
A|--------------------------------------------------------------------------|
F|---------777-------------999-----999-111111-121212-141414-----------------|
C|-----555-----555-777-555-----777--------------------------141414-121212---|
G|-333----------------------------------------------------------------------|
D|--------------------------------------------------------------------------|

d|----------------------------------------------------------------------------|
A|----------------------------------------------------------------------------|
F|-----------777-------------999-----999-111111-121212-141414-121212-1111-12--|
C|-------555-----555-777-555-----777------------------------------------------|
G|---333----------------------------------------------------------------------|
D|----------------------------------------------------------------------------|

d|-----------------------------------------------------------------------------------|
A|-----------------------------------------------------------------------------------|
F|---------777-------------999-----999-111111-121212-141414-12-11-9----9-------------|
C|-----555-----555-777-555-----777----------------------------------12---12-10-9---2-|
G|-333-----------------------------------------------------------------------------2-|
D|---------------------------------------------------------------------------------0-|
9 comments total. Showing first comments.
0 reply
cloudultima3164 wrote on July 24 2007, 07:51 pm

hey this is a great tab......regardless of what i said about mine it IS a bit wrong......however there are a few tiny mistakes in the intro during the tremolo picking it is quadruplets not triplets.....and also refer to my tab for the correct solo (although there is a small error in some parts)

0 reply
ringgoldrocker wrote on August 18 2007, 03:56 pm

thank u soo much for making a correct tab. all the others r soo far off my ears hurt just thinking about how they sound, u rock

0 reply
penguinkiller72 wrote on September 4 2007, 04:34 pm

what the hell? quadruplets? u mean 16's? lol oh, and good tab! haha

I want to post or [tab]
guest
You may want to rate the tab now too:
select rating
Please do not post tabs as comments. Select "correction" instead!