Oops, an error
Loading. Please wait.

Six Tab

14,733 views 3 this week
6 commentsread comments
1 2 3 4 5
accurate
x 9
Autoscroll
+/-
esc
set tempo
stop
Contributor
Difficulty
Tuning
advanced
D G C F A D
Hey! There's an official Ultimate Guitar app which is ideal
for learning songs when you're away from computer. Get the app
WARNING: You are trying to view
                                    content from Ultimate-Guitar.com
                                    in an unauthorized application,
                                    which is prohibited.

                                    Please use an official Ultimate
                                    Guitar Tabs application for iPhone,
                                    iPad or Android to access legitimate
                                    chords, guitar, bass, and drum tabs
                                    from Ultimate-Guitar.com database.

                                    Type "ultimate guitar tabs" in Apple
                                    App Store's or Android Market's
                                    search to find the application.
-------------------------------------------------------------------------------
                             "Six" ----- All That Remains
-------------------------------------------------------------------------------

Tabbed by: [travis]




Tuning: Drop D Standard == D G C F A D (low to high)


Key: C Major === [C D E F G A B]


Legend:

... = palm mute
h = hammer on
p = pull off
b = bend
* = pinch harmonic
__ = hold bend
x = muffled string
.5 = half step bend
1 = whole step bend
~ = vibrato
/ = slide up
\ = slide down
() = note not picked / bring bent note back to normal
h/ = pick once
p\ = pick once
h/p\ = pick once
p\h/ = pick once
x/x/ = pick slide towards tuning knobs
x\x\ = pick slide towards pick ups


====================
Intro:

Guitar 1:
D|-------------------------------------------------------------------|
A|-------------------------------------------------------------------|
F|------------7-----------------9-----11-----11-----12-----12-----12-|
C|-5--------5---5--7--------7-5-----9------9------9------9------9----|
G|-3-3333-3--------5-5555-5-------7------7------7------7------7------|
D|-------------------------------------------------------------------|
     ............    ...............................................

Guitar 2:
D|------------------------------------------------------------------------|
A|------------------------------------------------------------------------|
F|---------------------------------14-------14-------16-------16-------16-|
C|-5-------------7--------------12-------12-------12-------12-------12----|
G|-3-------------5-----------10-------10-------10-------10-------10-------|
D|------------------------------------------------------------------------|
                             ............................................

=====================
Guitar 1:
D|-------------------------------------------------------------------|
A|-------------------------------------------------------------------|
F|------------7-----------------9-----11-----11-----12-----12-----12-|
C|-5--------5---5--7--------7-5-----9------9------9------9------9----|
G|-3-3333-3--------5-5555-5-------7------7------7------7------7------|
D|-------------------------------------------------------------------|
     ............    ...............................................

Guitar 2:
D|---------------------------------------------------------------------------------|
A|---------------------------------------------------------------------------------|
F|------------11-------------------12-------14-------14-------16-------16-------16-|
C|-9--------9----9--12--------12-9-------12-------12-------12-------12-------12----|
G|-7-7777-7---------9--9999-9---------10-------10-------10-------10-------10-------|
D|---------------------------------------------------------------------------------|
     .............     ...........................................................

Guitar 3:
D|----------------------------------------------------------------|
A|----------------------------------------------------------------|
F|----------------------------------------------------------------|
C|----------------------------------------------------------------|
G|---------------------------------------------x\x\x\x\x\x\x\x\x\-|
D|---------------------------------------------x\x\x\x\x\x\x\x\x\-|

======================
Guitar 1: Pick the 11s, 12s, and 14s the same as the other #s. I just spaced
          them out so you can read it better instead of reading it as 1111 or 121212.
D|------------------------------------------------------------------------------------|
A|------------------------------------------------------------------------------------|
F|---------7777------------9999--------11-11-11-11-12-12-12-12-14-14-14-14-12-12-12-12|
C|-----5555--------77775555--------9999-----------------------------------------------|
G|-3333--------5555------------7777---------------------------------------------------|
D|------------------------------------------------------------------------------------|
   ...................................................................................

----------------|
----------------|
-11-11-11-11-12~|
----------------|
----------------|
----------------|

Guitar 2:
D|------------------------------------------------------------------|
A|------------------------------------------------------------------|
F|------------------------------------------------------------------|
C|---------------------------------55555555-------------------------|
G|-----------------5555555555555555--------999999997777777777777777-|
D|-8888888888888888-------------------------------------------------|
   ................................................................

=======================
Guitar 1:
D|-------------------------------------------------------------------------------------------------|
A|-------------------------------------------------------------------------------------------------|
F|---------7777------------9999--------11-11-11-11-12-12-12-12-14-14-14-14-12-12-12-12-11-11-11-11-|
C|-----5555--------77775555--------9999------------------------------------------------------------|
G|-3333--------5555------------7777----------------------------------------------------------------|
D|-------------------------------------------------------------------------------------------------|
   ...............................................................................................

Guitar 2:
D|----------------------------------------------------------|
A|----------------------------------------------------------|
F|----------------------------------------------------------|
C|---------------------------------55555555-----------------|
G|-----------------5555555555555555--------9999999977777777-|
D|-8888888888888888-----------------------------------------|
   ........................................................

=======================
Guitar 1:
D|-------------------------|
A|-------------------------|
F|-------------------------|
C|-14-14-14-14-12-12-12-12-|
G|-------------------------|
D|-------------------------|
   .......................

Guitar 2:
D|----------|
A|----------|
F|----------|
C|----------|
G|-77777777-|
D|----------|
   ........

=========================
Guitar 1:
D|-------------------------------------------------------------|
A|-------------------------------------------------------------|
F|---------7777------------9999--------11-11-11-11-12-12-12-12-|
C|-----5555--------77775555--------9999------------------------|
G|-3333--------5555------------7777----------------------------|
D|-------------------------------------------------------------|
   ...........................................................

Guitar 2:
D|-------------------------------------------------------------------------------------------------|
A|-------------------------------------------------------------------------------------------------|
F|---------11-11-11-11--------------------12-12-12-12----------------------14-14-14-14-16-16-16-16-|
C|-----9999---------------12-12-12-12-9999----------------------12-12-12-12------------------------|
G|-7777---------------9999---------------------------10-10-10-10-----------------------------------|
D|-------------------------------------------------------------------------------------------------|
   ...............................................................................................

Guitar 3:
D|----------------------------------------------|
A|----------------------------------------------|
F|----------------------------------------------|
C|---------------------------------55555555-----|
G|-----------------5555555555555555--------9999-|
D|-8888888888888888-----------------------------|
   ............................................

==========================
Guitar 1:
D|-----------------------------------------------|
A|-----------------------------------------------|
F|-14-14-14-14-12-12-12-12-11-11-11-11-12~~~~~~~-|
C|-----------------------------------------------|
G|-----------------------------------------------|
D|-----------------------------------------------|
   ...................................

Guitar 2:
D|-----------------------------------------------|
A|-----------------------------------------------|
F|-17-17-17-17-16-16-16-16-14-14-14-14-16~~~~~~~-|
C|-----------------------------------------------|
G|-----------------------------------------------|
D|-----------------------------------------------|
   ...................................

Guitar 3:
D|----------------------|
A|----------------------|
F|----------------------|
C|----------------------|
G|-99997777777777777777-|
D|----------------------|
   ....................

===========================
Guitar 1:
D|-------------------------------------------------------------|
A|-------------------------------------------------------------|
F|---------7777------------9999--------11-11-11-11-12-12-12-12-|
C|-----5555--------77775555--------9999------------------------|
G|-3333--------5555------------7777----------------------------|
D|-------------------------------------------------------------|
   ...........................................................

Guitar 2:
D|-------------------------------------------------------------------------------------------------|
A|-------------------------------------------------------------------------------------------------|
F|---------11-11-11-11--------------------12-12-12-12----------------------14-14-14-14-16-16-16-16-|
C|-----9999---------------12-12-12-12-9999----------------------12-12-12-12------------------------|
G|-7777---------------9999---------------------------10-10-10-10-----------------------------------|
D|-------------------------------------------------------------------------------------------------|
   ...............................................................................................

Guitar 3:
D|----------------------------------------------|
A|----------------------------------------------|
F|----------------------------------------------|
C|---------------------------------55555555-----|
G|-----------------5555555555555555--------9999-|
D|-8888888888888888-----------------------------|
   ............................................

===========================
Guitar 1:
D|-----------------------------------|
A|-----------------------------------|
F|-14-14-14-14--12-11----------------|
C|--------------------14-12-14-12----|
G|--------------------------------14-|
D|-----------------------------------|
   ...........

Guitar 2:
D|-----------------------------------|
A|-----------------------------------|
F|-17-17-17-17--16-14----------------|
C|--------------------17-16-17-16-14-|
G|-----------------------------------|
D|-----------------------------------|
   ...........

Guitar 3:
D|------------------------------|
A|------------------------------|
F|------------------------------|
C|-------2--------2-------2~~~~-|
G|-9999--2--------2-------2~~~~-|
D|-------0--------0-------0~~~~-|
   ....

End of Intro.
============================
Verse 1:

Guitars 1 and 2:
D|-----------------------------------------------------------------------------|
A|-----------------------------------------------------------------------------|
F|-----------------------------------------------------------------------------|
C|-----------------------------------------------------------------------------|
G|--------------------------------12---14------------------------------12---14-|
D|-0~~-0-00-0-0-0-00-0-0-0-00-0-0----0----0-0-00-0-0-0-00-0-0-0-00-0-0----0----|
       ..........................    .    ............................    .

============================
Guitars 1 and 2:
D|-----------------------------------------------------------------------|
A|-----------------------------------------------------------------------|
F|-----------------------------------------------------------------------|
C|-----------------------------------------------------------------------|
G|------------------------------9---10----------------------------9---10-|
D|-8-8-88-8-8-8-88-8-8-8-88-8-8---8----8-8-88-8-8-8-88-8-8-8-88-8---8----|
   ............................   .    ..........................   .

============================
Guitars 1 and 2:
D|-------------------------------------------------------------------------|
A|-------------------------------------------------------------------------|
F|-------------------------------------------------------------------------|
C|-------------------------------------------------------------------------|
G|----------------------------12---14------------------------------12---14-|
D|-0-0-00-0-0-0-00-0-0-0-00-0----0----0-0-00-0-0-0-00-0-0-0-00-0-0----0----|
   ..........................    .    ............................    .

=============================
Guitars 1 and 2:
D|-------------------------------------------------------------------|
A|-------------------------------------------------------------------|
F|-------------------------------------------------------------------|
C|-------------------------------------------------------------------|
G|----------------------------9---10-----------------------------7\--|
D|-8-8-88-8-8-8-88-8-8-8-88-8---8----8-8-88-8-8-8-88-8-8-8-88-8--7\--|
   ..........................   .    ..........................

End of Verse 1.
=============================
Chorus 1:

Guitars 1 and 2:
D|-------------------------------------------------------------------|
A|-------------------------------------------------------------------|
F|-------------------------------------------------------------------|
C|-------------------------------------------------------------------| x2
G|-7p5-7-----7p5-7------------------7p5-7-----7p5-7------------------|
D|-7p5-7-0-0-7p5-7-0-0-0-0-00-0-0-0-7p5-7-0-0-7p5-7-0-0-0-0-00-0-0-0-|
         ...       ................       ...       ................

==============================
Verse 2:

Guitars 1 and 2:
D|-------------------------------------------------------------------------|
A|-------------------------------------------------------------------------|
F|-------------------------------------------------------------------------|
C|-------------------------------------------------------------------------|
G|----------------------------12---14------------------------------12---14-|
D|-0-0-00-0-0-0-00-0-0-0-00-0----0----0-0-00-0-0-0-00-0-0-0-00-0-0----0----|
   ..........................    .    ............................    .

===============================
Guitars 1 and 2:
D|-----------------------------------------------------------------------|
A|-----------------------------------------------------------------------|
F|-----------------------------------------------------------------------|
C|-----------------------------------------------------------------------|
G|------------------------------9---10----------------------------9---10-|
D|-8-8-88-8-8-8-88-8-8-8-88-8-8---8----8-8-88-8-8-8-88-8-8-8-88-8---8----|
   ............................   .    ..........................   .

================================
Guitar 1:
D|---------------------------------------------------------------------------|
A|---------------------------------------------------------------------------|
F|---------------------------------------------------------------------------|
C|---------------------------------------------------------------------------|
G|------------------------------12---14------------------------------12---14-|
D|-0-0-00-0-0-0-00-0-0-0-00-0-0----0----0-0-00-0-0-0-00-0-0-0-00-0-0----0----|
   ............................    .    ............................    .

Guitar 2:
D|----------------------------------------------------------------------|
A|----------------------------------------------------------------------|
F|----------------------------------------------------------------------|
C|-----9---10---7---9--------7-7-7-9-----9---10---7---9--------7--------|
G|----------------------10--------------------------------10-----10-9-7-|
D|-0-0---0----0---0---0----0---------0-0---0----0---0---0----0----------|
   ...   .    .   .   .    .         ...   .    .   .   .    .

=================================
Guitar 1:
D|---------------------------------------------------------------------|
A|---------------------------------------------------------------------|
F|---------------------------------------------------------------------|
C|---------------------------------------------------------------------|
G|------------------------------9---10-----------------------------7\--|
D|-8-8-88-8-8-8-88-8-8-8-88-8-8---8----8-8-88-8-8-8-88-8-8-8-88-8--7\--|
   ............................   .    ..........................

Guitar 2:
D|----------------------------------------------------------------------|
A|----------------------------------------------------------------------|
F|----------------------------------------------------------------------|
C|-----9---10---7---9--------7-7-7-9-----9---10---7---9--------7--------|
G|----------------------10--------------------------------10-----10-9-7-|
D|-8-8---8----8---8---8----8---------8-8---8----8---8---8----8----------|
   ...   .    .   .   .    .         ...   .    .   .   .    . 

==================================
Chorus 2:

Guitar 1:
D|-------------------------------------------------------------------|
A|-------------------------------------------------------------------|
F|-------------------------------------------------------------------|
C|-------------------------------------------------------------------|
G|-7p5-7-----7p5-7------------------7p5-7-----7p5-7------------------|
D|-7p5-7-0-0-7p5-7-0-0-0-0-00-0-0-0-7p5-7-0-0-7p5-7-0-0-0-0-00-0-0-0-|
         ...       ................       ...       ................

Guitar 2:
D|--------------------------|
A|--------------------------|
F|--------------------------|
C|-2~~~~~~~~~~~~~~~~~~~~~~~-|
G|-2~~~~~~~~~~~~~~~~~~~~~~~-|
D|-0~~~~~~~~~~~~~~~~~~~~~~~-|

===================================
Guitars 1 and 2:
D|------------------------------------------------------------------|
A|------------------------------------------------------------------|
F|------------------------------------------------------------------|
C|------------------------------------------------------------------|
G|-7p5-7-----7p5-7------------------7p5-7-----------2-1-------------|
D|-7p5-7-0-0-7p5-7-0-0-0-0-00-0-0-0-7p5-7-0-0-0-2-3-----3-2-1-4-3-1-|
         ...       ................       .........................

====================================
Guitars 1 and 2:
D|-------------------------------------------------------------------|
A|-------------------------------------------------------------------|
F|-------------------------------------------------------------------|
C|-------------------------------------------------------------------|
G|-7p5-7-----7p5-7------------------7p5-7-----7p5-7------------------|
D|-7p5-7-0-0-7p5-7-0-0-0-0-00-0-0-0-7p5-7-0-0-7p5-7-0-0-0-0-00-0-0-0-|
         ...       ................       ...       ................

====================================
Guitars 1 and 2:
D|-----------------------------------------------------------|
A|-----------------------------------------------------------|
F|-----------------------------------------------------------|
C|-----------------------------------------------------------|
G|-7p5-7-----7p5-7------------------7-5-7---------7-5-7------|
D|-7p5-7-0-0-7p5-7-0-0-0-0-00-0-0-0-7-5-7---------7-5-7------|
         ...       ................

End of Chorus 2.
====================================
Interlude:

Guitar 1:
D|---------0----------------0----------------0----------------0----------|
A|-----------0----------------0----------------0----------------0--------|
F|-----7-------7--------7-------7--------7-------7--------9-------7------|
C|---5---5------------4---4------------5---7------------5---5------------|
G|-3-------------5~~~~------------7~~~~------------7~~~~------------3~~~~|
D|-----------------------------------------------------------------------|

Guitar 5:
D|--------------------------------------------------------------------|
A|--------------------------------------------------------------------|
F|-7~~~~~~-----------7~~~~~~~~~------7~~~~~~~~---------9~~~~~~~~~-----|
C|-5~~~~~~-----------4~~~~~~~~~------5~~~~~~~~---------5~~~~~~~~~-----|
G|-3~~~~~~-----------5~~~~~~~~~------7~~~~~~~~---------7~~~~~~~~~-----|
D|--------------------------------------------------------------------|

=====================================
Guitar 1: 
D|-------0----------------0----------------0----------------0-----------|
A|---------0----------------0----------------0----------------0---------|
F|---7-------7--------7-------7--------7-------7--------9-------7-------|
C|-5---5------------4---4------------5---7------------5---5-------------| x1
G|-------------5~~~~------------7~~~~------------7~~~~------------3~~~~-|
D|----------------------------------------------------------------------|

Guitar 5:
D|--------------------------------------------------------------------|
A|--------------------------------------------------------------------|
F|-7~~~~~~-----------7~~~~~~~~~------7~~~~~~~~---------9~~~~~~~~~-----|
C|-5~~~~~~-----------4~~~~~~~~~------5~~~~~~~~---------5~~~~~~~~~-----| x1
G|-3~~~~~~-----------5~~~~~~~~~------7~~~~~~~~---------7~~~~~~~~~-----|
D|--------------------------------------------------------------------|

=====================================
Guitar 3: Guitars 1 and 2 are playing there parts above ^^^^ over Guitar 3's parts.
D|------------------------------------5p0-----3p0-----2p0------------|
A|----------------------------------8-----8-------7-------5----------|
F|-16-16-16-16---14--12-11-11/12--7---------5-------4-------4~~~~~~~-|
C|--x--x--x--x----x---x--x--x--x-------------------------------------|
G|-14-14-14-14---12--10--9--9/10-------------------------------------|
D|-------------------------------------------------------------------|

=====================================
Guitar 3: 
D|-------------------------------------------10----------------------------|
A|-----------------------------------10h12-x-12-x-12-x-10-x-10h12-10--\8~~-|
F|-16-16-16-16---14--16--19--16~~~~--11h12-x----x-12-x-11-x-11h12-11--\9~~-|
C|--x--x--x--x----x---x---x---x--------------------------------------------|
G|-14-14-14-14---12--14--17--14~~~~----------------------------------------|
D|-------------------------------------------------------------------------|

======================================
Guitar 3:
D|------------------------------------5p0-----3p0-----2p0-----------|
A|----------------------------------8-----8-------7-------5---------|
F|-16-16-16-16---14--12-11-11/12--7---------5-------4-------4~~~~~~~|
C|--x--x--x--x----x---x--x--x--x------------------------------------|
G|-14-14-14-14---12--10--9--9/10------------------------------------|
D|------------------------------------------------------------------|

======================================
Guitar 3: 
D|-------------------------------------------10----------------------------|
A|-----------------------------------10h12-x-12-x-12-x-10-x-10h12-10--\8~~-|
F|-16-16-16-16---14--16--19--16~~~~--11h12-x----x-12-x-11-x-11h12-11--\9~~-|
C|--x--x--x--x----x---x---x---x--------------------------------------------|
G|-14-14-14-14---12--14--17--14~~~~----------------------------------------|
D|-------------------------------------------------------------------------|

Guitar 4: Fade in.
D|-------------------------------|
A|-------------------------------|
F|-------------------------------|
C|-2~~~~~~~~~~~~~~~~~~~~~~~~~~~~-|
G|-2~~~~~~~~~~~~~~~~~~~~~~~~~~~~-|
D|-0~~~~~~~~~~~~~~~~~~~~~~~~~~~~-|

Guitar 2:
D|---------------------------------------------------------------------------|
A|---------------------------------------------------------------------------|
F|---------------------------------------------------------------------------|
C|----------------------------------------------------------------------5~~~-|
G|----------------------------------------------------------------------3~~~-|
D|----------------------------------------------------------------------3~~~-|


+++++
+++++

Guitar 1: Play this over the 3 sections of 2,3,4 above ^^^^^.
D|-------0----------------0----------------0----------------0-----------|
A|---------0----------------0----------------0----------------0---------|
F|---7-------7--------7-------7--------7-------7--------9-------7-------|
C|-5---5------------4---4------------5---7------------5---5-------------| x4
G|-------------5~~~~------------7~~~~------------7~~~~------------3~~~~-|
D|----------------------------------------------------------------------|

Guitar 5: Play this over the 3 sections of 2,3,4 above ^^^^^.
D|--------------------------------------------------------------------|
A|--------------------------------------------------------------------|
F|-7~~~~~~-----------7~~~~~~~~~------7~~~~~~~~---------9~~~~~~~~~-----|
C|-5~~~~~~-----------4~~~~~~~~~------5~~~~~~~~---------5~~~~~~~~~-----| x4
G|-3~~~~~~-----------5~~~~~~~~~------7~~~~~~~~---------7~~~~~~~~~-----|
D|--------------------------------------------------------------------|


========================================
Guitar 1:
D|-----------------------------------------------------------------------|
A|-----------------------------------------------------------------------|
F|-16-16-16-16--14--12-11-------12-11--12-----12-11--12---------12-11--7-|
C|--x--x--x--x---x---x--x--------x--x---x------x--x---x----------x-x---x-|
G|-14-14-14-14--12--10--9-------10--9--10-----10--9--10---------10-9---5-|
D|-------------------------0-0------------0-0-----------0-0-0-0------0---|
                           ...            ...           .......      .

Guitar 2:
D|---------------------------------------------------------|
A|---------------------------------------------------------|
F|---------------------------------------------------------|
C|-5------7~~~~~---7---------------------------------------|
G|-3------5~~~~~---5-------7p5-7-----7p5-7---------7p5-7---|
D|-3---0--5~~~~~---5--0-0--7p5-7-0-0-7p5-7-0-0-0-0-7p5-7-0-|
       .              ...        ...       .......       .

=========================================
Guitar 1:
D|-----------------------------------------------------------------------------------|
A|-----------------------------------------------------------------------------------|
F|-9~~~--9----11~~~~~~~~~-11-----12~~~~~----------------------14---------------------|
C|-x-----x-----x-----------x------x---------14----16----17----------17----16-14~~~~~~|
G|-7~~~--7-----9~~~~~~~~~--9-----10~~~~~-14----14----14----14----14----14------------|
D|----------0-----------------0------------------------------------------------------|
            .                 .          ..    ..    ..    ..    ..    ..

Guitar 2:
D|-----------------------------------------------------------------|
A|-----------------------------------------------------------------|
F|-----------------------------------------------------------------|
C|-5~~~--5-----7~~~~~~~~~~--7--------------------------------------|
G|-3~~~--3-----5~~~~~~~~~~--5------7p5-7-----7p5-7---------7p5-7---|
D|-3~~~--3--0--5~~~~~~~~~~--5--0-0-7p5-7-0-0-7p5-7-0-0-0-0-7p5-7-0-|
            .                  ...       ...       .......       .

==========================================
Guitar 1:
D|------------------------------------------------------------------------|
A|------------------------------------------------------------------------|
F|-16-16-16-16---14--12--11------12-11-12-----12-11-12---------12-11---12-|
C|--x--x--x--x----x---x---x-------x--x--x------x--x--x----------x--x----x-|
G|-14-14-14-14---12--10---9------10--9-10-----10--9-10---------10--9---10-|
D|---------------------------0-0----------0-0----------0-0-0-0-------0----|
                             ...          ...          .......       .

Guitar 2:
D|-----------------------------------------------------------------|
A|-----------------------------------------------------------------|
F|-----------------------------------------------------------------|
C|-5~~~--5-----7~~~~~~~~~~--7--------------------------------------|
G|-3~~~--3-----5~~~~~~~~~~--5------7p5-7-----7p5-7---------7p5-7---|
D|-3~~~--3--0--5~~~~~~~~~~--5--0-0-7p5-7-0-0-7p5-7-0-0-0-0-7p5-7-0-|
            .                  ...       ...       .......       .

===========================================
Guitar 1:
D|---------------------------------------------------------------------------------|
A|---------------------------------------------------------------------------------|
F|-9~~~~~~9----11~~~~~~--11-----12~~~~~~----------------------14-------------------|
C|-x------x-----x---------x------x----------14----16----17----------17----16-14~~~~|
G|-7~~~~~~7-----9~~~~~~---9-----10~~~~~~-14----14----14----14----14----14----------|
D|-----------0---------------0-----------------------------------------------------|
             .               .           ..    ..    ..    ..    ..    ..

Guitar 2:
D|-----------------------------------------------------------------|
A|-----------------------------------------------------------------|
F|-----------------------------------------------------------------|
C|-5~~~--5-----7~~~~~~~~~~--7--------------------------------------|
G|-3~~~--3-----5~~~~~~~~~~--5------7p5-7-----7p5-7---------7p5-7---|
D|-3~~~--3--0--5~~~~~~~~~~--5--0-0-7p5-7-0-0-7p5-7-0-0-0-0-7p5-7-0-|
            .                  ...       ...       .......       .

End of Interlude.
=============================================
Guitar Solo:

Guitar 3:
     1________                   1__                                  1__
D|---------------------------------------------------------------------------|
A|---------------------------------------------------------------------------|
F|-14b---14*--(14)-14p12-14~~(14)b--(14)----------19-------------------------|
C|------------------------------------------16-17----16----------------------|
G|---------------------------------------14-------------17\16-17~~(17)b--(17)|
D|---------------------------------------------------------------------------|

Guitar 3:
D|-14h19p15----\12p7--------------------------------------|
A|---------17-------10------------------------------------|
F|-----------16-------11----------------------------------|
C|----------------------12\9-10-12-10-9-------------------|
G|--------------------------------------12-10-9-----------|
D|----------------------------------------------12-8~~~~~~|

Guitar 3:
D|-----------------------------------------------8---------------|
A|---------------------------------------8-10-12---12-10---------|
F|-----------------------9-11-12-------------------------12-11-9-|
C|-------------------------------9-10-12-------------------------|
G|--------7-9-10-9-10-12-----------------------------------------|
D|-7-8-10--------------------------------------------------------|

+++
+++
Guitar 3:
D|-------------------------------------------------------------------------------|
A|-----12------------12--12*h15--12*---------------------------------------------|
F|-/14----12~~~~~~14-----------------14*--12*~~~~~~~~~~~~~~~~~~~~~~~~~~~~~~~~~~~-|
C|-------------------------------------------------------------------------------|
G|-------------------------------------------------------------------------------|
D|-------------------------------------------------------------------------------|

Guitar 4:
D|-------------------------------------------------------------------------------|
A|-------------------------------------------------------------------------------|
F|-------------------------------------------------------------------------------|
C|-/16-17-14~~~~~~16-17--17*h19--17*-16*--14*~~~~~~~~~~~~~~~~~~~~~~~~~~~~~~~~~~~-|
G|-------------------------------------------------------------------------------|
D|-------------------------------------------------------------------------------|

+++++++
+++++++
Both bars below V V V are the rhythm for the solo.

Guitar 2:
D|-----------------------------------------------------------------|
A|-----------------------------------------------------------------|
F|-----------------------------------------------------------------|
C|-5~~~--5-----7~~~~~~~~~~--7--------------------------------------|
G|-3~~~--3-----5~~~~~~~~~~--5------7p5-7-----7p5-7---------7p5-7---|
D|-3~~~--3--0--5~~~~~~~~~~--5--0-0-7p5-7-0-0-7p5-7-0-0-0-0-7p5-7-0-|
            .                  ...       ...       .......       .

Guitar 2:
D|-------------------------------------------------------------|
A|-------------------------------------------------------------|
F|-------------------------------------------------------------|
C|-5~~~--5-----7~~~~~~~~~~--7----------------------------------|
G|-3~~~--3-----5~~~~~~~~~~--5------7p5-7-----7p5-7---------7\--|
D|-3~~~--3--0--5~~~~~~~~~~--5--0-0-7p5-7-0-0-7p5-7-0-0-0-0-7\--|
            .                  ...       ...       .......

=================================================
Chorus 3:

Guitars 1 and 2:
D|-----------------------------------------------------------------------------------|
A|-----------------------------------------------------------------------------------|
F|-----------------------------------------------------------------------------------|
C|-----------------------------------------------------------------------------------|
G|-7p5-7-----7p5-7------------------7p5-7-----7p5-7------------------7p5-7-----7p5-7-|
D|-7p5-7-0-0-7p5-7-0-0-0-0-00-0-0-0-7p5-7-0-0-7p5-7-0-0-0-0-00-0-0-0-7p5-7-0-0-7p5-7-|
         ...       ................       ...       ................       ...

=================================================
Guitars 1 and 2:
D|-----------------------------------------------------------------------------------|
A|-----------------------------------------------------------------------------------|
F|-----------------------------------------------------------------------------------|
C|-----------------------------------------------------------------------------------|
G|------------------7p5-7-----------2-1-------------7p5-7-----7p5-7------------------|
D|-0-0-0-0-00-0-0-0-7p5-7-0-0-0-2-3-----3-2-1-4-3-1-7p5-7-0-0-7p5-7-0-0-0-0-00-0-0-0-|
   ................       .........................       ...       ................

=================================================
Guitars 1 and 2:
D|-------------------------------------------------------------------|
A|-------------------------------------------------------------------|
F|-------------------------------------------------------------------|
C|-------------------------------------------------------------------|
G|-7p5-7-----7p5-7------------------7p5-7-----7p5-7------------------|
D|-7p5-7-0-0-7p5-7-0-0-0-0-00-0-0-0-7p5-7-0-0-7p5-7-0-0-0-0-00-0-0-0-|
         ...       ................       ...       ................

==================================================
Guitar 1:
D|-------------------------------------|
A|-------------------------------------|
F|-------------------------------------|
C|-------------------------------------|
G|-----10---12---9---10---7---9-7------|
D|-0-0----0----0---0----0---0-----10-7-|
   ...    .    .   .    .   . 

Guitar 2:
D|--------------------------------------|
A|--------------------------------------|
F|--------------------------------------|
C|-----9---10---7---9-------------------|
G|----------------------10---12-10-9----|
D|-0-0---0----0---0---0----0---------10-|
   ...   .    .   .   .    .

===================================================
Outro:

Guitar 1: 
D|------------------------------------------------------------------------------------|
A|------------------------------------------------------------------------------------|
F|---------7777------------9999--------11-11-11-11-12-12-12-12-14-14-14-14-12-12-12-12|
C|-----5555--------77775555--------9999-----------------------------------------------|
G|-3333--------5555------------7777---------------------------------------------------|
D|------------------------------------------------------------------------------------|
   ...................................................................................

-------------------|
-------------------|
-11-11-11-11-12~~~~|
-------------------|
-------------------|
-------------------|

Guitar 2:
D|------------------------------------------------------------------|
A|------------------------------------------------------------------|
F|------------------------------------------------------------------|
C|---------------------------------55555555-------------------------|
G|-----------------5555555555555555--------999999997777777777777777-|
D|-8888888888888888-------------------------------------------------|
   ................................................................

=======================
Guitar 1:
D|-------------------------------------------------------------------------------------------------|
A|-------------------------------------------------------------------------------------------------|
F|---------7777------------9999--------11-11-11-11-12-12-12-12-14-14-14-14-12-12-12-12-11-11-11-11-|
C|-----5555--------77775555--------9999------------------------------------------------------------|
G|-3333--------5555------------7777----------------------------------------------------------------|
D|-------------------------------------------------------------------------------------------------|
   ...............................................................................................

Guitar 2:
D|----------------------------------------------------------|
A|----------------------------------------------------------|
F|----------------------------------------------------------|
C|---------------------------------55555555-----------------|
G|-----------------5555555555555555--------9999999977777777-|
D|-8888888888888888-----------------------------------------|
   ........................................................

=======================
Guitar 1:
D|-------------------------|
A|-------------------------|
F|-------------------------|
C|-14-14-14-14-12-12-12-12-|
G|-------------------------|
D|-------------------------|
   .......................

Guitar 2:
D|----------|
A|----------|
F|----------|
C|----------|
G|-77777777-|
D|----------|
   ........

=========================
Guitar 1:
D|-------------------------------------------------------------|
A|-------------------------------------------------------------|
F|---------7777------------9999--------11-11-11-11-12-12-12-12-|
C|-----5555--------77775555--------9999------------------------|
G|-3333--------5555------------7777----------------------------|
D|-------------------------------------------------------------|
   ...........................................................

Guitar 2:
D|-------------------------------------------------------------------------------------------------|
A|-------------------------------------------------------------------------------------------------|
F|---------11-11-11-11--------------------12-12-12-12----------------------14-14-14-14-16-16-16-16-|
C|-----9999---------------12-12-12-12-9999----------------------12-12-12-12------------------------|
G|-7777---------------9999---------------------------10-10-10-10-----------------------------------|
D|-------------------------------------------------------------------------------------------------|
   ...............................................................................................

Guitar 3:
D|----------------------------------------------|
A|----------------------------------------------|
F|----------------------------------------------|
C|---------------------------------55555555-----|
G|-----------------5555555555555555--------9999-|
D|-8888888888888888-----------------------------|
   ............................................

==========================
Guitar 1:
D|-----------------------------------------------|
A|-----------------------------------------------|
F|-14-14-14-14-12-12-12-12-11-11-11-11-12~~~~~~~-|
C|-----------------------------------------------|
G|-----------------------------------------------|
D|-----------------------------------------------|
   ...................................

Guitar 2:
D|-----------------------------------------------|
A|-----------------------------------------------|
F|-17-17-17-17-16-16-16-16-14-14-14-14-16~~~~~~~-|
C|-----------------------------------------------|
G|-----------------------------------------------|
D|-----------------------------------------------|
   ...................................

Guitar 3:
D|----------------------|
A|----------------------|
F|----------------------|
C|----------------------|
G|-99997777777777777777-|
D|----------------------|
   ....................

===========================
Guitar 1:
D|-------------------------------------------------------------|
A|-------------------------------------------------------------|
F|---------7777------------9999--------11-11-11-11-12-12-12-12-|
C|-----5555--------77775555--------9999------------------------|
G|-3333--------5555------------7777----------------------------|
D|-------------------------------------------------------------|
   ...........................................................

Guitar 2:
D|-------------------------------------------------------------------------------------------------|
A|-------------------------------------------------------------------------------------------------|
F|---------11-11-11-11--------------------12-12-12-12----------------------14-14-14-14-16-16-16-16-|
C|-----9999---------------12-12-12-12-9999----------------------12-12-12-12------------------------|
G|-7777---------------9999---------------------------10-10-10-10-----------------------------------|
D|-------------------------------------------------------------------------------------------------|
   ...............................................................................................

Guitar 3:
D|----------------------------------------------|
A|----------------------------------------------|
F|----------------------------------------------|
C|---------------------------------55555555-----|
G|-----------------5555555555555555--------9999-|
D|-8888888888888888-----------------------------|
   ............................................

================================================
Guitar 1:

D|--------------------------------------------------|
A|--------------------------------------------------|
F|-14-14-14-14---12--11-----------------------------|
C|-----------------------14--12--14--12------2~~~~~-|
G|---------------------------------------14--2~~~~~-|
D|-------------------------------------------0~~~~~-|
   ...........

Guitar 2:
D|--------------------------------------------------|
A|--------------------------------------------------|
F|-17-17-17-17---16--14-----------------------------|
C|-----------------------17--16--17--16--14--2~~~~~-|
G|-------------------------------------------2~~~~~-|
D|-------------------------------------------0~~~~~-|
   ...........

Guitar 3:
D|--------------------------------|
A|--------------------------------|
F|--------------------------------|
C|-----------------------2~~~~~~~-|
G|-9999--2------2--------2~~~~~~~-|
D|-------0------0--------0~~~~~~~-|
   ....


End of Song. 
====================================
Please Rate And Comment My Tab.

Thanks.

[travis]
comments
print report bad tab
6 comments total. Showing first comments.
+1 reply
mattman2013 wrote on July 7 2009, 11:45 am

awesome tab, but why are there like 6 guitars? jw

+1 reply
[travis] wrote on July 7 2009, 06:44 pm

It's just different tracks and layers "mattman2013." Guitar 4 and 5 are clean tone guitars. Guitar 3 is an overdub guitar while Guitars 1 and 2 play the intro riffs together.

+3 reply
DimebagZappa wrote on August 15 2009, 05:10 pm

I gave you a 3/5. Verse 2 isnt quite right. Solo isnt right. Chorus 1 is wrong as well.

I base my statement upon- 1. Watching Oli Herbert play the song. 2. The Hal Leonard tab book. 3. Playing the song. 4. Watching Mike Marting play it.

Hey you asked for rating and comments.....

I want to post or [tab]
guest
You may want to rate the tab now too:
select rating
Please do not post tabs as comments. Select "correction" instead!