Oops, an error
Loading. Please wait.

Stand Up Tab

ver2
ver2

Whole song

More versions @911Tabs.com
8,913 views 57 this week
1 commentread comment
1 2 3 4 5
excellent!
x 4
Autoscroll
+/-
esc
set tempo
stop
Contributor
Difficulty
Tuning
intermediate
C# G# C# F# A# D#
WARNING: You are trying to view
                                    content from Ultimate-Guitar.com
                                    in an unauthorized application,
                                    which is prohibited.

                                    Please use an official Ultimate
                                    Guitar Tabs application for iPhone,
                                    iPad or Android to access legitimate
                                    chords, guitar, bass, and drum tabs
                                    from Ultimate-Guitar.com database.

                                    Type "ultimate guitar tabs" in Apple
                                    App Store's or Android Market's
                                    search to find the application.
----------------------------------------------------------------------------
                               Stand Up
                            All That Remains
----------------------------------------------------------------------------

I know a lot of people have moved on from ATR, but I don’t see reason to. They 
haven’t turned to pop, they haven’t turned to rap, they haven’t turned country, 
they are still making some awesome metal compositions. As long as they are still 
writing very cool songs, they shouldn’t be falsified. But, that’s just my opinion. Enjoy! 

Username: dkm817 (same on X box live)
Youtube Cover: http://www.youtube.com/watch?v=EYFdTVnVA_A
Email: guitardrums@rockfan.com

Guitar 1 Rhythmic (C# G# C# F# A# D#)
Guitar 2 Lead     (C# G# C# F# A# D#)

NOTE: This was exported off of guitar pro.


Guitar 1

        Q        W                   H        Q    S E  S    W                 
D#||----------|-------------------|-----------------------|-------------------|
A#||----------|-------------------|-----------------------|-------------------|
F#||----------|-------------------|------------------5--L-|--3----------------|
C#||--/12\----|--0----------------|--L--------L----L-5--L-|--3----------------|
G#||--/12\----|--0----------------|--L--------L----L-3--L-|--1----------------|
C#||--/12\----|--0----------------|--L--------L----L------|-------------------|


  H        H           H        Q    E  E     H        Q    S E  S  
--------------------|----------------------|-----------------------|
--------------------|----------------------|-----------------------|
--L--------2--------|----------------------|------------------5--L-|
--L--------2--------|--0--------L----L--3--|--0--------L----L-5--L-|
--L--------0--------|--0--------L----L--3--|--0--------L----L-3--L-|
--------------------|--0--------L----L--3--|--0--------L----L------|


  H        Q    E  E     H        H         
----------------------|--------------------|
----------------------|--------------------|
--3--------L----L--5--|--3--------2--------|
--3--------L----L--5--|--3--------2--------|
--1--------L----L--3--|--1--------0--------|
----------------------|--------------------|


  PM PM PM   PM   PM   PM PM PM    PM   PM    
  S  S  S  S S  S S  S S  S  S   S S  S S  S  
---------------------------------------------|
---------------------------------------------|
---------------------------------------------|
-----------7----8----7----------10----8----7-|
---------------------------------------------|
--0--0--0----0----0----0--0--0-----0----0----|


    PM PM   PM   PM   PM PM PM    PM   PM    
  S S  S  S S  S S  S S  S  S   S S  S S  S  
--------------------------------------------|
--------------------------------------------|
--7-----------------------------------------|
--7-------7----8----7-----------------------|
--5----------------------------10----7----8-|
----0--0----0----0----0--0--0-----0----0----|


    PM PM   PM    PM   PM PM PM   PM   PM    
  S S  S  S S   S S  S S  S  S  S S  S S  S  
--------------------------------------------|
--------------------------------------------|
--------------------------------------------|
--8-----------------------------------------|
--8-------8----10----8----------7----8----5-|
--8-8--8----8-----8----8--8--8----8----8----|


    PM PM   PM   PM   PM PM PM   PM   PM     
  S S  S  S S  S S  S S  S  S  S S  S S   S  
--------------------------------------------|
--------------------------------------------|
--------------------------------------------|
--7-----------------------------------------|
--7-0--0--7-0--8-0--7-0--0--0--7-0--8-0--10-|
--7-----------------------------------------|


    PM PM   PM   PM   PM PM PM    PM   PM    
  S S  S  S S  S S  S S  S  S   S S  S S  S  
--------------------------------------------|
--------------------------------------------|
--7-----------------------------------------|
--7-------7----8----7----------10----8----7-|
--5-----------------------------------------|
----0--0----0----0----0--0--0-----0----0----|


    PM PM   PM   PM   PM PM PM    PM   PM    
  S S  S  S S  S S  S S  S  S   S S  S S  S  
--------------------------------------------|
--------------------------------------------|
--------------------------------------------|
--0-------7----8----7-----------------------|
--0----------------------------10----8----7-|
--0-0--0----0----0----0--0--0-----0----0----|


    PM PM   PM    PM   PM PM PM   PM   PM    
  S S  S  S S   S S  S S  S  S  S S  S S  S  
--------------------------------------------|
--------------------------------------------|
--------------------------------------------|
--8-----------------------------------------|
--8-------8----10----8----------7----8----5-|
--8-8--8----8-----8----8--8--8----8----8----|


    PM PM   PM   PM   PM PM PM   PM   PM          PM PM                
  S S  S  S S  S S  S S  S  S  S S  S S   S    E  S  S  H        Q     
--------------------------------------------|-------------------------|
--------------------------------------------|-------------------------|
--------------------------------------------|-------------------------|
--7-----------------------------------------|--7--7--7--7--------L----|
--7-0--0--7-0--8-0--7-0--0--0--7-0--8-0--10-|--5--5--5--5--------L----|
--7-----------------------------------------|--5--5--5--5--------L----|


       PM PM                       PM PM                
   E   S  S  H        Q        E   S  S  H        Q     
---------------------------|---------------------------|
---------------------------|---------------------------|
---------------------------|---------------------------|
--10--10-10-10--------L----|--10--10-10-10--------L----|
---7---7--7--7--------L----|---8---8--8--8--------L----|
---7---7--7--7--------L----|---8---8--8--8--------L----|


       PM PM          PM PM       PM PM                
   E   S  S  H        E  E     E  S  S  H        Q     
----------------------------|-------------------------|
----------------------------|-------------------------|
----------------------------|-------------------------|
--10--10-10-10--------------|--7--7--7--7--------L----|
--10--10-10-10--------3--3--|--5--5--5--5--------L----|
--10--10-10-10--------5--5--|--5--5--5--5--------L----|


       PM PM                       PM PM                
   E   S  S  H        Q        E   S  S  H        Q     
---------------------------|---------------------------|
---------------------------|---------------------------|
---------------------------|---------------------------|
--10--10-10-10--------L----|--10--10-10-10--------L----|
---7---7--7--7--------L----|---8---8--8--8--------L----|
---7---7--7--7--------L----|---8---8--8--8--------L----|


       PM PM     PM PM       PM PM       PM PM                        
   E   S  S  E   S  S  S  S  S  S  S  S  S  S    H        Q    E  E   
----------------------------------------------|----------------------|
----------------------------------------------|----------------------|
----------------------------------------------|----------------------|
--10--10-10-10--10-10-11-11-11-11-11-11-11-11-|--0--------L----L--3--|
--10--10-10-10--10-10-11-11-11-11-11-11-11-11-|--0--------L----L--3--|
--10--10-10-10--10-10-11-11-11-11-11-11-11-11-|--0--------L----L--3--|


  H        Q    S E  S    H        Q    E  E     H        H         
-----------------------|----------------------|--------------------|
-----------------------|----------------------|--------------------|
------------------5--L-|--3--------L----L--5--|--3--------2--------|
--0--------L----L-5--L-|--3--------L----L--5--|--3--------2--------|
--0--------L----L-3--L-|--1--------L----L--3--|--1--------0--------|
--0--------L----L------|----------------------|--------------------|


  H        Q    E  E     H        Q    S E  S    H        Q    E  E   
----------------------|-----------------------|----------------------|
----------------------|-----------------------|----------------------|
----------------------|------------------5--L-|--3--------L----L--5--|
--0--------L----L--3--|--0--------L----L-5--L-|--3--------L----L--5--|
--0--------L----L--3--|--0--------L----L-3--L-|--1--------L----L--3--|
--0--------L----L--3--|--0--------L----L------|----------------------|


                   PM   PM      PM PM PM   PM   PM   PM PM PM    PM   PM    
  H        S S S S S  S S  S    S  S  S  S S  S S  S S  S  S   S S  S S  S  
-----------------------------|---------------------------------------------|
-----------------------------|---------------------------------------------|
--3--------2-2-2-2----5----7-|---------------------------------------------|
--3--------2-2-2-2-0--5-0--7-|-----------7----8----7----------10----8----7-|
--1--------0-0-0-0-0--3-0--5-|---------------------------------------------|
-------------------0----0----|--0--0--0----0----0----0--0--0-----0----0----|


    PM PM   PM   PM   PM PM PM    PM   PM    
  S S  S  S S  S S  S S  S  S   S S  S S  S  
--------------------------------------------|
--------------------------------------------|
--7-----------------------------------------|
--7-------7----8----7-----------------------|
--5----------------------------10----7----8-|
----0--0----0----0----0--0--0-----0----0----|


    PM PM   PM    PM   PM PM PM   PM   PM    
  S S  S  S S   S S  S S  S  S  S S  S S  S  
--------------------------------------------|
--------------------------------------------|
--------------------------------------------|
--8-----------------------------------------|
--8-------8----10----8----------7----8----5-|
--8-8--8----8-----8----8--8--8----8----8----|


    PM PM   PM   PM   PM PM PM   PM   PM     
  S S  S  S S  S S  S S  S  S  S S  S S   S  
--------------------------------------------|
--------------------------------------------|
--------------------------------------------|
--7-----------------------------------------|
--7-0--0--7-0--8-0--7-0--0--0--7-0--8-0--10-|
--7-----------------------------------------|


    PM PM   PM   PM   PM PM PM    PM   PM    
  S S  S  S S  S S  S S  S  S   S S  S S  S  
--------------------------------------------|
--------------------------------------------|
--7-----------------------------------------|
--7-------7----8----7----------10----8----7-|
--5-----------------------------------------|
----0--0----0----0----0--0--0-----0----0----|


    PM PM   PM   PM   PM PM PM    PM   PM    
  S S  S  S S  S S  S S  S  S   S S  S S  S  
--------------------------------------------|
--------------------------------------------|
--------------------------------------------|
--0-------7----8----7-----------------------|
--0----------------------------10----8----7-|
--0-0--0----0----0----0--0--0-----0----0----|


    PM PM   PM    PM   PM PM PM   PM   PM    
  S S  S  S S   S S  S S  S  S  S S  S S  S  
--------------------------------------------|
--------------------------------------------|
--------------------------------------------|
--8-----------------------------------------|
--8-------8----10----8----------7----8----5-|
--8-8--8----8-----8----8--8--8----8----8----|


    PM PM   PM   PM   PM PM PM   PM   PM          PM PM                
  S S  S  S S  S S  S S  S  S  S S  S S   S    E  S  S  H        Q     
--------------------------------------------|-------------------------|
--------------------------------------------|-------------------------|
--------------------------------------------|-------------------------|
--7-----------------------------------------|--7--7--7--7--------L----|
--7-0--0--7-0--8-0--7-0--0--0--7-0--8-0--10-|--5--5--5--5--------L----|
--7-----------------------------------------|--5--5--5--5--------L----|


       PM PM                       PM PM                
   E   S  S  H        Q        E   S  S  H        Q     
---------------------------|---------------------------|
---------------------------|---------------------------|
---------------------------|---------------------------|
--10--10-10-10--------L----|--10--10-10-10--------L----|
---7---7--7--7--------L----|---8---8--8--8--------L----|
---7---7--7--7--------L----|---8---8--8--8--------L----|


       PM PM                PM PM       PM PM                
   E   S  S  H         S  S S  S     E  S  S  H        Q     
----------------------------------|-------------------------|
----------------------------------|-------------------------|
----------------------------------|-------------------------|
--10--10-10-10--------10-12-0--0--|--7--7--7--7--------L----|
--10--10-10-10--------10-12-0--0--|--5--5--5--5--------L----|
--10--10-10-10--------10-12-0--0--|--5--5--5--5--------L----|


       PM PM                       PM PM                
   E   S  S  H        Q        E   S  S  H        Q     
---------------------------|---------------------------|
---------------------------|---------------------------|
---------------------------|---------------------------|
--10--10-10-10--------L----|--10--10-10-10--------L----|
---7---7--7--7--------L----|---8---8--8--8--------L----|
---7---7--7--7--------L----|---8---8--8--8--------L----|


       PM PM     PM PM       PM PM       PM PM                        
   E   S  S  E   S  S  S  S  S  S  S  S  S  S    H        Q    E  E   
----------------------------------------------|----------------------|
----------------------------------------------|----------------------|
----------------------------------------------|----------------------|
--10--10-10-10--10-10-11-11-11-11-11-11-11-11-|--0--------L----L--3--|
--10--10-10-10--10-10-11-11-11-11-11-11-11-11-|--0--------L----L--3--|
--10--10-10-10--10-10-11-11-11-11-11-11-11-11-|--0--------L----L--3--|


  H        Q    S E  S    H        Q    E  E     H        H         
-----------------------|----------------------|--------------------|
-----------------------|----------------------|--------------------|
------------------5--L-|--3--------L----L--5--|--3--------2--------|
--0--------L----L-5--L-|--3--------L----L--5--|--3--------2--------|
--0--------L----L-3--L-|--1--------L----L--3--|--1--------0--------|
--0--------L----L------|----------------------|--------------------|


  H        Q    E  E     H        Q    S E  S    H        Q    E  E   
----------------------|-----------------------|----------------------|
----------------------|-----------------------|----------------------|
----------------------|------------------5--L-|--3--------L----L--5--|
--0--------L----L--3--|--0--------L----L-5--L-|--3--------L----L--5--|
--0--------L----L--3--|--0--------L----L-3--L-|--1--------L----L--3--|
--0--------L----L--3--|--0--------L----L------|----------------------|


                          PM    PM   PM    PM    PM   PM   PM   PM    
  H        E  E  E  E     S   S S  S S   S S  S  S S  S  S S  S S  S  
-----------------------|---------------------------------------------|
-----------------------|---------------------------------------------|
--3--------5-----7-----|---------------------------------------------|
--3--------5-----7-----|--------------------------------10----8----7-|
--1--------3-----5-----|-----10----8----------7----8-------7----7----|
-----------------------|--8-----8----8--12-8----10---10--------------|


     PM PM PM PM PM PM PM PM PM PM PM PM PM PM PM PM PM PM PM  
  E  S  S  T  T  S  T  T  S  S  S  T  T  S  T  T  S  T  T  S   
--------------------------------------------------------------|
--------------------------------------------------------------|
--------------------------------------------------------------|
--0--0--0--0--0--0--0--0--0--0--0--0--0--0--0--0--0--0--0--0--|
--0--0--0--0--0--0--0--0--0--0--0--0--0--0--0--0--0--0--0--0--|
--0--0--0--0--0--0--0--0--0--0--0--0--0--0--0--0--0--0--0--0--|


  PM    PM   PM    PM    PM   PM   PM   PM    
  S   S S  S S   S S  S  S S  S  S S  S S  S  
---------------------------------------------|
---------------------------------------------|
--------------------------------------7----9-|
--------------------------------10-----------|
-----10----8----------7----8-------7----7----|
--8-----8----8--12-8----10---10--------------|


       PM PM PM PM PM PM PM PM PM PM PM PM PM PM PM PM PM PM PM  
   S S S  S  T  T  S  T  T  S  S  S  T  T  S  T  T  S  T  T  S   
----------------------------------------------------------------|
----------------------------------------------------------------|
--10-L----------------------------------------------------------|
-------0--0--0--0--0--0--0--0--0--0--0--0--0--0--0--0--0--0--0--|
-------0--0--0--0--0--0--0--0--0--0--0--0--0--0--0--0--0--0--0--|
-------0--0--0--0--0--0--0--0--0--0--0--0--0--0--0--0--0--0--0--|


  PM    PM   PM    PM    PM   PM   PM   PM    
  S   S S  S S   S S  S  S S  S  S S  S S  S  
---------------------------------------------|
---------------------------------------------|
---------------------------------------------|
--------------------------------10----8----7-|
-----10----8----------7----8-------7----7----|
--8-----8----8--12-8----10---10--------------|


     PM PM PM PM PM PM PM PM PM PM PM PM PM PM PM PM PM PM PM  
  E  S  S  T  T  S  T  T  S  S  S  T  T  S  T  T  S  T  T  S   
--------------------------------------------------------------|
--------------------------------------------------------------|
--------------------------------------------------------------|
--0--0--0--0--0--0--0--0--0--0--0--0--0--0--0--0--0--0--0--0--|
--0--0--0--0--0--0--0--0--0--0--0--0--0--0--0--0--0--0--0--0--|
--0--0--0--0--0--0--0--0--0--0--0--0--0--0--0--0--0--0--0--0--|


  PM    PM   PM    PM    PM   PM   PM   PM                                 
  S   S S  S S   S S  S  S S  S  S S  S S  S     E  S  S  E  E  Q    Q     
---------------------------------------------|----------------------------|
---------------------------------------------|----------------------------|
--------------------------------------7----9-|--10--L\--------------------|
--------------------------------10-----------|-----------10-----8----7----|
-----10----8----------7----8-------7----7----|------------8-----8----7----|
--8-----8----8--12-8----10---10--------------|------------8-----8----7----|


    PM PM PM PM PM PM PM PM PM PM PM PM PM PM PM PM PM PM PM PM  
  S S  S  S  T  T  S  T  T  S  S  S  T  T  S  T  T  S  T  T  S   
----------------------------------------------------------------|
----------------------------------------------------------------|
----------------------------------------------------------------|
--0-0--0--0--0--0--0--0--0--0--0--0--0--0--0--0--0--0--0--0--0--|
--0-0--0--0--0--0--0--0--0--0--0--0--0--0--0--0--0--0--0--0--0--|
--0-0--0--0--0--0--0--0--0--0--0--0--0--0--0--0--0--0--0--0--0--|


    PM PM PM PM PM PM PM PM PM PM PM PM PM PM           
  S S  S  S  T  T  S  T  T  S  S  S  S  S  S   S  S  S  
-------------------------------------------------------|
-------------------------------------------------------|
-------------------------------------------------------|
--0-0--0--0--0--0--0--0--0--0--0--0--0--0--0--10-10-10-|
--0-0--0--0--0--0--0--0--0--0--0--0--0--0--0--10-10-10-|
--0-0--0--0--0--0--0--0--0--0--0--0--0--0--0--10-10-10-|


    PM PM PM PM PM PM PM PM PM PM PM PM PM PM PM PM PM PM PM PM  
  S S  S  S  T  T  S  T  T  S  S  S  T  T  S  T  T  S  T  T  S   
----------------------------------------------------------------|
----------------------------------------------------------------|
----------------------------------------------------------------|
--8-8--8--8--8--8--8--8--8--8--8--8--8--8--8--8--8--8--8--8--8--|
--8-8--8--8--8--8--8--8--8--8--8--8--8--8--8--8--8--8--8--8--8--|
--8-8--8--8--8--8--8--8--8--8--8--8--8--8--8--8--8--8--8--8--8--|


    PM PM PM PM PM PM PM PM PM PM PM PM PM PM        
  S S  S  S  T  T  S  T  T  S  S  S  S  S  S  S S S  
----------------------------------------------------|
----------------------------------------------------|
----------------------------------------------------|
--8-8--8--8--8--8--8--8--8--8--8--8--8--8--8--7-7-7-|
--8-8--8--8--8--8--8--8--8--8--8--8--8--8--8--7-7-7-|
--8-8--8--8--8--8--8--8--8--8--8--8--8--8--8--7-7-7-|


    PM PM PM PM PM PM PM PM PM PM PM PM PM PM PM PM PM PM PM PM  
  S S  S  S  T  T  S  T  T  S  S  S  T  T  S  T  T  S  T  T  S   
----------------------------------------------------------------|
----------------------------------------------------------------|
----------------------------------------------------------------|
--0-0--0--0--0--0--0--0--0--0--0--0--0--0--0--0--0--0--0--0--0--|
--0-0--0--0--0--0--0--0--0--0--0--0--0--0--0--0--0--0--0--0--0--|
--0-0--0--0--0--0--0--0--0--0--0--0--0--0--0--0--0--0--0--0--0--|


    PM PM PM PM PM PM PM PM PM PM PM PM PM PM           
  S S  S  S  T  T  S  T  T  S  S  S  S  S  S   S  S  S  
-------------------------------------------------------|
-------------------------------------------------------|
-------------------------------------------------------|
--0-0--0--0--0--0--0--0--0--0--0--0--0--0--0--10-10-10-|
--0-0--0--0--0--0--0--0--0--0--0--0--0--0--0--10-10-10-|
--0-0--0--0--0--0--0--0--0--0--0--0--0--0--0--10-10-10-|


    PM PM PM PM PM PM PM PM PM PM PM PM PM PM PM PM PM PM PM PM  
  S S  S  S  T  T  S  T  T  S  S  S  T  T  S  T  T  S  T  T  S   
----------------------------------------------------------------|
----------------------------------------------------------------|
----------------------------------------------------------------|
--8-8--8--8--8--8--8--8--8--8--8--8--8--8--8--8--8--8--8--8--8--|
--8-8--8--8--8--8--8--8--8--8--8--8--8--8--8--8--8--8--8--8--8--|
--8-8--8--8--8--8--8--8--8--8--8--8--8--8--8--8--8--8--8--8--8--|


    PM PM PM PM PM PM PM PM PM PM PM PM PM PM                              
  S S  S  S  T  T  S  T  T  S  S  S  S  S  S  S S S    H        Q    Q     
----------------------------------------------------|---------------------|
----------------------------------------------------|---------------------|
----------------------------------------------------|---------------------|
--8-8--8--8--8--8--8--8--8--8--8--8--8--8--8--7-7-7-|--0--------L----3----|
--8-8--8--8--8--8--8--8--8--8--8--8--8--8--8--7-7-7-|--0--------L----3----|
--8-8--8--8--8--8--8--8--8--8--8--8--8--8--8--7-7-7-|--0--------L----3----|


  H        Q    Q       H        Q    Q       H        E  E  E  E   
---------------------|---------------------|-----------------------|
---------------------|---------------------|-----------------------|
----------------5----|--3--------L----5----|--3--------2-----------|
--0--------L----5----|--3--------L----5----|--3--------2-----------|
--0--------L----3----|--1--------L----3----|--1--------0-----------|
--0--------L---------|---------------------|-----------------------|


  H        Q    E  E     H        Q    S E  S    H        Q    E  E   
----------------------|-----------------------|----------------------|
----------------------|-----------------------|----------------------|
----------------------|------------------5--L-|--3--------L----L--5--|
--0--------L----L--3--|--0--------L----L-5--L-|--3--------L----L--5--|
--0--------L----L--3--|--0--------L----L-3--L-|--1--------L----L--3--|
--0--------L----L--3--|--0--------L----L------|----------------------|


  H        H           H        Q    E  E     H        Q    S E  S  
--------------------|----------------------|-----------------------|
--------------------|----------------------|-----------------------|
--3--------2--------|----------------------|------------------5--L-|
--3--------2--------|--0--------L----L--3--|--0--------L----L-5--L-|
--1--------0--------|--0--------L----L--3--|--0--------L----L-3--L-|
--------------------|--0--------L----L--3--|--0--------L----L------|


  H        Q    E  E     H        H           H        Q    E  E   
----------------------|--------------------|----------------------|
----------------------|--------------------|----------------------|
--3--------L----L--5--|--3--------2--------|----------------------|
--3--------L----L--5--|--3--------2--------|--0--------L----L--3--|
--1--------L----L--3--|--1--------0--------|--0--------L----L--3--|
----------------------|--------------------|--0--------L----L--3--|


  H        Q    S E  S    H        Q    E  E     H        Q    Q     
-----------------------|----------------------|---------------------|
-----------------------|----------------------|---------------------|
------------------5--L-|--3--------L----L--5--|--3--------3----5----|
--0--------L----L-5--L-|--3--------L----L--5--|--3--------3----5----|
--0--------L----L-3--L-|--1--------L----L--3--|--1--------1----3----|
--0--------L----L------|----------------------|---------------------|


  W                   W                   W                 
-------------------|-------------------|-------------------|
-------------------|-------------------|-------------------|
-------------------|-------------------|-------------------|
--0----------------|--L----------------|--L----------------|
--0----------------|--L----------------|--L----------------|
--0----------------|--L----------------|--L----------------|


  W                  
-------------------||
-------------------||
-------------------||
--L----------------||
--L----------------||
--L----------------||


Guitar 2

                 PM PM         PM PM         PM PM        
        Q        S  S  S S S S S  S  S S S S S  S   S  S  
D#||----------|------------------------------------------|
A#||----------|------------------------------------------|
F#||----------|--------7-7-7-7-------7-7-7-7-------10-10-|
C#||--/12\----|--0--0--7-7-7-7-0--0--7-7-7-7-0--0--10-10-|
G#||--/12\----|--0--0--5-5-5-5-0--0--5-5-5-5-0--0---8--8-|
C#||--/12\----|--0--0----------0--0----------0--0--------|


  PM PM         PM PM         PM        
  S  S  S S S S S  S  S S S S S  S S S  
---------------------------------------|
---------------------------------------|
--------7-7-7-7-------7-7-7-7----5-5-5-|
--0--0--7-7-7-7-0--0--7-7-7-7-0--5-5-5-|
--0--0--5-5-5-5-0--0--5-5-5-5-0--3-3-3-|
--0--0----------0--0----------0--------|


  PM PM         PM PM         PM PM      
  S  S  S S S S S  S  S S S S S  S  S S  
----------------------------------------|
----------------------------------------|
--------3-3-3-3-------3-3-3-3-------5-5-|
--0--0--3-3-3-3-0--0--3-3-3-3-0--0--5-5-|
--0--0--1-1-1-1-0--0--1-1-1-1-0--0--3-3-|
--0--0----------0--0----------0--0------|


  PM PM         PM PM         PM   PM                                       
  S  S  S S S S S  S  S S S S S  S S  S    S S S S S S S S S S S S S S S S  
----------------------------------------|--3-5-5-5-x-5-x-x-3-5-5-5-x-5-x-x-|
----------------------------------------|--x-x-x-x-x-x-x-x-x-x-x-x-x-x-x-x-|
--------3-3-3-3-------2-2-2-2-----------|--5-7-7-7-x-7-x-x-5-7-7-7-x-7-x-x-|
--0--0--3-3-3-3-0--0--2-2-2-2-----------|--x-x-x-x-x-x-x-x-x-x-x-x-x-x-x-x-|
--0--0--1-1-1-1-0--0--0-0-0-0----3----5-|--3-5-5-5-x-5-x-x-3-5-5-5-x-5-x-x-|
--0--0----------0--0----------0----0----|----------------------------------|


  S S S S S S S S S S S S S S S S  
--3-5-5-5-x-5-x-x-3-5-x-x-5-7-x-x-|
--x-x-x-x-x-x-x-x-x-x-x-x-x-x-x-x-|
--5-7-7-7-x-7-x-x-5-7-x-x-7-9-x-x-|
--x-x-x-x-x-x-x-x-x-x-x-x-x-x-x-x-|
--3-5-5-5-x-5-x-x-3-5-x-x-5-7-x-x-|
----------------------------------|


  S  S  S  S  S  S  S  S S  S  S  S  S  S  S  S  
--7--8--8--8--x--8--x--x-7--8--8--8--x--8--x--x-|
--x--x--x--x--x--x--x--x-x--x--x--x--x--x--x--x-|
--9-10-10-10--x-10--x--x-9-10-10-10--x-10--x--x-|
--x--x--x--x--x--x--x--x-x--x--x--x--x--x--x--x-|
--7--8--8--8--x--8--x--x-7--8--8--8--x--8--x--x-|
------------------------------------------------|


  S  S  S  S  S  S  S  S  S S S S S S S S  
--7--8--8--8--x--8--x--x--8-7-x-x-7-5-x-x-|
--x--x--x--x--x--x--x--x--x-x-x-x-x-x-x-x-|
--9-10-10-10--x-10--x--x-10-9-x-x-9-7-x-x-|
--x--x--x--x--x--x--x--x--x-x-x-x-x-x-x-x-|
--7--8--8--8--x--8--x--x--8-7-x-x-7-5-x-x-|
------------------------------------------|


  PM PM PM   PM   PM   PM PM PM    PM   PM    
  S  S  S  S S  S S  S S  S  S   S S  S S  S  
---------------------------------------------|
---------------------------------------------|
---------------------------------------------|
-----------7----8----7----------10----8----7-|
---------------------------------------------|
--0--0--0----0----0----0--0--0-----0----0----|


    PM PM   PM   PM   PM PM PM    PM   PM    
  S S  S  S S  S S  S S  S  S   S S  S S  S  
--------------------------------------------|
--------------------------------------------|
--7-----------------------------------------|
--7-------7----8----7-----------------------|
--5----------------------------10----7----8-|
----0--0----0----0----0--0--0-----0----0----|


    PM PM   PM    PM   PM PM PM   PM   PM    
  S S  S  S S   S S  S S  S  S  S S  S S  S  
--------------------------------------------|
--------------------------------------------|
--------------------------------------------|
--8-----------------------------------------|
--8-------8----10----8----------7----8----5-|
--8-8--8----8-----8----8--8--8----8----8----|


    PM PM   PM   PM   PM PM PM   PM   PM     
  S S  S  S S  S S  S S  S  S  S S  S S   S  
--------------------------------------------|
--------------------------------------------|
--------------------------------------------|
--7-----------------------------------------|
--7-0--0--7-0--8-0--7-0--0--0--7-0--8-0--10-|
--7-----------------------------------------|


    PM PM   PM   PM   PM PM PM    PM   PM    
  S S  S  S S  S S  S S  S  S   S S  S S  S  
--------------------------------------------|
--------------------------------------------|
--7-----------------------------------------|
--7-----------------------------------------|
--5-----------------------------------------|
----0--0--7-0--8-0--7-0--0--0--10-0--8-0--7-|


    PM PM   PM   PM   PM PM PM   PM        
  S S  S  S S  S S  S S  S  S  S S  S S S  
------------------------------------------|
------------------------------------------|
------------------------------------------|
--0---------------------------------------|
--0---------------------------------3-1-5-|
--0-0--0--7-0--8-0--7-0--0--0--5-0--------|


    PM PM   PM   PM   PM PM PM    PM    PM    
  S S  S  S S  S S  S S  S  S   S S   S S  S  
---------------------------------------------|
---------------------------------------------|
---------------------------------------------|
--8------------------------------------------|
--8-------5----7----8----------10----12----8-|
--8-8--8----8----8----8--8--8-----8-----8----|


    PM PM   PM   PM   PM PM PM   PM   PM         PM PM                
  S S  S  S S  S S  S S  S  S  S S  S S  S    E  S  S  H        Q     
-------------------------------------------|-------------------------|
-------------------------------------------|-------------------------|
-------------------------------------------|-------------------------|
--7----------------------------------------|--7--7--7--7--------L----|
--7-0--0--7-0--8-0--7-0--0--0--3-0--5-0--7-|--5--5--5--5--------L----|
--7----------------------------------------|--5--5--5--5--------L----|


       PM PM                       PM PM                
   E   S  S  H        Q        E   S  S  H        Q     
---------------------------|---------------------------|
---------------------------|---------------------------|
---------------------------|---------------------------|
--10--10-10-10--------L----|--10--10-10-10--------L----|
---7---7--7--7--------L----|---8---8--8--8--------L----|
---7---7--7--7--------L----|---8---8--8--8--------L----|


       PM PM          PM PM       PM PM                
   E   S  S  H        E  E     E  S  S  H        Q     
----------------------------|-------------------------|
----------------------------|-------------------------|
----------------------------|-------------------------|
--10--10-10-10--------------|--7--7--7--7--------L----|
--10--10-10-10--------3--3--|--5--5--5--5--------L----|
--10--10-10-10--------5--5--|--5--5--5--5--------L----|


       PM PM                       PM PM                
   E   S  S  H        Q        E   S  S  H        Q     
---------------------------|---------------------------|
---------------------------|---------------------------|
---------------------------|---------------------------|
--10--10-10-10--------L----|--10--10-10-10--------L----|
---7---7--7--7--------L----|---8---8--8--8--------L----|
---7---7--7--7--------L----|---8---8--8--8--------L----|


       PM PM     PM PM       PM PM       PM PM 
   E   S  S  E   S  S  S  S  S  S  S  S  S  S  
----------------------------------------------|
----------------------------------------------|
----------------------------------------------|
--10--10-10-10--10-10-11-11-11-11-11-11-11-11-|
--10--10-10-10--10-10-11-11-11-11-11-11-11-11-|
--10--10-10-10--10-10-11-11-11-11-11-11-11-11-|


  S S S S S S S S S S S S S S S S    S S S S S S S S S S S S S S S S  
--3-5-5-5-x-5-x-x-3-5-5-5-x-5-x-x-|--3-5-5-5-x-5-x-x-3-5-x-x-5-7-x-x-|
--x-x-x-x-x-x-x-x-x-x-x-x-x-x-x-x-|--x-x-x-x-x-x-x-x-x-x-x-x-x-x-x-x-|
--5-7-7-7-x-7-x-x-5-7-7-7-x-7-x-x-|--5-7-7-7-x-7-x-x-5-7-x-x-7-9-x-x-|
--x-x-x-x-x-x-x-x-x-x-x-x-x-x-x-x-|--x-x-x-x-x-x-x-x-x-x-x-x-x-x-x-x-|
--3-5-5-5-x-5-x-x-3-5-5-5-x-5-x-x-|--3-5-5-5-x-5-x-x-3-5-x-x-5-7-x-x-|
----------------------------------|----------------------------------|


  S  S  S  S  S  S  S  S S  S  S  S  S  S  S  S  
--7--8--8--8--x--8--x--x-7--8--8--8--x--8--x--x-|
--x--x--x--x--x--x--x--x-x--x--x--x--x--x--x--x-|
--9-10-10-10--x-10--x--x-9-10-10-10--x-10--x--x-|
--x--x--x--x--x--x--x--x-x--x--x--x--x--x--x--x-|
--7--8--8--8--x--8--x--x-7--8--8--8--x--8--x--x-|
------------------------------------------------|


  S  S  S  S  S  S  S  S  S S S S S S S S    S S S S S S S S S S S S S S S S  
--7--8--8--8--x--8--x--x--8-7-x-x-7-5-x-x-|--3-5-5-5-x-5-x-x-3-5-5-5-x-5-x-x-|
--x--x--x--x--x--x--x--x--x-x-x-x-x-x-x-x-|--x-x-x-x-x-x-x-x-x-x-x-x-x-x-x-x-|
--9-10-10-10--x-10--x--x-10-9-x-x-9-7-x-x-|--5-7-7-7-x-7-x-x-5-7-7-7-x-7-x-x-|
--x--x--x--x--x--x--x--x--x-x-x-x-x-x-x-x-|--x-x-x-x-x-x-x-x-x-x-x-x-x-x-x-x-|
--7--8--8--8--x--8--x--x--8-7-x-x-7-5-x-x-|--3-5-5-5-x-5-x-x-3-5-5-5-x-5-x-x-|
------------------------------------------|----------------------------------|


  S S S S S S S S S S S S S S S S  
--3-5-5-5-x-5-x-x-3-5-x-x-5-7-x-x-|
--x-x-x-x-x-x-x-x-x-x-x-x-x-x-x-x-|
--5-7-7-7-x-7-x-x-5-7-x-x-7-9-x-x-|
--x-x-x-x-x-x-x-x-x-x-x-x-x-x-x-x-|
--3-5-5-5-x-5-x-x-3-5-x-x-5-7-x-x-|
----------------------------------|


  S  S  S  S  S  S  S  S S  S  S  S  S  S  S  S  
--9-10-10-10--x-10--x--x-9-10-10-10--x-10--x--x-|
--x--x--x--x--x--x--x--x-x--x--x--x--x--x--x--x-|
--9-10-10-10--x-10--x--x-9-10-10-10--x-10--x--x-|
--x--x--x--x--x--x--x--x-x--x--x--x--x--x--x--x-|
--7--8--8--8--x--8--x--x-7--8--8--8--x--8--x--x-|
------------------------------------------------|


                                 PM   PM    
  S  S  S  S  S  S  S  S S S S S S  S S  S  
--9-10-10-10--x-10--x--x-------------------|
--x--x--x--x--x--x--x--x-------------------|
--9-10-10-10--x-10--x--x-2-2-2-2----5----7-|
--x--x--x--x--x--x--x--x-2-2-2-2-0--5-0--7-|
--7--8--8--8--x--8--x--x-0-0-0-0-0--3-0--5-|
---------------------------------0----0----|


  PM PM PM   PM   PM   PM PM PM    PM   PM    
  S  S  S  S S  S S  S S  S  S   S S  S S  S  
---------------------------------------------|
---------------------------------------------|
---------------------------------------------|
-----------7----8----7----------10----8----7-|
---------------------------------------------|
--0--0--0----0----0----0--0--0-----0----0----|


    PM PM   PM   PM   PM PM PM    PM   PM    
  S S  S  S S  S S  S S  S  S   S S  S S  S  
--------------------------------------------|
--------------------------------------------|
--7-----------------------------------------|
--7-------7----8----7-----------------------|
--5----------------------------10----7----8-|
----0--0----0----0----0--0--0-----0----0----|


    PM PM   PM    PM   PM PM PM   PM   PM    
  S S  S  S S   S S  S S  S  S  S S  S S  S  
--------------------------------------------|
--------------------------------------------|
--------------------------------------------|
--8-----------------------------------------|
--8-------8----10----8----------7----8----5-|
--8-8--8----8-----8----8--8--8----8----8----|


    PM PM   PM   PM   PM PM PM   PM   PM     
  S S  S  S S  S S  S S  S  S  S S  S S   S  
--------------------------------------------|
--------------------------------------------|
--------------------------------------------|
--7-----------------------------------------|
--7-0--0--7-0--8-0--7-0--0--0--7-0--8-0--10-|
--7-----------------------------------------|


    PM PM   PM   PM   PM PM PM    PM   PM    
  S S  S  S S  S S  S S  S  S   S S  S S  S  
--------------------------------------------|
--------------------------------------------|
--7-----------------------------------------|
--7-----------------------------------------|
--5-----------------------------------------|
----0--0--7-0--8-0--7-0--0--0--10-0--8-0--7-|


    PM PM   PM   PM   PM PM PM   PM        
  S S  S  S S  S S  S S  S  S  S S  S S S  
------------------------------------------|
------------------------------------------|
------------------------------------------|
--0---------------------------------------|
--0---------------------------------3-1-5-|
--0-0--0--7-0--8-0--7-0--0--0--5-0--------|


    PM PM   PM   PM   PM PM PM    PM    PM    
  S S  S  S S  S S  S S  S  S   S S   S S  S  
---------------------------------------------|
---------------------------------------------|
---------------------------------------------|
--8------------------------------------------|
--8-------5----7----8----------10----12----8-|
--8-8--8----8----8----8--8--8-----8-----8----|


    PM PM   PM   PM   PM PM PM   PM   PM         PM PM                
  S S  S  S S  S S  S S  S  S  S S  S S  S    E  S  S  H        Q     
-------------------------------------------|-------------------------|
-------------------------------------------|-------------------------|
-------------------------------------------|-------------------------|
--7----------------------------------------|--7--7--7--7--------L----|
--7-0--0--7-0--8-0--7-0--0--0--3-0--5-0--7-|--5--5--5--5--------L----|
--7----------------------------------------|--5--5--5--5--------L----|


       PM PM                       PM PM                
   E   S  S  H        Q        E   S  S  H        Q     
---------------------------|---------------------------|
---------------------------|---------------------------|
---------------------------|---------------------------|
--10--10-10-10--------L----|--10--10-10-10--------L----|
---7---7--7--7--------L----|---8---8--8--8--------L----|
---7---7--7--7--------L----|---8---8--8--8--------L----|


       PM PM                PM PM       PM PM                
   E   S  S  H         S  S S  S     E  S  S  H        Q     
----------------------------------|-------------------------|
----------------------------------|-------------------------|
----------------------------------|-------------------------|
--10--10-10-10--------10-12-0--0--|--7--7--7--7--------L----|
--10--10-10-10--------10-12-0--0--|--5--5--5--5--------L----|
--10--10-10-10--------10-12-0--0--|--5--5--5--5--------L----|


       PM PM                       PM PM                
   E   S  S  H        Q        E   S  S  H        Q     
---------------------------|---------------------------|
---------------------------|---------------------------|
---------------------------|---------------------------|
--10--10-10-10--------L----|--10--10-10-10--------L----|
---7---7--7--7--------L----|---8---8--8--8--------L----|
---7---7--7--7--------L----|---8---8--8--8--------L----|


       PM PM     PM PM       PM PM       PM PM 
   E   S  S  E   S  S  S  S  S  S  S  S  S  S  
----------------------------------------------|
----------------------------------------------|
----------------------------------------------|
--10--10-10-10--10-10-11-11-11-11-11-11-11-11-|
--10--10-10-10--10-10-11-11-11-11-11-11-11-11-|
--10--10-10-10--10-10-11-11-11-11-11-11-11-11-|


  S S S S S S S S S S S S S S S S    S S S S S S S S S S S S S S S S  
--3-5-5-5-x-5-x-x-3-5-5-5-x-5-x-x-|--3-5-5-5-x-5-x-x-3-5-x-x-5-7-x-x-|
--x-x-x-x-x-x-x-x-x-x-x-x-x-x-x-x-|--x-x-x-x-x-x-x-x-x-x-x-x-x-x-x-x-|
--5-7-7-7-x-7-x-x-5-7-7-7-x-7-x-x-|--5-7-7-7-x-7-x-x-5-7-x-x-7-9-x-x-|
--x-x-x-x-x-x-x-x-x-x-x-x-x-x-x-x-|--x-x-x-x-x-x-x-x-x-x-x-x-x-x-x-x-|
--3-5-5-5-x-5-x-x-3-5-5-5-x-5-x-x-|--3-5-5-5-x-5-x-x-3-5-x-x-5-7-x-x-|
----------------------------------|----------------------------------|


  S  S  S  S  S  S  S  S S  S  S  S  S  S  S  S  
--7--8--8--8--x--8--x--x-7--8--8--8--x--8--x--x-|
--x--x--x--x--x--x--x--x-x--x--x--x--x--x--x--x-|
--9-10-10-10--x-10--x--x-9-10-10-10--x-10--x--x-|
--x--x--x--x--x--x--x--x-x--x--x--x--x--x--x--x-|
--7--8--8--8--x--8--x--x-7--8--8--8--x--8--x--x-|
------------------------------------------------|


  S  S  S  S  S  S  S  S  S S S S S S S S    S S S S S S S S S S S S S S S S  
--7--8--8--8--x--8--x--x--8-7-x-x-7-5-x-x-|--3-5-5-5-x-5-x-x-3-5-5-5-x-5-x-x-|
--x--x--x--x--x--x--x--x--x-x-x-x-x-x-x-x-|--x-x-x-x-x-x-x-x-x-x-x-x-x-x-x-x-|
--9-10-10-10--x-10--x--x-10-9-x-x-9-7-x-x-|--5-7-7-7-x-7-x-x-5-7-7-7-x-7-x-x-|
--x--x--x--x--x--x--x--x--x-x-x-x-x-x-x-x-|--x-x-x-x-x-x-x-x-x-x-x-x-x-x-x-x-|
--7--8--8--8--x--8--x--x--8-7-x-x-7-5-x-x-|--3-5-5-5-x-5-x-x-3-5-5-5-x-5-x-x-|
------------------------------------------|----------------------------------|


  S S S S S S S S S S S S S S S S  
--3-5-5-5-x-5-x-x-3-5-x-x-5-7-x-x-|
--x-x-x-x-x-x-x-x-x-x-x-x-x-x-x-x-|
--5-7-7-7-x-7-x-x-5-7-x-x-7-9-x-x-|
--x-x-x-x-x-x-x-x-x-x-x-x-x-x-x-x-|
--3-5-5-5-x-5-x-x-3-5-x-x-5-7-x-x-|
----------------------------------|


  S  S  S  S  S  S  S  S S  S  S  S  S  S  S  S  
--9-10-10-10--x-10--x--x-9-10-10-10--x-10--x--x-|
--x--x--x--x--x--x--x--x-x--x--x--x--x--x--x--x-|
--9-10-10-10--x-10--x--x-9-10-10-10--x-10--x--x-|
--x--x--x--x--x--x--x--x-x--x--x--x--x--x--x--x-|
--7--8--8--8--x--8--x--x-7--8--8--8--x--8--x--x-|
------------------------------------------------|


                               PM PM     PM PM 
  S  S  S  S  S  S  S  S  S S  S  S S S  S  S  
--9-10-10-10--x-10--x--x----------------------|
--x--x--x--x--x--x--x--x-10-8-------8-6-------|
--9-10-10-10--x-10--x--x------12-12-----10-10-|
--x--x--x--x--x--x--x--x----------------------|
--7--8--8--8--x--8--x--x----------------------|
----------------------------------------------|


  PM    PM   PM    PM    PM   PM   PM   PM    
  S   S S  S S   S S  S  S S  S  S S  S S  S  
---------------------------------------------|
---------------------------------------------|
---------------------------------------------|
--------------------------------10----8----7-|
-----10----8----------7----8-------7----7----|
--8-----8----8--12-8----10---10--------------|


     PM PM PM PM PM PM PM PM PM PM PM PM PM PM PM PM PM PM PM  
  E  S  S  T  T  S  T  T  S  S  S  T  T  S  T  T  S  T  T  S   
--------------------------------------------------------------|
--------------------------------------------------------------|
--------------------------------------------------------------|
--0--0--0--0--0--0--0--0--0--0--0--0--0--0--0--0--0--0--0--0--|
--0--0--0--0--0--0--0--0--0--0--0--0--0--0--0--0--0--0--0--0--|
--0--0--0--0--0--0--0--0--0--0--0--0--0--0--0--0--0--0--0--0--|


  PM    PM   PM    PM    PM    PM   PM    PM    
  S   S S  S S   S S  S  S  S  S  S S   S S  S  
-----------------------------------------------|
---------------------------------------------8-|
---------------------------------10----10------|
---------------------------10------------------|
-----10----8----------7-------------7-----7----|
--8-----8----8--12-8----10----10---------------|


       PM PM PM PM PM PM PM PM PM PM PM PM PM PM PM PM PM PM PM  
   S S S  S  T  T  S  T  T  S  S  S  T  T  S  T  T  S  T  T  S   
----------------------------------------------------------------|
--10-L----------------------------------------------------------|
----------------------------------------------------------------|
-------0--0--0--0--0--0--0--0--0--0--0--0--0--0--0--0--0--0--0--|
-------0--0--0--0--0--0--0--0--0--0--0--0--0--0--0--0--0--0--0--|
-------0--0--0--0--0--0--0--0--0--0--0--0--0--0--0--0--0--0--0--|


  PM   PM   PM   PM    PM   PM   PM   PM    
  S  S S  S S  S S  S  S S  S  S S  S S  S  
-------------------------------------------|
-------------------------------------------|
-------------------------------------------|
-----8----7-------------------10----8----7-|
---------------8----7----8-------7----7----|
--8----8----8----8----10---10--------------|


     PM PM PM PM PM PM PM PM PM PM PM PM PM PM PM PM PM PM PM  
  E  S  S  T  T  S  T  T  S  S  S  T  T  S  T  T  S  T  T  S   
--------------------------------------------------------------|
--------------------------------------------------------------|
--------------------------------------------------------------|
--0--0--0--0--0--0--0--0--0--0--0--0--0--0--0--0--0--0--0--0--|
--0--0--0--0--0--0--0--0--0--0--0--0--0--0--0--0--0--0--0--0--|
--0--0--0--0--0--0--0--0--0--0--0--0--0--0--0--0--0--0--0--0--|


  PM   PM   PM   PM    PM    PM   PM    PM    
  S  S S  S S  S S  S  S  S  S  S S   S S  S  
---------------------------------------------|
-------------------------------------------8-|
-------------------------------10----10------|
-----8----7--------------10------------------|
---------------8----7-------------7-----7----|
--8----8----8----8----10----10---------------|


         PM PM       PM PM       PM PM             
   S  S  S  S  S  S  S  S  S  S  S  S  S  S  S  S  
--------------------------------------------------|
--10-13-------10-13-------13-15-------------15-17-|
--------10-10-------12-12-------14-14-14-17-------|
--------------------------------------------------|
--------------------------------------------------|
--------------------------------------------------|


                                  PM PM 
   Q     E   S  S  E    S  E  S   S  S  
---------------------------------------|
--17b----L--18-15-17b------------------|
-----------------------17-14--L\-------|
---------------------------------------|
---------------------------------12-15-|
---------------------------------------|


            PM        PH                                                
   |--3--|                                                              
   S  S  S  S  S S    E  S T  T T  T T  T T  T  T  T  T  T  T  T  T  T  
-----------------------------------------------------------------------|
-----------------------------------------------------------------------|
---------------------------7-10-7--------------10-12-10----------------|
--12-14-12----12---<>12--L--------10-7------------------12-10----------|
-----------15--------------------------10-7-10----------------12-10-12-|
-----------------------------------------------------------------------|


    E   S  E  S  S S  S   S S  E  S  S S  
-----------------------------------------|
--/10--13-13--L-10-8-10-/15---13--L-10-8-|
-----------------------------------------|
-----------------------------------------|
-----------------------------------------|
-----------------------------------------|


                    |--3--|  |--3--|           
   S   S S  Q    S  S  S  S  S  S  S  E  S  S  
-------------------17-15-13----------15--L\---|
--10-/15---13----L----------15-13-15----------|
----------------------------------------------|
----------------------------------------------|
----------------------------------------------|
----------------------------------------------|


   T       T        T        T        T        T        PM PMPM  PMPM PM  
   |--3-|  |--3--|  |--3--|  |--3--|  |--3--|  |--3--|  |--3-|   |--3-|   
   S  S S  S  S  S  S  S  S  S  S  S  S  S  S  S  S  S  S  S S   S S  S   
--17-10-8----------------------------------------------------------------|
----------18-11-10-------------------------------------------------------|
-------------------19-13-12-17-12-10-------------------------------------|
-------------------------------------19-12-10----------12-------10-------|
----------------------------------------------20-13-12----10-8-----8--7--|
-------------------------------------------------------------------------|


                                             |-3-| |--3-| |--3--| |--3--|  
  S S E   E   E   E  E  E   E      H         S S S S S  S S  S  S S  S  S  
--------------------------------|-----------------------------------------|
-------------13--10-------------|-----------------------------------------|
------9--10----------7--9---Lb--|--Lb--------9------------9-10-12-9-10-12-|
--------------------------------|--------------7-6-7-8-10-----------------|
--5-----------------------------|-----------------------------------------|
--------------------------------|-----------------------------------------|


   |-3-| |--3--|  |--3--|  |--3--|                          
   S S S S  S  S  S  S  S  S  S  S  S  S  S  S  S  S  S  S  
-----------------------------------12-13-------------15-17-|
--10-------------10-13-15-10-13-15-------------------------|
-----9-8-9-10-12-------------------------15-14-15-17-------|
-----------------------------------------------------------|
-----------------------------------------------------------|
-----------------------------------------------------------|


   W                   S S S S S S S S S S S S S S S S  
--17----------------|--3-5-5-5-x-5-x-x-3-5-x-x-5-7-x-x-|
--------------------|--x-x-x-x-x-x-x-x-x-x-x-x-x-x-x-x-|
--------------------|--5-7-7-7-x-7-x-x-5-7-x-x-7-9-x-x-|
--------------------|--x-x-x-x-x-x-x-x-x-x-x-x-x-x-x-x-|
--------------------|--3-5-5-5-x-5-x-x-3-5-x-x-5-7-x-x-|
--------------------|----------------------------------|


  S  S  S  S  S  S  S  S S  S  S  S  S  S  S  S  
--7--8--8--8--x--8--x--x-7--8--8--8--x--8--x--x-|
--x--x--x--x--x--x--x--x-x--x--x--x--x--x--x--x-|
--9-10-10-10--x-10--x--x-9-10-10-10--x-10--x--x-|
--x--x--x--x--x--x--x--x-x--x--x--x--x--x--x--x-|
--7--8--8--8--x--8--x--x-7--8--8--8--x--8--x--x-|
------------------------------------------------|


  S  S  S  S  S  S  S  S E  E  E  E     S S S S S S S S S S S S S S S S  
--7--8--8--8--x--8--x--x-------------|--3-5-5-5-x-5-x-x-3-5-5-5-x-5-x-x-|
--x--x--x--x--x--x--x--x-------------|--x-x-x-x-x-x-x-x-x-x-x-x-x-x-x-x-|
--9-10-10-10--x-10--x--x-2-----------|--5-7-7-7-x-7-x-x-5-7-7-7-x-7-x-x-|
--x--x--x--x--x--x--x--x-2-----------|--x-x-x-x-x-x-x-x-x-x-x-x-x-x-x-x-|
--7--8--8--8--x--8--x--x-0-----------|--3-5-5-5-x-5-x-x-3-5-5-5-x-5-x-x-|
-------------------------------------|----------------------------------|


  S S S S S S S S S S S S S S S S  
--3-5-5-5-x-5-x-x-3-5-x-x-5-7-x-x-|
--x-x-x-x-x-x-x-x-x-x-x-x-x-x-x-x-|
--5-7-7-7-x-7-x-x-5-7-x-x-7-9-x-x-|
--x-x-x-x-x-x-x-x-x-x-x-x-x-x-x-x-|
--3-5-5-5-x-5-x-x-3-5-x-x-5-7-x-x-|
----------------------------------|


  S  S  S  S  S  S  S  S S  S  S  S  S  S  S  S  
--7--8--8--8--x--8--x--x-7--8--8--8--x--8--x--x-|
--x--x--x--x--x--x--x--x-x--x--x--x--x--x--x--x-|
--9-10-10-10--x-10--x--x-9-10-10-10--x-10--x--x-|
--x--x--x--x--x--x--x--x-x--x--x--x--x--x--x--x-|
--7--8--8--8--x--8--x--x-7--8--8--8--x--8--x--x-|
------------------------------------------------|


  S  S  S  S  S  S  S  S  S S S S S S S S    S S S S S S S S S S S S S S S S  
--7--8--8--8--x--8--x--x--8-7-x-x-7-5-x-x-|--3-5-5-5-x-5-x-x-3-5-5-5-x-5-x-x-|
--x--x--x--x--x--x--x--x--x-x-x-x-x-x-x-x-|--x-x-x-x-x-x-x-x-x-x-x-x-x-x-x-x-|
--9-10-10-10--x-10--x--x-10-9-x-x-9-7-x-x-|--5-7-7-7-x-7-x-x-5-7-7-7-x-7-x-x-|
--x--x--x--x--x--x--x--x--x-x-x-x-x-x-x-x-|--x-x-x-x-x-x-x-x-x-x-x-x-x-x-x-x-|
--7--8--8--8--x--8--x--x--8-7-x-x-7-5-x-x-|--3-5-5-5-x-5-x-x-3-5-5-5-x-5-x-x-|
------------------------------------------|----------------------------------|


  S S S S S S S S S S S S S S S S  
--3-5-5-5-x-5-x-x-3-5-x-x-5-7-x-x-|
--x-x-x-x-x-x-x-x-x-x-x-x-x-x-x-x-|
--5-7-7-7-x-7-x-x-5-7-x-x-7-9-x-x-|
--x-x-x-x-x-x-x-x-x-x-x-x-x-x-x-x-|
--3-5-5-5-x-5-x-x-3-5-x-x-5-7-x-x-|
----------------------------------|


  S  S  S  S  S  S  S  S S  S  S  S  S  S  S  S  
--9-10-10-10--x-10--x--x-9-10-10-10--x-10--x--x-|
--x--x--x--x--x--x--x--x-x--x--x--x--x--x--x--x-|
--9-10-10-10--x-10--x--x-9-10-10-10--x-10--x--x-|
--x--x--x--x--x--x--x--x-x--x--x--x--x--x--x--x-|
--7--8--8--8--x--8--x--x-7--8--8--8--x--8--x--x-|
------------------------------------------------|


  S  S  S  S  S  S  S  S  S S S S S S S S    S  H        Q    E  S  
--9-10-10-10--x-10--x--x--8-7-x-x-7-5-x-x-|------------------------|
--x--x--x--x--x--x--x--x--x-x-x-x-x-x-x-x-|------------------------|
--9-10-10-10--x-10--x--x-10-9-x-x-9-7-x-x-|--9-10--------L----L--L-|
--x--x--x--x--x--x--x--x--x-x-x-x-x-x-x-x-|--x--x------------------|
--7--8--8--8--x--8--x--x--8-7-x-x-7-5-x-x-|--7--8--------L----L--L-|
------------------------------------------|------------------------|


  S  H        Q    E  S    S  H        Q    E  S    S  Q    E  S  Q    Q     
------------------------|------------------------|--------------------------|
------------------------|------------------------|--------------------------|
--9-10--------L----L--L-|--9-10--------L----L--L-|--9-10----L--L-10----9----|
--x--x------------------|--x--x------------------|--x--x----------x----x----|
--7--8--------L----L--L-|--7--8--------L----L--L-|--7--8----L--L--8----7----|
------------------------|------------------------|--------------------------|


  W                   W                   W                 
-------------------|-------------------|-------------------|
-------------------|-------------------|-------------------|
--7----------------|--L----------------|--L----------------|
--x----------------|-------------------|-------------------|
--5----------------|--L----------------|--L----------------|
-------------------|-------------------|-------------------|


  W                  
-------------------||
-------------------||
--L----------------||
-------------------||
--L----------------||
-------------------||


Duration Legend
---------------
W - whole
H - half
Q - quarter
E - 8th
S - 16th
T - 32nd
X - 64th
. - note dotted
|-n-|  - n-tuplets


Tablature Legend
----------------
L - tied note
x - dead note
g - grace note
(n) - ghost note
> - accentuded note
NH - natural harmonic
AH - artificial harmonic
TH - tapped harmonic
SH - semi harmonic
PH - pitch harmonic
h - hammer on
p - pull off
b - bend
br - bendRelease
pb - preBend
pbr - preBendRelease
brb - bendReleaseBend
\n/ - tremolo bar dip
\n - tremolo bar dive
-/n - tremolo bar Release up
/n\ - tremolo bar inverted dip
/n - tremolo bar return
-\n - tremolo bar Release down
S - shift slide
s - legato slide
/ -  slide into from below or out of upwards
\ -  slide into from above or out of downwards
~ - vibrato
W - wide vibrato
tr - trill
TP - tremolo picking
T - tapping
S - slap
P - pop
< - fade in
^ - brush up
v - brush down


That is all! I hope this helped, and be sure to check out my cover if you are
having problems with the tab. Thanks, oh and one last thing... ROCK OUT!!!!
comments
print report bad tab
1 comment total.
+2 reply
DBZJunkie wrote on November 16 2012, 09:11 pm

Holy Fucking Ball Sack Ape Shit Throwing Awesomeness of a Tab! I saw your Youtube Video of this cover. FUCKING.. EPIC..

I want to post or [tab]
guest
You may want to rate the tab now too:
select rating
Please do not post tabs as comments. Select "correction" instead!