Oops, an error
Loading. Please wait.

The Air That I Breathe Tab

ver1
ver1

Solo

Whole song

Interactive

More versions @911Tabs.com
9,844 views 21 this week
3 commentsread comments
1 2 3 4 5
accurate
x 3
Autoscroll
+/-
esc
set tempo
stop
Contributor
Hey! There's an official Ultimate Guitar app which is ideal
for learning songs when you're away from computer. Get the app
WARNING: You are trying to view
                                    content from Ultimate-Guitar.com
                                    in an unauthorized application,
                                    which is prohibited.

                                    Please use an official Ultimate
                                    Guitar Tabs application for iPhone,
                                    iPad or Android to access legitimate
                                    chords, guitar, bass, and drum tabs
                                    from Ultimate-Guitar.com database.

                                    Type "ultimate guitar tabs" in Apple
                                    App Store's or Android Market's
                                    search to find the application.
-------------------------------------------------------------------------------
                 "The Air That I Breathe" --- All That Remains
-------------------------------------------------------------------------------


Tabbed by: [travis]


Tuning: Drop D Standard = D G C F A D (low to high)


Legend:

... = palm mute
h = hammer on
p = pull off
b = bend
__ = hold bend
* = pinch harmonic
T = tap
~ = vibrato
() = bent note brought back to normal / note not picked
1 = whole step bend
.5 = half step bend
/ = slide up
\ = slide down
h/ = pick once
p\ = pick once
h/p\ = pick once
p\h/ = pick once


====================================
Intro:

Guitar 1:
D|-------------------------------------------------------------------------------------------------|
A|-------------------------------------------------------------------------------------------------|
F|-------------------------------------------------------------------------------------------------|
C|-14-11-11-11-11-11-14-11-11-11-11-11-14-11-11-11-14-11-11-11-11-11-14-11-11-11-11-11-14-11-11-11-|
G|-------------------------------------------------------------------------------------------------|
D|-------------------------------------------------------------------------------------------------|
   ...............................................................................................

Guitar 2:
D|-----------|
A|-----------|
F|-6~~~~~~~~-|
C|-6~~~~~~~~-|
G|-4~~~~~~~~-|
D|-----------|

====================================
Guitar 1:
D|-------------------------------------------------------------------------------------------------|
A|-------------------------------------------------------------------------------------------------|
F|-------------------------------------------------------------------------------------------------|
C|-------------------------------------------------------------------------------------------------|
G|-14-11-11-11-11-11-14-11-11-11-11-11-14-11-11-11-16-12-12-12-12-12-16-12-12-12-12-12-16-12-12-12-|
D|-------------------------------------------------------------------------------------------------|
   ...............................................................................................

Guitar 2:
D|---------------------------------------------------------|
A|---------------------------------------------------------|
F|-2~~~~~--------------------------------------------------|
C|-2~~~~~-------------------------------------------4~~~~~-|
G|-0~~~~~-------------------------------------------4~~~~~-|
D|--------------------------------------------------2~~~~~-|


====================================
Guitar 1:
D|-------------------------------------------------------------------------------------------------|
A|-------------------------------------------------------------------------------------------------|
F|-------------------------------------------------------------------------------------------------|
C|-14-11-11-11-11-11-14-11-11-11-11-11-14-11-11-11-14-11-11-11-11-11-14-11-11-11-11-11-14-11-11-11-|
G|-------------------------------------------------------------------------------------------------|
D|-------------------------------------------------------------------------------------------------|
   ...............................................................................................

Guitar 2:
D|-----------|
A|-----------|
F|-6~~~~~~~~-|
C|-6~~~~~~~~-|
G|-4~~~~~~~~-|
D|-----------|

=====================================
Guitar 1:
D|----------------------------------------------------------------------------------------|
A|----------------------------------------------------------------------------------------|
F|----------------------------------------------------------------------------------------|
C|----------------------------------------------------------------------------------------|
G|-14-11-11-11-11-11-14-11-11-11-11-11-14-11-11-11-16-14-14-14-14-16-14-14-14-14-14-14-16-|
D|----------------------------------------------------------------------------------------|
   ...................................................................................

Guitar 2:
D|--------------------------|
A|--------------------------|
F|-4~~~~~---------------4---|
C|-4~~~~~---------------4---|
G|-2~~~~~---------------2---|
D|--------------------------|

End of Intro.
======================================
Main Riff:

Guitar 1:
D|----------------------------------------------------------------------------------|
A|----------------------------------------------------------------------------------|
F|------6----6--4-----4~~--------------------------6----6--4-----4~~--2-------------|
C|------6----x--x-----2~~--------------------------6----x--x-----2~~--2-----1-4-1-1-|
G|-4444-4-44-4--2-----0~~--0000--0---0000--0--4444-4-44-4--2-----0~~--0-2-4---------|
D|-----------------0-------0000--0---0000--0------------------0---------------------|
   ....   ..       .       .................  ....   ..       .         ...........

Guitar 2:
D|----------------------------------------------------------------------------------|
A|----------------------------------------------------------------------------------|
F|------6-------------2~~--------------------------6-------------2~~--2-------------|
C|------6----7--6-----2~~--------------------------6----7--6-----2~~--2-------------|
G|-4444-4-44-4--4-----0~~--0000--0---0000--0--4444-4-44-4--4-----0~~--0-------0-----|
D|-----------------0-------0000--0---0000--0------------------0---------0-0-2---2-4-|
   ....   ..       .       .................  ....   ..       .         ...........

========================================
Guitar 1:
D|--------------------------------------------------------------------------------|
A|--------------------------------------------------------------------------------|
F|------6----6--4-----4~~---------------------------------------------------------|
C|------6----x--x-----2~~----------------------------------------------------7766-|
G|-4444-4-44-4--2-----0~~--0000--0---0000--0-------7-6----7-6----7-6---667799-----|
D|-----------------0-------0000--0---0000--0--4444-----44-----55-----88-----------|
   ....   ..       .       .................  ....     ..     ..     ............

Guitar 2:
D|--------------------------------------------------------------------------------|
A|--------------------------------------------------------------------------------|
F|------6-------------2~~----------------------------------------------------66---|
C|------6----7--6-----2~~--------------------------6-4----6-4----6-4-----6677--99-|
G|-4444-4-44-4--4-----0~~--0000--0---0000--0-------------------------6699---------|
D|-----------------0-------0000--0---0000--0--4444-----44-----55------------------|
   ....   ..       .       .................  ....     ..     ..     ............

=========================================
Guitar Solo 1:

Guitar 3:
                                            .5__       .5___
D|---------------------------------14---------------------------------19~~~~~~~|
A|-14~~~~~~~~----14-16--14h/17~~~~~---16~~~16b-(16)~(16)b--(16)~~h/17----------|
F|-----------13----------------------------------------------------------------|
C|-----------------------------------------------------------------------------|
G|-----------------------------------------------------------------------------|
D|-----------------------------------------------------------------------------|


Guitar 3:
D|-21-16~~(16)h19-16p\14h16p14p\12h14--14h16~~~~~~~~~~~~16--14--12--------------|
A|------------------------------------------------------------------16*~~~~~~~~~|
F|------------------------------------------------------------------------------|
C|------------------------------------------------------------------------------|
G|------------------------------------------------------------------------------|
D|------------------------------------------------------------------------------|

Guitar 4:
D|------------------------------------------------------19--17--16--------------|
A|------------------------------------------------------------------19*~~~~~~~~~|
F|------------------------------------------------------------------------------|
C|------------------------------------------------------------------------------|
G|------------------------------------------------------------------------------|
D|------------------------------------------------------------------------------|

***********Guitars 1 and 2 Play this over the solo.***************
                                vvvv
Guitar 1:
D|----------------------------------------------------------------------------------|
A|----------------------------------------------------------------------------------|
F|------6----6--4-----4~~--------------------------6----6--4-----4~~--2-------------|
C|------6----x--x-----2~~--------------------------6----x--x-----2~~--2-----1-4-1-1-|
G|-4444-4-44-4--2-----0~~--0000--0---0000--0--4444-4-44-4--2-----0~~--0-2-4---------|
D|-----------------0-------0000--0---0000--0------------------0---------------------|
   ....   ..       .       .................  ....   ..       .         ...........

Guitar 2:
D|----------------------------------------------------------------------------------|
A|----------------------------------------------------------------------------------|
F|------6-------------2~~--------------------------6-------------2~~--2-------------|
C|------6----7--6-----2~~--------------------------6----7--6-----2~~--2-------------|
G|-4444-4-44-4--4-----0~~--0000--0---0000--0--4444-4-44-4--4-----0~~--0-------0-----|
D|-----------------0-------0000--0---0000--0------------------0---------0-0-2---2-4-|
   ....   ..       .       .................  ....   ..       .         ...........

=========    
Guitar 1:
D|--------------------------------------------------------------------------------|
A|--------------------------------------------------------------------------------|
F|------6----6--4-----4~~---------------------------------------------------------|
C|------6----x--x-----2~~----------------------------------------------------7766-|
G|-4444-4-44-4--2-----0~~--0000--0---0000--0-------7-6----7-6----7-6---667799-----|
D|-----------------0-------0000--0---0000--0--4444-----44-----55-----88-----------|
   ....   ..       .       .................  ....     ..     ..     ............

Guitar 2:
D|--------------------------------------------------------------------------------|
A|--------------------------------------------------------------------------------|
F|------6-------------2~~----------------------------------------------------66---|
C|------6----7--6-----2~~--------------------------6-4----6-4----6-4-----6677--99-|
G|-4444-4-44-4--4-----0~~--0000--0---0000--0-------------------------6699---------|
D|-----------------0-------0000--0---0000--0--4444-----44-----55------------------|
   ....   ..       .       .................  ....     ..     ..     ............



End of Guitar Solo.
=============================================
Verse 1:

Guitars 1 and 2:
D|--------------------------------------------------------------------|
A|--------------------------------------------------------------------|
F|--------------------------------------------------------------------|
C|-6---6---4h/6---4h/6-------2-1------4-------------------------------| x2
G|-4---4---2h/4---2h/4-----------4-2--2-----4-----7-----6-----------2-|
D|---0---0------0------0-0-0------------0-0-2-0-0-5-0-0-4-0-0-0-2-4---|
     .   .      .      .....            .........   ...............

End of Verse 1.
=============================================
Pre Chorus 1:

Guitar 1:
D|-------------------------------------------------------------------------------------------------|
A|-------------------------------------------------------------------------------------------------|
F|-------------------------------------------------------------------------------------------------|
C|-14-11-11-11-11-11-14-11-11-11-11-11-14-11-11-11-14-11-11-11-11-11-14-11-11-11-11-11-14-11-11-11-|
G|-------------------------------------------------------------------------------------------------|
D|-------------------------------------------------------------------------------------------------|
   ...............................................................................................

Guitar 2:
D|------------------|
A|------------------|
F|-6~~~~~~~~~~~~~~~-|
C|-6~~~~~~~~~~~~~~~-|
G|-4~~~~~~~~~~~~~~~-|
D|------------------|

=============================================
Guitar 1:
D|-----------------------------------------------------------------------------------------|
A|-----------------------------------------------------------------------------------------|
F|-----------------------------------------------------------------------------------------|
C|-----------------------------------------------------------------------------------------|
G|-14-11-11-11-11-11-14-11-11-11-11-11-14-11-11-11-16-14-14-14-14-16-14-14-14-14-14-14-16--|
D|-----------------------------------------------------------------------------------------|
   ...................................................................................

Guitar 2:
D|--------------------------------------------|
A|--------------------------------------------|
F|-2~~~~~~~~-------------------4~~~~~~~~~~-4--|
C|-2~~~~~~~~-------------------4~~~~~~~~~~-4--|
G|-0~~~~~~~~-------------------2~~~~~~~~~~-2--|
D|--------------------------------------------|

End of Pre Chorus 1.
==============================================
Chorus 1:

Guitar 1:
D|---------------------------------------------------------|
A|---------------------------------------------------------|
F|---------------------------------------------------------|
C|-6~~~--6-6---4---4~~~------------------------------------| x2
G|-4~~~--4-4---2---2~~~-----6h7---6---4~~~-----------0---2-|
D|-----------0------------0-----0---0------0-2-0-4-0---0---|
             .            .     .   .      .   .   .   .

Guitar 2:
D|------------------------------------------------------------|
A|------------------------------------------------------------|
F|------------------------------------------------------------|
C|-13~~~--13-13---9---9~~~-----4h6---4---2~~~---1---2---4---6-| x2
G|-11~~~--11-11---6---6~~~------------------------------------|
D|--------------0------------0-----0---0------0---0---0---0---|
                .            .     .   .      .   .   .   .

End of Chorus 1:
=================================================
Verse 2:

Guitars 1 and 2:
D|--------------------------------------------------------------------|
A|--------------------------------------------------------------------|
F|--------------------------------------------------------------------|
C|-6---6---4h/6---4h/6-------2-1------4-------------------------------| x2
G|-4---4---2h/4---2h/4-----------4-2--2-----4-----7-----6-----------2-|
D|---0---0------0------0-0-0------------0-0-2-0-0-5-0-0-4-0-0-0-2-4---|
   .     .      .      .....            .........   ...............

==================================================
Guitar 1:
D|--------------------------------------------------------------------|
A|--------------------------------------------------------------------|
F|--------------------------------------------------------------------|
C|-6---6---4h/6---4h/6-------2-1------4-------------------------------| x2
G|-4---4---2h/4---2h/4-----------4-2--2-----4-----7-----6-----------2-|
D|---0---0------0------0-0-0------------0-0-2-0-0-5-0-0-4-0-0-0-2-4---|
   .     .      .      .....            .........   ...............

Guitar 2:
D|--------------------------------------------------------------------|
A|--------------------------------------------------------------------|
F|--------------------------------------------------------------------|
C|-6---6---4h/6---4h/6-------6-4------4-------------------------------| x2
G|-4---4---2h/4---2h/4-----------7-6--2-----4-----7-----6-------0-2-1-|
D|---0---0------0------0-0-0------------0-0-2-0-0-5-0-0-4-0-0-4-------|
   .     .      .      .....            .........   ...............

==================================================
Pre Chorus 2:

Guitar 1:
D|-------------------------------------------------------------------------------------------------|
A|-------------------------------------------------------------------------------------------------|
F|-------------------------------------------------------------------------------------------------|
C|-14-11-11-11-11-11-14-11-11-11-11-11-14-11-11-11-14-11-11-11-11-11-14-11-11-11-11-11-14-11-11-11-|
G|-------------------------------------------------------------------------------------------------|
D|-------------------------------------------------------------------------------------------------|
   ...............................................................................................
                                                     
Guitar 2:                                            
D|-------------------------------------------------------------------------------------------------|
A|-------------------------------------------------------------------------------------------------|
F|-------------------------------------------------------------------------------------------------|
C|-------------------------------------------------18-14-14-14-14-14-18-14-14-14-14-14-18-14-14-14-|
G|-------------------------------------------------------------------------------------------------|
D|-------------------------------------------------------------------------------------------------|
                                                   ...............................................

===================================================
Guitar 1:
D|----------------------------------------------------------------------------------------|
A|----------------------------------------------------------------------------------------|
F|----------------------------------------------------------------------------------------|
C|----------------------------------------------------------------------------------------|
G|-14-11-11-11-11-11-14-11-11-11-11-11-14-11-11-11-16-14-14-14-14-16-14-14-14-14-14-14-16-|
D|----------------------------------------------------------------------------------------|
   ...................................................................................

Guitar 2:
D|----------------------------------------------------------------------------------------|
A|----------------------------------------------------------------------------------------|
F|----------------------------------------------------------------------------------------|
C|-13-11-11-11-11-11-13-11-11-11-11-11-13-11-11-11-16-14-14-14-14-16-14-14-14-14-14-14-16-|
G|----------------------------------------------------------------------------------------|
D|----------------------------------------------------------------------------------------|
   ...................................................................................

====================================================
Chorus 2:

Guitar 1:
D|---------------------------------------------------------|
A|---------------------------------------------------------|
F|---------------------------------------------------------|
C|-6~~~--6-6---4---4~~~------------------------------------| x4
G|-4~~~--4-4---2---2~~~-----6h7---6---4~~~-----------0---2-|
D|-----------0------------0-----0---0------0-2-0-4-0---0---|
             .            .     .   .      .   .   .   .

Guitar 2:
D|------------------------------------------------------------|
A|------------------------------------------------------------|
F|------------------------------------------------------------|
C|-13~~~--13-13---9---9~~~-----4h6---4---2~~~---1---2---4---6-| x4
G|-11~~~--11-11---6---6~~~------------------------------------|
D|--------------0------------0-----0---0------0---0---0---0---|
                .            .     .   .      .   .   .   .

End of Chorus 2.
======================================================
Interlude:

Guitar 1:
D|-------------------------------------------------------------|
A|-------4~~~------------0~~~----------------------------------|
F|-----6-----6---------2-----2----------2~~~-------------------|
C|---6---------6-----2---------2------6-----6--------6-4~~~----| x2
G|-4---------------0----------------4---------4----6-------6---|
D|--------------------------------2--------------4-----------4-|
   .....           .....          .....          .....

Guitar 2:
D|-------------------------------------------------------------|
A|------------------------------------5-7~~~5-2------4-5~~~4---|
F|----------------------------------6--------------4---------4-|
C|--------------------------------4--------------2-------------| x2
G|-------------------------------------------------------------|
D|-------------------------------------------------------------|
                                  .....          .....

Guitar 3:
D|-------------------------------------------------------------|
A|-------------------------------------------------------------|
F|-------------------------------------------------------------|
C|-6~~~~~----------2~~~~~---------4~~~~~---------6~~~~~--------| x2
G|-4~~~~~----------2~~~~~---------4~~~~~---------6~~~~~--------|
D|-4~~~~~----------0~~~~~---------2~~~~~---------4~~~~~--------|

========================================================
Guitar 1:
                     1__   1___                 .5__ .5___                   1__   1___
D|----------------------------------------------------------------------------------------|
A|----------------------------------------------------------------------------------------|
F|-------------6~~(6)b--(6)b--(6)----------8~~(8)b--(8)b--(8)----------9~~(9)b--(9)b--(9)-|
C|----------------------------------------------------------------------------------------|
G|-4--4--4-6-7--------------------44-4-6-7--------------------44-4-6-7--------------------|
D|----------------------------------------------------------------------------------------|
         .....                    ........                    ........

Guitar 2:
                     1__   1__                   1__   1__                  .5__  .5__
D|---------------------------------------------------------------------4~~(4)b--(4)b--(4)-|
A|-------------5~~(5)b--(5)b--(5)----------7~~(7)b--(7)b--(7)-----------------------------|
F|----------------------------------------------------------------------------------------|
C|-2--2--2-4-6--------------------22-2-4-6--------------------22-2-4-6--------------------|
G|----------------------------------------------------------------------------------------|
D|----------------------------------------------------------------------------------------|
         .....                    ........                    ........

=========================================================
Guitar 1:
D|----------------|
A|----------------|
F|----------------|
C|----------------|
G|-9-7--6--7-6--4-|
D|----------------|
   ...     ...

Guitar 2:
D|----------------|
A|----------------|
F|----------------|
C|-7-6--4--6-4--2-|
G|----------------|
D|----------------|
   ...     ...

=========================================================
Guitar 1:
                     1__   1___                 .5__ .5___                   1__   1___
D|----------------------------------------------------------------------------------------|
A|----------------------------------------------------------------------------------------|
F|-------------6~~(6)b--(6)b--(6)----------8~~(8)b--(8)b--(8)----------9~~(9)b--(9)b--(9)-|
C|----------------------------------------------------------------------------------------|
G|-4--4--4-6-7--------------------44-4-6-7--------------------44-4-6-7--------------------|
D|----------------------------------------------------------------------------------------|
         .....                    ........                    ........

Guitar 2:
                     1__   1__                   1__   1__                  .5__  .5__
D|---------------------------------------------------------------------4~~(4)b--(4)b--(4)-|
A|-------------5~~(5)b--(5)b--(5)----------7~~(7)b--(7)b--(7)-----------------------------|
F|----------------------------------------------------------------------------------------|
C|-2--2--2-4-6--------------------22-2-4-6--------------------22-2-4-6--------------------|
G|----------------------------------------------------------------------------------------|
D|----------------------------------------------------------------------------------------|
         .....                    ........                    ........

=========================================================
Guitar 1:
D|----------------|
A|----------------|
F|----------------|
C|----------------|
G|-9-7--6--7-6--4-|
D|----------------|
   ...     ...

Guitar 2:
D|----------------|
A|----------------|
F|----------------|
C|-7-6--4--6-4--2-|
G|----------------|
D|----------------|
   ...     ...

==========================================================
Guitar Solo:

Guitar 1:
      1_____   1__________                                                 1___       
D|-19*b----(19)b~~~~~~~~~~16-21p16-19p16--16------------------------------------------------------|
A|--------------------------------------19--21-17-19p17--17--------19~~(19)b--(19)p17--17---------|
F|-----------------------------------------------------20--20-18-16------------------20--20-18-16-|
C|------------------------------------------------------------------------------------------------|
G|------------------------------------------------------------------------------------------------|
D|------------------------------------------------------------------------------------------------|

Guitar 1:
     1___                 .5________                                              1___   1___
D|---------------------------12-------------------------------------------------------------------|
A|17b--(17)p16--16-------16b----16-(16)-17-16-17-17-17-16-17-17-17-16-17-17-17-14b--(14)b--(14)---|
F|------------18--18-16------------------------------------------------------------------------13~|
C|---------------------18-------------------------------------------------------------------------|
G|------------------------------------------------------------------------------------------------|
D|------------------------------------------------------------------------------------------------|

Guitar 1:
                                                                           1_________
D|-----------------------------------------------------------------------------------------|
A|-/14--------/14-----/12---------------------------------------------9-------12-----------|
F|----13p11~~~---11p9-----------------------------------------9-------9--11b-----11-(11)p9-|
C|-----------------------14p13-13h14p13-----------------------9--9h11----------------------|
G|-------------------------------------14-11-------11~~~~9h11------------------------------|
D|-------------------------------------------12-14-----------------------------------------|
                                             .....

Guitar 1:
     1____
D|------------------------|
A|------------------------|
F|-11b---(11)----------11-|
C|------------11-13-14----|
G|------------------------|
D|------------------------|
              ...........

Guitar 2: Play This over the 4 bars above ^^^^^.
D|-------------------------|
A|-------------------------|
F|-6~~---2~~---------------|
C|-6~~---2~~---4~~---6~~---| x2
G|-4~~---0~~---4~~---6~~---|
D|-------------2~~---4~~---|

===========================================
2nd Half of Guitar Solo:

Guitar 1:
                                                   T     T               T
D|----------------------------------------------------------------------------------------|
A|----------------------------------------------------------------------------------------|
F|-13--11h14p\11~~~~~9h13p\9~~~~~8h11p\8~~~~~~~8h9-11p9p8---------------------------------|
C|-------------------------------------------------------11p9p7p6h7h9p7p6-----------------|
G|-----------------------------------------------------------------------9p7p6-7-9h/11~~~-|
D|----------------------------------------------------------------------------------------|

Guitar 1:
                    T      T      T      T      T      T      T      T          .5___  .5___
D|-------------------------------------------------------------------12p11~~~(11)b--(11)b--(11)~~~|
A|-----------------------------------------------------12p5h7-12p7p5------------------------------|
F|---------------------------------------13p4h6-13p6p4--------------------------------------------|
C|-------------------------11p4h6-14p6p4----------------------------------------------------------|
G|-11h/12--9~~~~4h7-14p4h7------------------------------------------------------------------------|
D|------------------------------------------------------------------------------------------------|

Guitar 1:
D|-12h13----------------------------------------9h12p\11p8-----------------------------|
A|------14-12-14-12-----------12---11*~~~~----11----------10---------------------------|
F|-----------------14\11-10-9----9--------9h12--------------11p8\5h8p5-----------------|
C|--------------------------------------------------------------------7p4--------------|
G|-----------------------------------------------------------------------6-----6p4~~~~~|
D|------------------------------------------------------------------------8p4h8--------|
                            .    .

Guitar 2: Play this over the 3 bars above ^^^^^.
D|--------------------------------------------|
A|--------------------------------------------|
F|-6~~--6~~----2~~--2~~-----------------------|
C|-6~~--6~~----2~~--2~~--4~~--4~~--4h/6---6~~-| x2
G|-4~~--4~~----0~~--0~~--4~~--4~~--4h/6---6~~-|
D|-----------------------2~~--2~~--2h/4---4~~-|

End of Guitar Solo.
==============================================
Interlude 2:

Guitar 1:
D|----------------------------------------------------------------------------------|
A|----------------------------------------------------------------------------------|
F|------6----6--4-----4~~--------------------------6----6--4-----4~~--2-------------|
C|------6----x--x-----2~~--------------------------6----x--x-----2~~--2-----1-4-1-1-|
G|-4444-4-44-4--2-----0~~--0000--0---0000--0--4444-4-44-4--2-----0~~--0-2-4---------|
D|-----------------0-------0000--0---0000--0------------------0---------------------|
   ....   ..       .       .................  ....   ..       .         ...........

Guitar 2:
D|----------------------------------------------------------------------------------|
A|----------------------------------------------------------------------------------|
F|------6-------------2~~--------------------------6-------------2~~--2-------------|
C|------6----7--6-----2~~--------------------------6----7--6-----2~~--2-------------|
G|-4444-4-44-4--4-----0~~--0000--0---0000--0--4444-4-44-4--4-----0~~--0-------0-----|
D|-----------------0-------0000--0---0000--0------------------0---------0-0-2---2-4-|
   ....   ..       .       .................  ....   ..       .         ...........

================================================
Guitar 1:
D|--------------------------------------------------------------------------------|
A|--------------------------------------------------------------------------------|
F|------6----6--4-----4~~---------------------------------------------------------|
C|------6----x--x-----2~~----------------------------------------------------7766-|
G|-4444-4-44-4--2-----0~~--0000--0---0000--0-------7-6----7-6----7-6---667799-----|
D|-----------------0-------0000--0---0000--0--4444-----44-----55-----88-----------|
   ....   ..       .       .................  ....     ..     ..     ............

Guitar 2:
D|--------------------------------------------------------------------------------|
A|--------------------------------------------------------------------------------|
F|------6-------------2~~----------------------------------------------------66---|
C|------6----7--6-----2~~--------------------------6-4----6-4----6-4-----6677--99-|
G|-4444-4-44-4--4-----0~~--0000--0---0000--0-------------------------6699---------|
D|-----------------0-------0000--0---0000--0--4444-----44-----55------------------|
   ....   ..       .       .................  ....     ..     ..     ............

End of Interlude 2.
======================================================
Outro:

Guitars 1 and 2:
D|----------------------------------------------------------------------|
A|----------------------------------------------------------------------|
F|----------------------------------------------------------------------|
C|-6---6---4h/6---4h/6----------------6---6---4h/6---4h/6---------------| x2
G|-4---4---2h/4---2h/4-2-2-2---2-2-2--4---4---2h/4---2h/4-2-2-2-2-4-7-6-|
D|---0---0------0------0-0-0---0-0-0----0---0------0------0-0-0-0-2-5-4-|
     .   .      .      .............    .   .      .      .............

====================================================
Guitars 1 and 2:
D|----------------------------------------------------------------------|
A|----------------------------------------------------------------------|
F|----------------------------------------------------------------------|
C|-6---6---4h/6---4h/6----------------6---6---4h/6---4h/6---------------| x2
G|-4---4---2h/4---2h/4-2-2-2---2-2-2--4---4---2h/4---2h/4-2-2-2-2-4-7-6-|
D|-4-0-4-0-2h/4-0-2h/4-0-0-0---0-0-0--4-0-4-0-2h/4-0-2h/4-0-0-0-0-2-5-4-|
     .   .      .      .............    .   .      .      .............

====================================================
Guitars 1 and 2:
D|-------------------------|
A|-------------------------|
F|-------------------------|
C|-6---6---4h/6---4h/6~~~~-|
G|-4---4---2h/4---2h/4~~~~-|
D|-4-0-4-0-2h/4-0-2h/4~~~~-|
     .   .      .

End of song.

Please Rate and Comment My Tab.
Thanks
[travis]
comments
We did not receive enough feedback on this tab! Please rate:
print report bad tab
1 2 3 4 5
3 comments total.
-2 reply
robespeut wrote on August 25 2009, 08:11 am

there is no tapping in this song!

0 reply
[travis] wrote on August 25 2009, 02:38 pm

You can clearly hear the tapping part of the solo in the song "robespeut." If you don't want to tap it, then tab out that part to a picking phrase, except it'll only be harder.

0 reply
slash.r0cks wrote on October 3 2011, 02:00 am

Don't judge me for saying this, because it's just my opinion on how you tab:

Honestly, I think you take the tab books as a guide and rearrange stuff to make it easier to play. I'm cool with that, I have the book for this album and this stuff's heaps easier to play than what I've got.
If that's not the case, let me know man. This is some sick shit by the way, keep it up. :)

I want to post or [tab]
guest
You may want to rate the tab now too:
select rating
Please do not post tabs as comments. Select "correction" instead!