Oops, an error
Loading. Please wait.

The Fall Of Ideals Tab

9,181 views 24 this week
3 commentsread comments
1 2 3 4 5
excellent!
x 5
add to favorites launch autoscroll
font size
0
reset
Autoscroll
+/-
esc
set tempo
stop
Tuning
D G C F A D
WARNING: You are trying to view
                                    content from Ultimate-Guitar.com
                                    in an unauthorized application,
                                    which is prohibited.

                                    Please use an official Ultimate
                                    Guitar Tabs application for iPhone,
                                    iPad or Android to access legitimate
                                    chords, guitar, bass, and drum tabs
                                    from Ultimate-Guitar.com database.

                                    Type "ultimate guitar tabs" in Apple
                                    App Store's or Android Market's
                                    search to find the application.
Special Thanks To All The People Who Tabbed The Songs For This Album 
I Give Them The Credit Don't Give It To Me. 
I Just Thought Maybe i could put it all together as an album

1. This Calling
2. Not Alone
3. It Dwells In Me
4. We Stand
5. Whispers (I Hear You)
6. The Weak Willed
7. Six
8. Become The Catalyst
9. The Air That I Breathe
10. Empty Inside
11. Indictment

-------------------------------------------------------------------------------
			  "This Calling" --- All That Remains
-------------------------------------------------------------------------------

Tabbed by: [travis]


**************************************************************
******************Update #1 Aug. 17, 2009 (10:25am)***********
I had to fix one little part on the Break. I had the octave chords
for Guitar 1 on the wrong strings, but now I have the on the correct
strings. I'm surprised no one had made a comment on it yet, but it's 
fixed now. Thanks to everybody for voting and commenting on this tab so far.
**************************************************************
**************************************************************





Tuning: D Standard = D G C F A D (low to high)


Key: G Major = [G A B C D E F#]


Legend:

... = palm mute
h = hammer on
p = pull off
b = bend
pb = pre bend
__ = hold bend
.5 = half step bend
1 = whole step bend
* = pinch harmonic
T = tap
x = muffled string
/ = slide up
\ = slide down
h/ = pick once
p\ = pick once
h/p\ = pick once
p\h/ = pick once
() = note not picked / bring bent note back to normal
~ = vibrato


============================
Intro:

Guitars 1 and 2:
D|------------------------------------------------------------------------------------|
A|------------------------------------------------------------------------------------|
F|------------------------------------------------------------------------------------|
C|-9----------------------10--7--9--------------2--4-------7--9-----------------------|
G|-7-----------------------7--7--7--------------3--5-------5--7-----------------------|
D|---00000000000000000000----------000000000000-------0-0--------00000000000000000000-|
     ....................          ............       ...        ....................

============================
Guitars 1 and 2:
D|----------------------------------------|
A|----------------------------------------|
F|----------------------------------------|
C|-10--7--9---------------2h4------7------|
G|--7--7--7---------------3--------5------|
D|-----------000000000000-----0-0-----0-0-|
             ............     ...     ...

End of Intro.
============================
Verse 1:

Guitar 1:
D|-------------------------------------------------------------------|
A|-------------------------------------------------------------------|
F|-------------------------------------------------------------------|
C|-9--------------------------10--7--9------------------2--4-------7-|
G|-7---------------------------7--7--7------------------3--5-------5-|
D|---00-0-00-0-00-0-00-0-00-0-----------0000-0----0000--------0-0----|
     ........................           ......    ....        ...

Guitar 2:
D|-------------------------------------------------------------------|
A|-------------------------------------------------------------------|
F|----------------------------12--11--9-----------------5--4---------|
C|-9--------------------------10--10--9-----------------x--x-------7-|
G|-7----------------------------------------------------7--5-------5-|
D|---00-0-00-0-00-0-00-0-00-0-----------0000-0----0000--------0-0----|
     ........................           ......    ....        ...

=============================
Guitar 1:
D|----------------------------------------------------------------------|
A|----------------------------------------------------------------------|
F|----------------------------------------------------------------------|
C|-9--------------------------10--7--9------------------2h4------7------|
G|-7---------------------------7--7--7------------------3--------5------|
D|---00-0-00-0-00-0-00-0-00-0-----------0000-0----0000------0-0-----0-0-|
     ........................           ......    ....      ...     ...

Guitar 2:
D|---------------------------------------------------------------------|
A|---------------------------------------------------------------------|
F|----------------------------12--11--9--------------------------------|
C|-5--------------------------10--10--9-----------------10p9-----7-----|
G|-2-----------------------------------------------------7-------5-----|
D|---00-0-00-0-00-0-00-0-00-0------------0000-0----0000------0-0---0-0-|
     ........................            ......    ....      ...   ...




=============================
Guitar 1:
D|-------------------------------------------------------------------|
A|-------------------------------------------------------------------|
F|-------------------------------------------------------------------|
C|-9--------------------------10--7--9------------------2--4-------7-|
G|-7---------------------------7--7--7------------------3--5-------5-|
D|---00-0-00-0-00-0-00-0-00-0-----------0000-0----0000--------0-0----|
     ........................           ......    ....        ...

Guitar 2:
D|-------------------------------------------------------------------|
A|-------------------------------------------------------------------|
F|----------------------------12--11--9-----------------5--4---------|
C|-9--------------------------10--10--9-----------------x--x-------7-|
G|-7----------------------------------------------------7--5-------5-|
D|---00-0-00-0-00-0-00-0-00-0-----------0000-0----0000--------0-0----|
     ........................           ......    ....        ...

=============================
Guitar 1:
D|----------------------------------------------------------------------|
A|----------------------------------------------------------------------|
F|----------------------------------------------------------------------|
C|-9--------------------------10--7--9------------------2h4------7------|
G|-7---------------------------7--7--7------------------3--------5------|
D|---00-0-00-0-00-0-00-0-00-0-----------0000-0----0000------0-0-----0-0-|
     ........................           ......    ....      ...     ...

Guitar 2:
D|---------------------------------------------------------------------|
A|---------------------------------------------------------------------|
F|----------------------------12--11--9--------------------------------|
C|-5--------------------------10--10--9-----------------10p9-----7-----|
G|-2-----------------------------------------------------7-------5-----|
D|---00-0-00-0-00-0-00-0-00-0------------0000-0----0000------0-0---0-0-|
     ........................            ......    ....      ...   ...

==============================
Guitar 1:
D|----------------------|
A|----------------------|
F|----------------------|
C|-5-----4-----2~~~~~~--|
G|-7-----5-----2~~~~~~--|
D|----0-----0-----------|
      .     . 

Guitar 2:
D|------------------------|
A|------------------------|
F|--9-----7---------------|
C|--x-----x-----9~~~~~~~--|
G|-10-----9-----7~~~~~~~--|
D|-----0-----0------------|
       .     .

End of Verse 1.
=============================
Chorus 1:

Guitar 1:
D|---------3~~~~~-------------------5~~~~~~~------------|
A|---------------3--------------------------5-----------|
F|------------------5~~~~~---------------------7~~~~~~~-|
C|-5~~~~~-------------------7~~~~~~---------------------|
G|-3~~~~~-------------------5~~~~~~---------------------|
D|------------------------------------------------------|

Guitar 2:
D|--------0~~~~~~--------------------0~~~~~--------------|
A|---------------0-------------------------0-------------|
F|------------------9~~~~~--------------------11~~~~~~~~-|
C|-10~~~~------------------12~~~~~~~---------------------|
G|--7~~~~-------------------9~~~~~~~---------------------|
D|-------------------------------------------------------|

=============================
Guitars 1 and 2:
D|-------------------------------------------------------------------------------------------------|
A|-------------------------------------------------------------------------------------------------|
F|-------------------------------------------------------------------------------------------------|
C|-16-16-16-16-16-16-14-14-14-14-14-14-14-14-14-14-16-16-16-16-16-16-17-17-17-17-17-17-17-17-17-17-|
G|-14-14-14-14-14-14-14-14-14-14-14-14-14-14-14-14-14-14-14-14-14-14-14-14-14-14-14-14-14-14-14-14-|
D|-12-12-12-12-12-12-12-12-12-12-12-12-12-12-12-12-12-12-12-12-12-12-12-12-12-12-12-12-12-12-12-12-|

=============================
Guitar 1:
D|---------3~~~~~-------------------5~~~~~~~------------|
A|---------------3--------------------------5-----------|
F|------------------5~~~~~---------------------7~~~~~~~-|
C|-5~~~~~-------------------7~~~~~~---------------------|
G|-3~~~~~-------------------5~~~~~~---------------------|
D|------------------------------------------------------|

Guitar 2:
D|--------0~~~~~~--------------------0~~~~~--------------|
A|---------------0-------------------------0-------------|
F|------------------9~~~~~--------------------11~~~~~~~~-|
C|-10~~~~------------------12~~~~~~~---------------------|
G|--7~~~~-------------------9~~~~~~~---------------------|
D|-------------------------------------------------------|

End of Chorus 1.
==============================
Interlude 1:

Guitars 1 and 2:
D|-------------------------------------------------------------------|
A|-------------------------------------------------------------------|
F|-------------------------------------------------------------------|
C|-9--------------------------10--7--9------------------2--4-------7-|
G|-7---------------------------7--7--7------------------3--5-------5-|
D|---00-0-00-0-00-0-00-0-00-0-----------00-0-00-0-00-0--------0-0----|
     ........................           ..............        ...

===============================
Guitars 1 and 2:
D|----------------------------------------------------------------------|
A|----------------------------------------------------------------------|
F|----------------------------------------------------------------------|
C|-9--------------------------10--7--9------------------2h4------7------|
G|-7---------------------------7--7--7------------------3--------5------|
D|---00-0-00-0-00-0-00-0-00-0-----------00-0-00-0-00-0------0-0-----0-0-|
     ........................           ..............      ...     ...

End of Interlude 1.
===============================
Verse 2:

Guitar 1:
D|-------------------------------------------------------------------|
A|-------------------------------------------------------------------|
F|-------------------------------------------------------------------|
C|-9--------------------------10--7--9------------------2--4-------7-|
G|-7---------------------------7--7--7------------------3--5-------5-|
D|---00-0-00-0-00-0-00-0-00-0-----------0000-0----0000--------0-0----|
     ........................           ......    ....        ...

Guitar 2:
D|-------------------------------------------------------------------|
A|-------------------------------------------------------------------|
F|----------------------------12--11--9-----------------5--4---------|
C|-9--------------------------10--10--9-----------------x--x-------7-|
G|-7----------------------------------------------------7--5-------5-|
D|---00-0-00-0-00-0-00-0-00-0-----------0000-0----0000--------0-0----|
     ........................           ......    ....        ...

=============================
Guitar 1:
D|----------------------------------------------------------------------|
A|----------------------------------------------------------------------|
F|----------------------------------------------------------------------|
C|-9--------------------------10--7--9------------------2h4------7------|
G|-7---------------------------7--7--7------------------3--------5------|
D|---00-0-00-0-00-0-00-0-00-0-----------0000-0----0000------0-0-----0-0-|
     ........................           ......    ....      ...     ...

Guitar 2:
D|---------------------------------------------------------------------|
A|---------------------------------------------------------------------|
F|----------------------------12--11--9--------------------------------|
C|-5--------------------------10--10--9-----------------10p9-----7-----|
G|-2-----------------------------------------------------7-------5-----|
D|---00-0-00-0-00-0-00-0-00-0------------0000-0----0000------0-0---0-0-|
     ........................            ......    ....      ...   ...

==============================
Guitar 1:
D|-------------------------------------------------------------------|
A|-------------------------------------------------------------------|
F|-------------------------------------------------------------------|
C|-9--------------------------10--7--9------------------2--4-------7-|
G|-7---------------------------7--7--7------------------3--5-------5-|
D|---00-0-00-0-00-0-00-0-00-0-----------0000-0----0000--------0-0----|
     ........................           ......    ....        ...

Guitar 2:
D|-------------------------------------------------------------------|
A|-------------------------------------------------------------------|
F|----------------------------12--11--9-----------------5--4---------|
C|-9--------------------------10--10--9-----------------x--x-------7-|
G|-7----------------------------------------------------7--5-------5-|
D|---00-0-00-0-00-0-00-0-00-0-----------0000-0----0000--------0-0----|
     ........................           ......    ....        ...

=============================
Guitar 1:
D|----------------------------------------------------------------------|
A|----------------------------------------------------------------------|
F|----------------------------------------------------------------------|
C|-9--------------------------10--7--9------------------2h4------7------|
G|-7---------------------------7--7--7------------------3--------5------|
D|---00-0-00-0-00-0-00-0-00-0-----------0000-0----0000------0-0-----0-0-|
     ........................           ......    ....      ...     ...

Guitar 2:
D|---------------------------------------------------------------------|
A|---------------------------------------------------------------------|
F|----------------------------12--11--9--------------------------------|
C|-5--------------------------10--10--9-----------------10p9-----7-----|
G|-2-----------------------------------------------------7-------5-----|
D|---00-0-00-0-00-0-00-0-00-0------------0000-0----0000------0-0---0-0-|
     ........................            ......    ....      ...   ...

==============================
Chorus 2:

Guitar 1:
D|---------3~~~~~-------------------5~~~~~~~------------|
A|---------------3--------------------------5-----------|
F|------------------5~~~~~---------------------7~~~~~~~-|
C|-5~~~~~-------------------7~~~~~~---------------------|
G|-3~~~~~-------------------5~~~~~~---------------------|
D|------------------------------------------------------|

Guitar 2:
D|--------0~~~~~~--------------------0~~~~~--------------|
A|---------------0-------------------------0-------------|
F|------------------9~~~~~--------------------11~~~~~~~~-|
C|-10~~~~------------------12~~~~~~~---------------------|
G|--7~~~~-------------------9~~~~~~~---------------------|
D|-------------------------------------------------------|

=============================
Guitars 1 and 2:
D|-------------------------------------------------------------------------------------------------|
A|-------------------------------------------------------------------------------------------------|
F|-------------------------------------------------------------------------------------------------|
C|-16-16-16-16-16-16-14-14-14-14-14-14-14-14-14-14-16-16-16-16-16-16-17-17-17-17-17-17-17-17-17-17-|
G|-14-14-14-14-14-14-14-14-14-14-14-14-14-14-14-14-14-14-14-14-14-14-14-14-14-14-14-14-14-14-14-14-|
D|-12-12-12-12-12-12-12-12-12-12-12-12-12-12-12-12-12-12-12-12-12-12-12-12-12-12-12-12-12-12-12-12-|

=============================
Guitar 1:
D|---------3~~~~~-------------------5~~~~~~~------------|
A|---------------3--------------------------5-----------|
F|------------------5~~~~~---------------------7~~~~~~~-|
C|-5~~~~~-------------------7~~~~~~---------------------|
G|-3~~~~~-------------------5~~~~~~---------------------|
D|------------------------------------------------------|

Guitar 2:
D|--------0~~~~~~--------------------0~~~~~--------------|
A|---------------0-------------------------0-------------|
F|------------------9~~~~~--------------------11~~~~~~~~-|
C|-10~~~~------------------12~~~~~~~---------------------|
G|--7~~~~-------------------9~~~~~~~---------------------|
D|-------------------------------------------------------|

=============================
Guitars 1 and 2:
D|-------------------------------------------------------------------------------------------------|
A|-------------------------------------------------------------------------------------------------|
F|-------------------------------------------------------------------------------------------------|
C|-16-16-16-16-16-16-14-14-14-14-14-14-14-14-14-14-16-16-16-16-16-16-17-17-17-17-17-17-17-17-17-17-|
G|-14-14-14-14-14-14-14-14-14-14-14-14-14-14-14-14-14-14-14-14-14-14-14-14-14-14-14-14-14-14-14-14-|
D|-12-12-12-12-12-12-12-12-12-12-12-12-12-12-12-12-12-12-12-12-12-12-12-12-12-12-12-12-12-12-12-12-|

=============================
Guitar 1:
D|---------3~~~~~-------------------5~~~~~~~------------|
A|---------------3--------------------------5-----------|
F|------------------5~~~~~---------------------7~~~~~~~-|
C|-5~~~~~-------------------7~~~~~~---------------------|
G|-3~~~~~-------------------5~~~~~~---------------------|
D|------------------------------------------------------|

Guitar 2:
D|--------0~~~~~~--------------------0~~~~~--------------|
A|---------------0-------------------------0-------------|
F|------------------9~~~~~--------------------11~~~~~~~~-|
C|-10~~~~------------------12~~~~~~~---------------------|
G|--7~~~~-------------------9~~~~~~~---------------------|
D|-------------------------------------------------------|

End of Chorus 2.
=============================
Interlude 2:

Guitar 1:
D|--------------------------------------------------------------------|
A|--------------------------------------------------------------------|
F|------------------------------------------10~~~~~~~~~~~~9~~~~~~~~~~-|
C|-9---------9-------------------------------x------------x-----------|
G|-7---------7---------10--9h10p9----7-------8~~~~~~~~~~~~7~~~~~~~~~~-|
D|---0-0-0-0---0-0-0-0------------10---10-7---------------------------|
     .......   .......

Guitar 2:
D|----------------------------------------------------------------------|
A|----------------------------------------------------------------------|
F|----------------------------------------------------------------------|
C|-9---------9--------------------------------------9--10-9-----------9-|
G|-7---------7---------10--9h10p9----7------------7---------7-------5---|
D|---0-0-0-0---0-0-0-0------------10---10-7--8--8--------------7--7-----|
     .......   .......                          .....             .....

==============================
Guitars 1 and 2:
D|---------------|
A|---------------|
F|---------------|
C|---------------|
G|--------7-9-10-|
D|-7-8-10--------|
   .............

===============================
Guitar 1:
D|---------------------------------------------------------------|
A|---------------------------------------------------------------|
F|------------------------------------------10~~~~~~~~9~~~~~~~~~~|
C|-9---------9-------------------------------x--------x----------|
G|-7---------7---------10--9h10p9----7-------8~~~~~~~~7~~~~~~~~~~|
D|---0-0-0-0---0-0-0-0------------10---10-7----------------------|
     .......   .......

Guitar 2:
D|----------------------------------------------------------------------|
A|----------------------------------------------------------------------|
F|----------------------------------------------------------------------|
C|-9---------9--------------------------------------9--10-9-----------9-|
G|-7---------7---------10--9h10p9----7------------7---------7-------5---|
D|---0-0-0-0---0-0-0-0------------10---10-7--8--8--------------7--7-----|
     .......   .......                          .....             .....

================================
Guitar 1:
D|---------------------------------------------------------------------|
A|---------------------------------------------------------------------|
F|-9--7---------------------------------------------5~~~~~~~~9~~~~~~~~-|
C|-x--x-----9---------9-----------------------------x--------x---------|
G|-7--5-----7---------7---------10-9h10p9----7------3~~~~~~~~7~~~~~~~~-|
D|-------0----0-0-0-0---0-0-0-0-----------10---10-7--------------------|
         .    .......   .......                 

Guitar 2:
D|---------------------------------------------------------------------------|
A|---------------------------------------------------------------------------|
F|-12--11--------------------------------------------------------------------|
C|--x---x-----9---------9---------9-7h9p7------------------9-10-9----------9-|
G|-10---9-----7---------7-----------------9-10-9----7----7--------7------5---|
D|---------0----0-0-0-0---0-0-0-0----------------10----8------------7--7-----|
           .    .......   .......                      .....           .....

=================================
Guitar 1:
D|---------------|
A|---------------|
F|---------------|
C|---------------|
G|--------7-9-10-|
D|-7-8-10--------|
   .............

Guitar 2:
D|-------------|
A|-------------|
F|-------------|
C|-------5-7-9-|
G|-5-7-9-------|
D|-------------|
   ...........

==================================
Guitar 1:
D|--------------------------------------------------------------|
A|--------------------------------------------------------------|
F|------------------------------------------5~~~~~~~~9~~~~~~~~~-|
C|-9---------9------------------------------x--------x----------|
G|-7---------7---------10--9h10p9----7------3~~~~~~~~7~~~~~~~~~-|
D|---0-0-0-0---0-0-0-0------------10---10-7---------------------|
     .......   .......

Guitar 2:
D|------------------------------------------------------------------|
A|------------------------------------------------------------------|
F|------------------------------------------------------------------|
C|-9---------9---------9--7h9p7------------------9--10-9----------9-|
G|-7---------7------------------9-10-9----7----7---------7------5---|
D|---0-0-0-0---0-0-0-0-----------------10----8-------------7--7-----|
     .......   .......                       .....            .....     

==================================
Guitar 1:
D|---------|
A|---------|
F|-9--7----|
C|-x--x----|
G|-7--5----|
D|-------0-|
         .

Guitar 2:
D|------------|
A|------------|
F|-12--11-----|
C|--x---x-----|
G|-10---9-----|
D|----------0-|
            .

End of Interlude 2.
===================================
Bridge 1:

Guitar 1:
D|---------------------------------------------------------------------|
A|---------------------------------------------------------------------|
F|-11~~~~~~~~~~~~9~~~~~~~------7~~~~~~~----5~~~~~~~~11~~~~~~~~~~~~~~~~~|
C|--9~~~~~~~~~~~~9~~~~~~~------5~~~~~~~----5~~~~~~~~-9~~~~~~~~~~~~~~~~~|
G|--7~~~~~~~~~~~~7~~~~~~~------3~~~~~~~----3~~~~~~~~-6~~~~~~~~~~~~~~~~~|
D|------------------------0-0-----------0------------------------------|
                          ...           .

Guitar 2:
D|---------------------------------------------------------------------------------|
A|---------------------------------------------------------------------------------|
F|---------------------------------------------------------------------------------|
C|---------------------------------------------------------------------------------|
G|---------------------------------------------------------------------------------|
D|-00-0-00-0-00-0-00-0-00-0-----00-0-00-0-00-0----00-0----00-0-00-0-00-0-00-0-00-0-|
   ........................     ..............    ....    ........................

====================================
Guitar 1:
D|-------------------------0~~~~~~~~~~~~~~~~~~~~~~~~~-|
A|-------------------------0~~~~~~~~~~~~~~~~~~~~~~~~~-|
F|-11-------12~~~~~~~~~~---x--------------------------|
C|--9--------9~~~~~~~~~~---9~~~~~~~~~~~~~~~~~~~~~~~~~-|
G|--6--------7~~~~~~~~~~---7~~~~~~~~~~~~~~~~~~~~~~~~~-|
D|-----0-0---------------0----------------------------|
       ...               .

Guitar 2:
D|----------------------------------------------------------------------------------|
A|----------------------------------------------------------------------------------|
F|----------------------------------------------------------------------------------|
C|----------------------------------------------------------------------------------|
G|----------------------------------7\----------------------------------------------|
D|------------00-0-00-0-00-0-00-0---7\---00-0-00-0-00-0-00-0-00-0----00-0-00-0-00-0-|
              ...................        ........................    ..............

====================================
Guitars 1 and 2:
                                                                   .5_____  1______
D|---------------------------------------------------------------------------------|
A|---------------------------------------------------------------------------------|
F|----------------------------------------------------------------3*b~~~~~---------|
C|---------------------------------------------------------------------------------|
G|---------------------------------------------------------------------------------|
D|-00-0------00-0-00-0-00-0-00-0-00-0------00-0-00-0-00-0----00-0---------3*b~~~~~~|
   ....      ........................      ..............    ....

=====================================
Guitars 1 and 2:
D|-----------------------------------------------------------------------------------|
A|-----------------------------------------------------------------------------------|
F|-----------------------------------------------------------------------------------|
C|-----------------------------------------------------------------------------------|
G|-----------------------------------------------------------------------------------|
D|-00-0-00-0-00-0-00-0-00-0-----00-0-00-0-00-0---00-0----00-0-00-0-00-0-00-0-00-0----|
   ........................     ..............   ....    ........................

=====================================
Guitars 1 and 2:
D|-----------------------------|
A|-----------------------------|
F|-----------------------------|
C|-----------------------------|
G|-----------------------------|
D|-00-0-00-0-00-0-00-0----00-0-|
   ...................    ....

End of Bridge 1.
=======================================
Guitar Solo:

Guitar 1:      
                                              .5__
D|---------------------------------------------------------|
A|--------------------/12~~~~~(12)p\-----------------------|
F|-11h12-14~~~~~~~~~~~--------------/11~~~~(11)b--(11)~~~~-|
C|---------------------------------------------------------|
G|---------------------------------------------------------|
D|---------------------------------------------------------|


Guitar 1: The tap is a tap slide. Tap and slide to the 21st fret and pull off to the 14th fret.

                                    T  (T)
D|----------------------------------------------------7-------10--------12--------14-|
A|-----------------------------------------------------------------------------------|
F|-11h12h14p12p11h12h14p12p11h12h14-19h/21p14p12p11-9---9h/12----12h/14----14h/16----|
C|-----------------------------------------------------------------------------------|
G|-----------------------------------------------------------------------------------|
D|-----------------------------------------------------------------------------------|

Guitar 1:
                          .5__        .5__       .5__       .5__       .5__       .5__
D|--------17----17-19~~~19pb--(19)~~19pb--(19)~~19b--(19)~~19b--(19)~~19b--(19)~~19b--(19)~~-|
A|-------------------------------------------------------------------------------------------|
F|-16h/19----19------------------------------------------------------------------------------|
C|-------------------------------------------------------------------------------------------|
G|-------------------------------------------------------------------------------------------|
D|-------------------------------------------------------------------------------------------|

Guitar 1:
                                                                       .5__       .5__
D|-x-19p15-15-15-15-14-15--------------------------------------------------------------------|
A|-x---------------------17--19------17------15------15-----12-------------------------------|
F|-------------------------16--16p\14--14p\12--12p\11--11p\9--9-11~~~11pb--(11)~~11b--(11)~~~|
C|-------------------------------------------------------------------------------------------|
G|-------------------------------------------------------------------------------------------|
D|-------------------------------------------------------------------------------------------|

Guitar 1:
D|-------------------------------------------------------------------------------------------|
A|-------------------------------------------------------------------------------------------|
F|-17-16-14----------16-14-12----------14-12-11-------------------9-11-12--------------------|
C|----------17-16-14----------16-14-12----------14-12-10----10-12---------10p9~~~~~----------|
G|-------------------------------------------------------14------------------------10--------|
D|------------------------------------------------------------------------------------/12~~~~|

+++
+++

Guitar 2: Play All Bars Over Guitar 1 During Solo.
D|-------3~~~~~~~~~~~~-----------5~~~~~~~~~~--------------------------------|
A|-------3~~~~~~~~~~~~-----------5~~~~~~~~~~--------------------------------|
F|-------5~~~~~~~~~~~~-----------7~~~~~~~~~~11~~~~~~~~~~~~~9~~~~~~~~~~~~~~~-|
C|-5~~~~~-------------7~~~~~~~~~~------------9~~~~~~~~~~~~~9~~~~~~~~~~~~~~~-|
G|-3~~~~~-------------5~~~~~~~~~~------------7~~~~~~~~~~~~~7~~~~~~~~~~~~~~~-|
D|--------------------------------------------------------------------------|

Guitar 2:
D|-------------------------------------------3~~~~~~~~~~----------5~~~~~~~~-|
A|-------------------------------------------3~~~~~~~~~~----------5~~~~~~~~-|
F|-12~~~~~~~11~~~~~~~~~7~~~~~~~~~~-----------5~~~~~~~~~~7~~~~~~~~~7~~~~~~~~-|
C|--x-------x----------x----------5~~~~~~~~~~-----------7~~~~~~~~~----------|
G|-10~~~~~~~9~~~~~~~~~~5~~~~~~~~~~3~~~~~~~~~~-----------5~~~~~~~~~----------|
D|--------------------------------------------------------------------------|

Guitar 2:
D|----------------------------------------------------------|
A|----------------------------------------------------------|
F|-11~~~~~~~~~~9~~~~~~~~~~~9~~~~~~~11~~~~~~~~~~12~~~~~~~~~~~|
C|--9~~~~~~~~~~9~~~~~~~~~~~x-------x------------x-----------|
G|--7~~~~~~~~~~7~~~~~~~~~~~7~~~~~~~9~~~~~~~~~~~10~~~~~~~~~~~|
D|----------------------------------------------------------|

End of Guitar Solo.
===================================
Chorus 3:

Guitar 1:
D|---------3~~~~~-------------------5~~~~~~~------------|
A|---------------3--------------------------5-----------|
F|------------------5~~~~~---------------------7~~~~~~~-|
C|-5~~~~~-------------------7~~~~~~---------------------|
G|-3~~~~~-------------------5~~~~~~---------------------|
D|------------------------------------------------------|

Guitar 2:
D|--------0~~~~~~--------------------0~~~~~--------------|
A|---------------0-------------------------0-------------|
F|------------------9~~~~~--------------------11~~~~~~~~-|
C|-10~~~~------------------12~~~~~~~---------------------|
G|--7~~~~-------------------9~~~~~~~---------------------|
D|-------------------------------------------------------|

=============================
Guitars 1 and 2:
D|-------------------------------------------------------------------------------------------------|
A|-------------------------------------------------------------------------------------------------|
F|-------------------------------------------------------------------------------------------------|
C|-16-16-16-16-16-16-14-14-14-14-14-14-14-14-14-14-16-16-16-16-16-16-17-17-17-17-17-17-17-17-17-17-|
G|-14-14-14-14-14-14-14-14-14-14-14-14-14-14-14-14-14-14-14-14-14-14-14-14-14-14-14-14-14-14-14-14-|
D|-12-12-12-12-12-12-12-12-12-12-12-12-12-12-12-12-12-12-12-12-12-12-12-12-12-12-12-12-12-12-12-12-|

=============================
Guitar 1:
D|---------3~~~~~-------------------5~~~~~~~------------|
A|---------------3--------------------------5-----------|
F|------------------5~~~~~---------------------7~~~~~~~-|
C|-5~~~~~-------------------7~~~~~~---------------------|
G|-3~~~~~-------------------5~~~~~~---------------------|
D|------------------------------------------------------|

Guitar 2:
D|--------0~~~~~~--------------------0~~~~~--------------|
A|---------------0-------------------------0-------------|
F|------------------9~~~~~--------------------11~~~~~~~~-|
C|-10~~~~------------------12~~~~~~~---------------------|
G|--7~~~~-------------------9~~~~~~~---------------------|
D|-------------------------------------------------------|

=============================
Guitars 1 and 2:
D|-------------------------------------------------------------------------------------------------|
A|-------------------------------------------------------------------------------------------------|
F|-------------------------------------------------------------------------------------------------|
C|-16-16-16-16-16-16-14-14-14-14-14-14-14-14-14-14-16-16-16-16-16-16-17-17-17-17-17-17-17-17-17-17-|
G|-14-14-14-14-14-14-14-14-14-14-14-14-14-14-14-14-14-14-14-14-14-14-14-14-14-14-14-14-14-14-14-14-|
D|-12-12-12-12-12-12-12-12-12-12-12-12-12-12-12-12-12-12-12-12-12-12-12-12-12-12-12-12-12-12-12-12-|

=============================
Guitar 1:
D|---------3~~~~~-------------------5~~~~~~~------------|
A|---------------3--------------------------5-----------|
F|------------------5~~~~~---------------------7~~~~~~~-|
C|-5~~~~~-------------------7~~~~~~---------------------|
G|-3~~~~~-------------------5~~~~~~---------------------|
D|------------------------------------------------------|

Guitar 2:
D|--------0~~~~~~--------------------0~~~~~--------------|
A|---------------0-------------------------0-------------|
F|------------------9~~~~~--------------------11~~~~~~~~-|
C|-10~~~~------------------12~~~~~~~---------------------|
G|--7~~~~-------------------9~~~~~~~---------------------|
D|-------------------------------------------------------|

End of Chorus 3.
===============================
Harmony:


Guitar 3:
                    1____                                         1_______
D|---------------------------------------------------------------------------------------|
A|---------------------------------------------------------------------------------------|
F|-14h16~~~~~~~~~~14b----(14)~~~~~~~~~~--------------------------------------------------|
C|-------------------------------------16~~~~~~16h/17~~~~~~~~~~~17b-------(17)~~~~~~~~~~~|
G|---------------------------------------------------------------------------------------|
D|---------------------------------------------------------------------------------------|

Guitar 4:
                   .5____                                        .5_______
D|---------------------------------------------------------------------------------------|
A|---------------------------------------------------------------------------------------|
F|---------------------------------------------------------------------------------------|
C|-16h17~~~~~~~~~~16b----(16)~~~~~~~~~~--------------------------------------------------|
G|-------------------------------------17~~~~~~17h/19~~~~~~~~~~~19b-------(19)~~~~~~~~~~~|
D|---------------------------------------------------------------------------------------|

===============================
Guitar 3:
D|---------|
A|---------|
F|---------|
C|-17--19--|
G|---------|
D|---------|

Guitar 4:
D|---------|
A|---------|
F|---------|
C|-14--16--|
G|---------|
D|---------|

================================
Guitar 3:
                    1____                                         1_______
D|---------------------------------------------------------------------------------------|
A|---------------------------------------------------------------------------------------|
F|-14h16~~~~~~~~~~14b----(14)~~~~~~~~~~--------------------------------------------------|
C|-------------------------------------16~~~~~~16h/17~~~~~~~~~~~17b-------(17)~~~~~~~~~~~|
G|---------------------------------------------------------------------------------------|
D|---------------------------------------------------------------------------------------|

Guitar 4:
                   .5____                                        .5_______
D|---------------------------------------------------------------------------------------|
A|---------------------------------------------------------------------------------------|
F|---------------------------------------------------------------------------------------|
C|-16h17~~~~~~~~~~16b----(16)~~~~~~~~~~--------------------------------------------------|
G|-------------------------------------17~~~~~~17h/19~~~~~~~~~~~19b-------(19)~~~~~~~~~~~|
D|---------------------------------------------------------------------------------------|

++++
++++
Guitars 1 and 2 Both Play these bars over the Harmony of Guitars 3 and 4.

Guitar 1:
D|-------------------------------------------------------------------|
A|-------------------------------------------------------------------|
F|-------------------------------------------------------------------|
C|-9--------------------------10--7--9------------------2--4-------7-|
G|-7---------------------------7--7--7------------------3--5-------5-|
D|---00-0-00-0-00-0-00-0-00-0-----------0000-0----0000--------0-0----|
     ........................           ......    ....        ...

Guitar 2:
D|-------------------------------------------------------------------|
A|-------------------------------------------------------------------|
F|----------------------------12--11--9-----------------5--4---------|
C|-9--------------------------10--10--9-----------------x--x-------7-|
G|-7----------------------------------------------------7--5-------5-|
D|---00-0-00-0-00-0-00-0-00-0-----------0000-0----0000--------0-0----|
     ........................           ......    ....        ...

=============================
Guitar 1:
D|----------------------------------------------------------------------|
A|----------------------------------------------------------------------|
F|----------------------------------------------------------------------|
C|-9--------------------------10--7--9------------------2h4------7------|
G|-7---------------------------7--7--7------------------3--------5------|
D|---00-0-00-0-00-0-00-0-00-0-----------0000-0----0000------0-0-----0-0-|
     ........................           ......    ....      ...     ...

Guitar 2:
D|---------------------------------------------------------------------|
A|---------------------------------------------------------------------|
F|----------------------------12--11--9--------------------------------|
C|-5--------------------------10--10--9-----------------10p9-----7-----|
G|-2-----------------------------------------------------7-------5-----|
D|---00-0-00-0-00-0-00-0-00-0------------0000-0----0000------0-0---0-0-|
     ........................            ......    ....      ...   ...

End of Harmony.
======================================

Outro:

Guitar 1:
D|-------------------------------------------------------------------|
A|-------------------------------------------------------------------|
F|-------------------------------------------------------------------|
C|-9--------------------------10--7--9------------------2--4-------7-|
G|-7---------------------------7--7--7------------------3--5-------5-|
D|---00-0-00-0-00-0-00-0-00-0-----------0000-0----0000--------0-0----|
     ........................           ......    ....        ...

Guitar 2:
D|-------------------------------------------------------------------|
A|-------------------------------------------------------------------|
F|----------------------------12--11--9-----------------5--4---------|
C|-9--------------------------10--10--9-----------------x--x-------7-|
G|-7----------------------------------------------------7--5-------5-|
D|---00-0-00-0-00-0-00-0-00-0-----------0000-0----0000--------0-0----|
     ........................           ......    ....        ...

=============================
Guitar 1:
D|----------------------------------------------------------------------|
A|----------------------------------------------------------------------|
F|----------------------------------------------------------------------|
C|-9--------------------------10--7--9------------------2h4------7------|
G|-7---------------------------7--7--7------------------3--------5------|
D|---00-0-00-0-00-0-00-0-00-0-----------0000-0----0000------0-0-----0-0-|
     ........................           ......    ....      ...     ...

Guitar 2:
D|---------------------------------------------------------------------|
A|---------------------------------------------------------------------|
F|----------------------------12--11--9--------------------------------|
C|-5--------------------------10--10--9-----------------10p9-----7-----|
G|-2-----------------------------------------------------7-------5-----|
D|---00-0-00-0-00-0-00-0-00-0------------0000-0----0000------0-0---0-0-|
     ........................            ......    ....      ...   ...

==============================
Guitar 1:
D|----------------------------|
A|----------------------------|
F|----------------------------|
C|-5-----4----2~~~~~~~~~9\----|
G|-7-----5----2~~~~~~~~~7\----|
D|----0-----0-----------------|
      .     .

Guitar 2:
D|----------------------------|
A|----------------------------|
F|--9-----7-------------------|
C|--x-----x----9~~~~~~~~9\----|
G|-10-----9----7~~~~~~~~7\----|
D|-----0-----0----------------|
       .     .

-----------------------------------------------------------------------------
			     Not Alone - All That Remains
-----------------------------------------------------------------------------
Tabbed by:Marc Moore
Email:combatarms45344@rocketmail.com

Tuning:DGCFAd
played in 6/4 time
Guitar 1 intro pt1
d|---12---------8------------7---8------------------------------------------|
A|-----13--------12-----10---------10---------------------------------------|
F|--------16-------9-------9---9------9-------------------------------------|
C|--------------------------------------------------------------------------|
G|-0----------0-------0-----------------------------------------------------|
D|--------------------------------------------------------------------------|
   .          .       .




intro pt2 X5 
Guitar 1
d|---12---------8------------7---8------------------------------------------|
A|-----13--------12-----10---------10---------------------------------------|
F|--------16-------9-------9---9------9-------------------------------------|
C|--------------------------------------------------------------------------|
G|-0----------0-------0-----------------------------------------------------|
D|--------------------------------------------------------------------------|
   .          .       .
Guitar 2
d|7p5--------------------------------5--------------------------------------|
A|-----5----------5-8---6----5-----5----------------------------------------|
F|---------5----5----------------5------------------------------------------|
C|------------7-------7----7---7--------------------------------------------|
G|--------------------------------------------------------------------------|
D|--------------------------------------------------------------------------|
              . . .   .    .   . . .




Pre-verse X2
guitar 1&2
d|--------------------------------------------------------------------------|
A|--------------------------------------------------------------------------|
F|--------------------------------------------------------------------------|
C|------7--7-7------2------9--9-9------7------2-----------------------------|
G|------3--3-3------2------5--5-5------3------2-----------------------------|
D|-0000--------0000---0000--------0000---0000-------------------------------|
   ....        ....   ....        ....   ....





verse X4
Guitar 1
d|--------------------------------------------------------------------------|
A|--------------------------------------------------------------------------|
F|--------------------------------------------------------------------------|
C|-----10-1010------9-----12-1212-----10------9-----------------------------|
G|------9--9-9------7------8--8-8------7------7-----------------------------|
D|-0000--------0000---0000--------0000---0000-------------------------------|
   ....        ....   ....        ....   ....
Guitar 2
d|--------------------------------------------------------------------------|
A|--------------------------------------------------------------------------|
F|--------------------------------------------------------------------------|
C|------7--7-7------2------9--9-9------7------2-----------------------------|
G|------3--3-3------2------5--5-5------3------2-----------------------------|
D|-0000--------0000---0000--------0000---0000-------------------------------|
   ....        ....   ....        ....   ....



Chorus
Guitar 1
d|-0------------------------------------------------------------------------|
A|-0------------10--------------12--------------8---------------------------|
F|-9-------------9---------------9--------------7---------------------------|
C|-7-------------7--------------10-------------10---------------------------|
G|-0------------------------------------------------------------------------|
D|-----------0-0-------------0-0------------0-0-------------0-0-------------|
             . .             . .            . .             . .
Guitar 2
d|--------------------------------------------------------------------------|
A|--------------------------------------------------------------------------|
F|--------------------------------------------------------------------------|
C|-2-------------2--------2------5--------------5--------5------------------|
G|-0-------------0--------0------3--------------3--------3------------------|
D|-----------0-0-----0-0-----0-0------------0-0-----0-0-----0-0-------------|
             . .     . .     . .            . .     . .     . .


Guitar 1
d|--------------------------------------------------------------------------|
A|-6-6-------6---6---6-----6-6-6-6------------------------------------------|
F|-5-5-------5---5---5-----5-5-5-5---------------4--------------------------|
C|-3-3-3-3-3-3-3-3-3-3-3-3-3-3-3-3-7-7-------7---7-----7---9-7--------------|
G|---------------------------------5-5-------5-5---------------10-7---------|
D|---------------------------------3-3-3-3-3-------0-0---0------------------|
       . . .   .   .   . .             . . .   .   . .   .
Guitar 2
d|--------------------------------------------------------------------------|
A|--------------------------------------------------------------------------|
F|--------------------------------------------------------------------------|
C|--------------------------------------------------------------------------|
G|-3-3-------3---3---3-----3-3-3-3-5-5-------5---5-----7---7-5--3-0---------|
D|-1-1-1-1-1-1-1-1-1-1-1-1-1-1-1-1-3-3-3-3-3-3-3-3-0-0---0------------------|
       . . .   .   .   . .             . . .   .   . .   .



Guitar 1
d|--------------------------------------------------------------------------|
A|-6-6-------6---6---6-----6-6-6-6------------------------------------------|
F|-5-5-------5---5---5-----5-5-5-5---------------4--------------------------|
C|-3-3-3-3-3-3-3-3-3-3-3-3-3-3-3-3-7-7-------7---7-----7---9-7--------------|
G|---------------------------------5-5-------5-5---------------10-7---------|
D|---------------------------------3-3-3-3-3-------0-0---0------------------|
       . . .   .   .   . .             . . .   .   . .   .
Guitar 2
d|--------------------------------------------------------------------------|
A|--------------------------------------------------------------------------|
F|--------------------------------------------------------------------------|
C|--------------------------------------------------------------------------|
G|-3-3-------3---3---3-----3-3-3-3-5-5-------5---5-----7---7-5--3-0---------|
D|-1-1-1-1-1-1-1-1-1-1-1-1-1-1-1-1-3-3-3-3-3-3-3-3-0-0---0------------------|
       . . .   .   .   . .             . . .   .   . .   .




preverse X2
guitar 1&2
d|--------------------------------------------------------------------------|
A|--------------------------------------------------------------------------|
F|--------------------------------------------------------------------------|
C|------7--7-7------2------9--9-9------7------2-----------------------------|
G|------3--3-3------2------5--5-5------3------2-----------------------------|
D|-0000--------0000---0000--------0000---0000-------------------------------|
   ....        ....   ....        ....   ....



Verse X2
Guitar 1
d|--------------------------------------------------------------------------|
A|--------------------------------------------------------------------------|
F|--------------------------------------------------------------------------|
C|-----10-1010------9-----12-1212-----10------9--///------------------------|
G|------9--9-9------7------8--8-8------7------7--///------------------------|
D|-0000--------0000---0000--------0000---0000-------------------------------|
   ....        ....   ....        ....   ....
Guitar 2
d|--------------------------------------------------------------------------|
A|--------------------------------------------------------------------------|
F|--------------------------------------------------------------------------|
C|------7--7-7------2------9--9-9------7------2--///------------------------|
G|------3--3-3------2------5--5-5------3------2--///------------------------|
D|-0000--------0000---0000--------0000---0000-------------------------------|
   ....        ....   ....        ....   ....


interlude
d|--------------------------------------------------------------------------|
A|-----5---8p5-----6p5-----5-------------------5---8p5----------------------|
F|---5---------5-------5-----5---5-7p5---5---5---------5--------------------|
C|-7-----7-------7-------7-----7-------7---9-----9-------9------------------|
G|--------------------------------------------------------------------------|
D|--------------------------------------------------------------------------|
   . .   .     . .     . .   . . .     . . . .   .
d|-------------------------------------------------------------|
A|-------------------------------------------------------------|
F|-----5---9p5---5-7p5---5-5-----5-----------------7--------|
C|---7---------7-------7-----7-----7---7-9p7--7-10---10--9----------|
G|-0-----0---------------------7-----7-------7-7--7-7--7-------|
D|-------------------------------------------------------------|
   . .   .     . .     . .   . .   . . .     ...  .

intro X2
Guitar 1
d|---12---------8------------7---8------------------------------------------|
A|-----13--------12-----10---------10---------------------------------------|
F|--------16-------9-------9---9------9-------------------------------------|
C|--------------------------------------------------------------------------|
G|-0----------0-------0-----------------------------------------------------|
D|--------------------------------------------------------------------------|
   .          .       .
Guitar 2
d|7p5--------------------------------5--------------------------------------|
A|-----5----------5-8---6----5-----5----------------------------------------|
F|---------5----5----------------5------------------------------------------|
C|------------7-------7----7---7--------------------------------------------|
G|--------------------------------------------------------------------------|
D|--------------------------------------------------------------------------|
              . . .   .    .   . . .

Solo
Guitar 1
     full             ^^^^^^^^^^^
d|-10b----10--8--7--8(8)----------------------------------------------------|
A|--------------------------------------------------------------------------|
F|--------------------------------------------------------------------------|
C|--------------------------------------------------------------------------|
G|--------------------------------------------------------------------------|
D|--------------------------------------------------------------------------|
Guitar 2
    1/2                         ^^^^^^^^
d|--------------------------------------------------------------------------|
A|-12b----12----10---8--10(10)-------------------------10-12-13-10----------|
F|-------------------------------------------9-10-12-12---------------------|
C|---------------------------------9-10-12-12-------------------------------|
G|--------------------------------------------------------------------------|
D|--------------------------------------------------------------------------|
                                   .  .  .  ..  .  .  . 
Guitar 3
d|--------------------------------------------------------------------------|
A|--------------------------------------------------------------------------|
F|--------------------------------------------------------------------------|
C|----------------------5----5-------------5--------------------------------|
G|--2------2--------2---3----3-------------3--------------------------------|
D|--0---00-0------00-00---00-------0--0-----------------0-----0-------------|
        ..        .. ..   ..       .  .                 .     .

Guitar 1
     full                 ^1/2^
d|-10b--------10---8---12b----ub12---10h12p10/8-----------------------------|
A|--------------------------------------------------------------------------|
F|--------------------------------------------------------------------------|
C|--------------------------------------------------------------------------|
G|--------------------------------------------------------------------------|
D|--------------------------------------------------------------------------|
Guitar 2
      1/2                 ^full^
d|--------------------------------------------------------------------------|
A|-12b--------12---10--13b----ub13---12h13p12/10----------------------------|
F|--------------------------------------------------------------------------|
C|--------------------------------------------------------------------------|
G|--------------------------------------------------------------------------|
D|--------------------------------------------------------------------------|
Guitar 3
d|--------------------------------------------------------------------------|
A|--------------------------------------------------------------------------|
F|--------------------------------------------------------------------------|
C|--------------------------------------------------------------------------|
G|--3----------3------3----5----------5-------------------------------------|
D|--1-------00-1---00-1-00-3-----00---3-------------------------------------|
            ..     ..   ..       .. 

Guitar 1
          ^^^^^^^^^^^^^^^^^^^^^^^^^^^^^^^^^^^^^^^^^^^^^^^^^^^^^^^^^^^^^^^^^^^
d|10b-(10)---(10)---(10)----------------------------------------------------|
A|--------------------------------------------------------------------------|
F|--------------------------------------------------------------------------|
C|--------------------------------------------------------------------------|
G|--------------------------------------------------------------------------|
D|--------------------------------------------------------------------------|
guitar 2
          ^^^^^^^^^^^^^^^^^^^^^^^^^^^^^^^^^^^^^^^^^^^^^^^^^^^^^^^^^^^^^^^^^^^
d|--------------------------------------------------------------------------|
A|12b-(12)---(12)---(12)----------------------------------------------------|
F|--------------------------------------------------------------------------|
C|--------------------------------------------------------------------------|
G|--------------------------------------------------------------------------|
D|--------------------------------------------------------------------------|
guitar 3           T         T        T        T                 
d|---------------------------------------------------8----------------------|
A|------------------------------------------8-12p5h6------------------------|
F|---------------------------------9-12p5h7---------------------------------|
C|------------------------9-12p5h7------------------------------------------|
G|-5-----------5-------h7---------------------------------------------------|
D|-3------0-0--3--12p5------------------------------------------------------|
          . .

Guitar 1&2 tacet
    T      T      T      T      T      T      T      T               T    
d|-12p5h7-10p5h7-12p5h7-10p5h7----------------------------------------------|
A|-----------------------------13p5h8-12p5h8-13p5h8-12p5h8-13---------------|
F|------------------------------------------------------------------------12|
C|----------------------------------------------------------------1214p9h10-|
G|-------------------------------------------------------------h10----------|
D|-----------------------------------------------------------h8-------------|
    T         T         T       T       T       T      T       T       T
d|------------------12-15p8h10-17p8h12-15p8h12-17p8h12----------------------|
A|--------13-15p8h10----------------------------------15p8h12-17p8h12-15p8h12
F|-14p9h12------------------------------------------------------------------|
C|--------------------------------------------------------------------------|
G|--------------------------------------------------------------------------|
D|--------------------------------------------------------------------------|
    T
d|-17p8h12-|
A|---------|
F|---------|
C|---------|
G|---------|
D|---------|

Guitar 1
d|--------------------------------------------------------------------------|
A|-----5-----5-----5-----8----12-------15/17--------------------------------|
F|---7-----7-----5------------------12--------------------------------------|
C|-5-----7-----9------9-----9----12-----------------------------------------|
G|--------------------------------------------------------------------------|
D|--------------------------------------------------------------------------|
   . . . . . . . . .  .  .  .  .  .  .  .
Guitar 2
d|--------------------------------------------------------------------------|
A|-------------------------------------12/17--------------------------------|
F|-----5-----5-----7-----9----12-----9--------------------------------------|
C|---9-----9-----7----------------9-----------------------------------------|
G|-7-----8----10-----10----10-----------------------------------------------|
D|--------------------------------------------------------------------------|
   . . . . . . . . .  .  .  .  .  .  .  .



Guitar 1                                  1/2           ^^^^^^^^^^^^^^
d|-------------------------------------19b--ub19----------------------------|
A|-----13----13----15---17----20----17-------------17-17b-------------------|
F|---16----16----14--------------16-----------------------------------------|
C|-14----15----17----17----17-----------------------------------------------|
G|--------------------------------------------------------------------------|
D|--------------------------------------------------------------------------|
    . . . . . . . . . .  .  .  .  .  .  .
Guitar 2                                 full            ^^^^^^^^^^^^^^^
d|-------------------------------------------------15-15b-------------------|
A|-----5-----5-----5-----8----12-------15b--ub15----------------------------|
F|---7-----7-----5------------------12--------------------------------------|
C|-5-----7-----9------9-----9----12-----------------------------------------|
G|--------------------------------------------------------------------------|
D|--------------------------------------------------------------------------|
   . . . . . . . . .  .  .  .  .  .  .  


Guitar 1
d|---12---------8------------7---8------------------------------------------|
A|-----13--------12-----10---------10---------------------------------------|
F|--------16-------9-------9---9------9-------------------------------------|
C|--------------------------------------------------------------------------|
G|-0----------0-------0-----------------------------------------------------|
D|--------------------------------------------------------------------------|
   .          .       .
Guitar 2
d|-----------------------------------5--------------------------------------|
A|-----------------------6---5-----5----------------------------------------|
F|-------------------------------5------------------------------------------|
C|--------------------7----7---7--------------------------------------------|
G|--------------------------------------------------------------------------|
D|--------------------------------------------------------------------------|
                      .    .   . . . .

verse X4
Guitar 1
d|--------------------------------------------------------------------------|
A|--------------------------------------------------------------------------|
F|--------------------------------------------------------------------------|
C|-----10-1010------9-----12-1212-----10------9-----------------------------|
G|------9--9-9------7------8--8-8------7------7-----------------------------|
D|-0000--------0000---0000--------0000---0000-------------------------------|
   ....        ....   ....        ....   ....
Guitar 2
d|--------------------------------------------------------------------------|
A|--------------------------------------------------------------------------|
F|--------------------------------------------------------------------------|
C|------7--7-7------2------9--9-9------7------2-----------------------------|
G|------3--3-3------2------5--5-5------3------2-----------------------------|
D|-0000--------0000---0000--------0000---0000-------------------------------|
   ....        ....   ....        ....   ....



Chorus X2
Guitar 1
d|-0------------------------------------------------------------------------|
A|-0------------10--------------12--------------8---------------------------|
F|-9-------------9---------------9--------------7---------------------------|
C|-7-------------7--------------10-------------10---------------------------|
G|-0------------------------------------------------------------------------|
D|-----------0-0-------------0-0------------0-0-------------0-0-------------|
             . .             . .            . .             . .
Guitar 2
d|--------------------------------------------------------------------------|
A|--------------------------------------------------------------------------|
F|--------------------------------------------------------------------------|
C|-2-------------2--------2------5--------------5--------5------------------|
G|-0-------------0--------0------3--------------3--------3------------------|
D|-----------0-0-----0-0-----0-0------------0-0-----0-0-----0-0-------------|
             . .     . .     . .            . .     . .     . .


Guitar 1
d|--------------------------------------------------------------------------|
A|-6-6-------6---6---6-----6-6-6-6------------------------------------------|
F|-5-5-------5---5---5-----5-5-5-5---------------4--------------------------|
C|-3-3-3-3-3-3-3-3-3-3-3-3-3-3-3-3-7-7-------7---7-----7---9-7--------------|
G|---------------------------------5-5-------5-5---------------10-7---------|
D|---------------------------------3-3-3-3-3-------0-0---0------------------|
       . . .   .   .   . .             . . .   .   . .   .
Guitar 2
d|--------------------------------------------------------------------------|
A|--------------------------------------------------------------------------|
F|--------------------------------------------------------------------------|
C|--------------------------------------------------------------------------|
G|-3-3-------3---3---3-----3-3-3-3-5-5-------5---5-----7---7-5--3-0---------|
D|-1-1-1-1-1-1-1-1-1-1-1-1-1-1-1-1-3-3-3-3-3-3-3-3-0-0---0------------------|
       . . .   .   .   . .             . . .   .   . .   .



Guitar 1
d|--------------------------------------------------------------------------|
A|-6-6-------6---6---6-----6-6-6-6------------------------------------------|
F|-5-5-------5---5---5-----5-5-5-5---------------4--------------------------|
C|-3-3-3-3-3-3-3-3-3-3-3-3-3-3-3-3-7-7-------7---7-----7---9-7--------------|
G|---------------------------------5-5-------5-5---------------10-7---------|
D|---------------------------------3-3-3-3-3-------0-0---0------------------|
       . . .   .   .   . .             . . .   .   . .   .
Guitar 2
d|--------------------------------------------------------------------------|
A|--------------------------------------------------------------------------|
F|--------------------------------------------------------------------------|
C|--------------------------------------------------------------------------|
G|-3-3-------3---3---3-----3-3-3-3-5-5-------5---5-----7---7-5--3-0---------|
D|-1-1-1-1-1-1-1-1-1-1-1-1-1-1-1-1-3-3-3-3-3-3-3-3-0-0---0------------------|
       . . .   .   .   . .             . . .   .   . .   .





Outtro X7
Guitar 1
d|---12---------8------------7---8------------------------------------------|
A|-----13--------12-----10---------10---------------------------------------|
F|--------16-------9-------9---9------9-------------------------------------|
C|--------------------------------------------------------------------------|
G|-0----------0-------0-----------------------------------------------------|
D|--------------------------------------------------------------------------|
   .          .       .
Guitar 2
d|7p5--------------------------------5--------------------------------------|
A|-----5----------5-8---6----5-----5----------------------------------------|
F|---------5----5----------------5------------------------------------------|
C|------------7-------7----7---7--------------------------------------------|
G|--------------------------------------------------------------------------|
D|--------------------------------------------------------------------------|
              . . .   .    .   . . .


-------------------------------------------------------------------------------
			   "It Dwells In Me" --- All That Remains
-------------------------------------------------------------------------------

Tabbed by: [travis]


Key: G Major (G A B C D E F#)


Tuning: Drop D Standard == D G C F A D (low to high)

Legend:

... = palm mute
h = hammer on
p = pull off
b = bend
* = pinch harmonic
/ = slide up
\ = slide down
h/ = pick once
p\ = pick once
__ = hold bend / hold note during tapped harmonics
() = bring bent note back to normal/note not picked
~ = vibrato
x/x/x = pickslide
[] = harmonic
.5 = half step bend
1 = whole step bend
T = Tap
H = Tapped harmonic (lightly tap note with H over it to produce harmonic)


==================================
Verse 1:
Verse 2: Second Time

Guitar 1:
D|------------------------------------------------------------------------------------------------|
A|------------------------------------------------------------------------------------------------|
F|------------------------------------------------------------------------------------------------|
C|------------------------------------------------------------------------------------------------|
G|7-------------------------7---9--7-------------------------7---9-7-----7-----7---9-----9-----9--|
D|7-0-0000-0-0-0000-0-0-0-0--8-7---7-0-0000-0-0-0000-0-0-0-0--8-7----8-8---8-8---8---7-7---7-7---7|
    .......................          .......................         ...   ...   .   ...   ...   .

Guitar 2:
D|------------------------------------------------------------------------------------------------|
A|------------------------------------------------------------------------------------------------|
F|------------------------------------------------------------------------------------------------|
C|------------------------------------------------------------------------------------------------|
G|7-------------------------2---5--7-------------------------2---5-2-----2-----2---5-----5-----5--|
D|7-0-0000-0-0-0000-0-0-0-0--3-2---7-0-0000-0-0-0000-0-0-0-0--3-2----3-3---3-3---3---2-2---2-2---2|
    .......................  ...     .......................  ...    ...   ...   .   ...   ...   .

====================================
Guitar 1:
D|------------------------------------------------------------------------------------------------|
A|------------------------------------------------------------------------------------------------|
F|------------------------------------------------------------------------------------------------|
C|------------------------------------------------------------------------------------------------|
G|7-------------------------7---9--7-------------------------7---9-7-----7-----7---9-----9-----9--|
D|7-0-0000-0-0-0000-0-0-0-0--8-7---7-0-0000-0-0-0000-0-0-0-0--8-7----8-8---8-8---8---7-7---7-7---7|
    .......................          .......................         ...   ...   .   ...   ...   .

Guitar 2:
D|------------------------------------------------------------------------------------------------|
A|------------------------------------------------------------------------------------------------|
F|------------------------------------------------------------------------------------------------|
C|------------------------------------------------------------------------------------------------|
G|7-------------------------2---5--7-------------------------2---5-2-----2-----2---5-----5-----5--|
D|7-0-0000-0-0-0000-0-0-0-0--3-2---7-0-0000-0-0-0000-0-0-0-0--3-2----3-3---3-3---3---2-2---2-2---2|
    .......................  ...     .......................  ...    ...   ...   .   ...   ...   .

====================================
Guitars 1 and 2:
D|-----------------------------------|
A|-----------------------------------|
F|-----------------------------------|
C|-----------------------------------|
G|-7-----------------2-2-2-2-2-2-2-2-|
D|-7-0-0000-0-0-0000-0-0-0-0-0-0-0-0-|
     ...............................

End of Verse 1.
End of Verse 2.
====================================
Chorus 1:
Chorus 2: Second Time.

Guitars 1 and 2:
D|-----------------------------------------------------------------------|
A|-3-----5~~~------------------------3-----5~~~--------------------------|
F|-2-----4~~~------------------------2-----4~~~----7---------------------|
C|-0-----2~~~------------------------0-----2~~~----7---------------------|
G|---------------7~~~-------5-3-2------------------5-----10---9----------|
D|----0-------0--7~~~-0-2-3-------3-----0-------0------0----0---0-10-0-0-|
      .       .       .............     .       .      .    .   .    ...

Guitar 3:
D|-----------------------------------------------------------------------|
A|-----------------------------------------------------------------------|
F|-----------------------------------------------------------------------|
C|---------------2~~~~~~~~~~~~~~~~~~~~~~~~~~~~~~~~~~~~~~~~---------------|
G|---------------2~~~~~~~~~~~~~~~~~~~~~~~~~~~~~~~~~~~~~~~~---------------|
D|---------------0~~~~~~~~~~~~~~~~~~~~~~~~~~~~~~~~~~~~~~~~---------------|

====================================
Guitars 1 and 2:
D|----------------------------------------------------------|
A|-3-----5~~~-----------------------------------------------|
F|-2-----4~~~-----------------------------------------------|
C|-0-----2~~~-----------------------2-----------2~~~~~~~~~~~|
G|---------------7~~~-------5-3-2-----5-3-2~~~--2~~~~~~~~~~~|
D|----0-------0--7~~~-0-2-3-------3-----------3-0~~~~~~~~~~~|
      .       .       .............

Guitar 3: Play the pickslide only on the first time.
D|-----------------------------------------------|-----------|
A|-----------------------------------------------|-----------|
F|-----------------------------------------------|-----------|
C|---------------2~~~~~~~~~~~~~~~~~~~~~~~~~~~~~~~|x\x\x\x\x\x|
G|---------------2~~~~~~~~~~~~~~~~~~~~~~~~~~~~~~~|x\x\x\x\x\x|
D|---------------0~~~~~~~~~~~~~~~~~~~~~~~~~~~~~~~|-----------|

Go back to the top for Verse 2, and play all the way back to here and continue.

End of Chorus 1.
====================================
Chorus 2 Continued:

Guitar 1:
D|-----------------------------------------------------------------------|
A|-3-----5~~~------------------------3-----5~~~--------------------------|
F|-2-----4~~~------------------------2-----4~~~----7---------------------|
C|-0-----2~~~------------------------0-----2~~~----7---------------------|
G|---------------7~~~-------5-3-2------------------5-----10---9----------|
D|----0-------0--7~~~-0-2-3-------3-----0-------0------0----0---0-10-0-0-|
      .       .       .............     .       .      .    .   .    ...

Guitar 2:
D|---------------------------------------------------------------------|
A|-3-----5~~~------------------------3-----5~~~------------------------|
F|-2-----4~~~------------------------2-----4~~~----7-------------------|
C|-0-----2~~~------------------------0-----2~~~----7-----9---7---------|
G|---------------7~~~-------5-3-2------------------5-------------9-----|
D|----0-------0--7~~~-0-2-3-------3-----0-------0------0---0---0---0-0-|
      .       .       .............     .       .      .   .   .   ...


Guitar 3:
D|---------------------------------------------------------------------|
A|---------------------------------------------------------------------|
F|---------------------------------------------------------------------|
C|---------------2~~~~~~~~~~~~~~~~~~~~~~~~~~~~~~~~~~~~~~~~-------------|
G|---------------2~~~~~~~~~~~~~~~~~~~~~~~~~~~~~~~~~~~~~~~~-------------|
D|---------------0~~~~~~~~~~~~~~~~~~~~~~~~~~~~~~~~~~~~~~~~-------------|

=====================================
Guitar 1:
D|----------------------------------------------------------|
A|-3-----5~~~-----------------------------------------------|
F|-2-----4~~~-----------------------------------------------|
C|-0-----2~~~-----------------------2-----------2~~~~~~~~~~~|
G|---------------7~~~-------5-3-2-----5-3-2~~~--2~~~~~~~~~~~|
D|----0-------0--7~~~-0-2-3-------3-----------3-0~~~~~~~~~~~|
      .       .       .............


Guitar 2:
D|----------------------------------------------------------|
A|-3-----5~~~-----------------------------------------------|
F|-2-----4~~~-----------------------------------------------|
C|-0-----2~~~-----------------------2-----------2~~~~~~~~~~~|
G|---------------7~~~-------5-3-2-----5-3-2~~~--2~~~~~~~~~~~|
D|----0-------0--7~~~-0-2-3-------3-----------3-0~~~~~~~~~~~|
      .       .       .............

Guitar 3:
D|-------------------------------------------------------|
A|-------------------------------------------------------|
F|-------------------------------------------------------|
C|---------------2~~~~~~~~~~~~~~~~~~~~~~~~~~~~~~~~-------|
G|---------------2~~~~~~~~~~~~~~~~~~~~~~~~~~~~~~~~--3h/7-|
D|---------------0~~~~~~~~~~~~~~~~~~~~~~~~~~~~~~~~--3h/7-|

End of Chorus 2.
======================================
Interlude:

Guitars 1 and 2:
D|--------------------------------------------------------------------------|
A|--------------------------------------------------------------------------|
F|--------------------------------------------------------------------------|
C|------5------5---5---5---5-------5h/7-------------------------------------|
G|-3333-3------3---3---3---3--3333-3h/5------------------------------12~~~~-|
D|--------------------------------------0000-7-00-7-8-5-00-0-7-0-8-0-10~~~~-|
   ....                       ....      ....   ..       ....   .   .

=======================================
Guitars 1 and 2:
D|-------------------------------------------------------------------------|
A|-------------------------------------------------------------------------|
F|-------------------------------------------------------------------------|
C|------5------5---5---5---5-------5h/7------------------------------------|
G|-3333-3------3---3---3---3--3333-3h/5---------------12~~~--------5-3-2---|
D|--------------------------------------0000-7-00-7-8-10~~~--0-2-3-------3-|
   ....                       ....      ....   ..            .............

End of Interlude.
=======================================
Guitar Solo:

Guitar 1: hold the 9th fret on the C string while lightly tapping the 21st, 16th, and 14th frets
          to produce tapped harmonics.
                                                                                   H     H    H
     1___                                          .5__      .5____             ___________________
D|-------------------------------------------------------------------------------------------------|
A|-------------------------------------------------------------------------------------------------|
F|-14b---(14)---14---12h14p12p11-12~~~~11h12p11p9-11b--(11)-11b~~~~(11)-9h11p9---------------------|
C|-----------------------------------------------------------------------------9~~~21~~~~16~~~14~~~|
G|-------------------------------------------------------------------------------------------------|
D|-------------------------------------------------------------------------------------------------|

Guitar 1:
                         T                             
D|-----------------12h15-20p15p12----------------------------8-10-12/15-14-12----------------------|
A|---------------13--------------13----------------------7-8-----------------15-13-12--------------|
F|-/17~~~~~----12------------------12-------------------9----------------------------14-16-17-16-14|
C|-----------14----------------------14---------------10-------------------------------------------|
G|---------15--------------------------15-----------10---------------------------------------------|
D|---------------------------------------15-12p\8-12-----------------------------------------------|

Guitar 1:
D|--------------------------------------------------------|
A|--------------------------------------------------------|
F|--------------------------------------------------------|
C|-17-16-14--14-16-14----------------------------------12-|
G|---------17---------17-15-14-----------------12-14-15---|
D|----------------------------17-15-14-12-14-15-----------|
                                    .....................

===========
Guitar 1:
D|--------------------------------------------10--12----------------14----------------|
A|------------------------10--12--13--12--13------------------------------------------|
F|----------11~~~~~~~12------------------------------12----12----12----14----14----14-|
C|-14*~~~~~~--------------------------------------------14----16----------16----17----|
G|------------------------------------------------------------------------------------|
D|------------------------------------------------------------------------------------|
                                                        ...........       ...........  

Guitar 3:
D|----------------------------10--12--10------------------------10----------------|
A|----------10~~~~~~~12---13--------------10------12------------------------------|
F|-12~~~~~~~----------------------------------11-----9---9----9----11----11----11-|
C|-----------------------------------------------------9---12---------12----14----|
G|--------------------------------------------------------------------------------|
D|--------------------------------------------------------------------------------|
                                                       ........       ...........

==========
Guitar 1:
                      .5______
D|-------------------19b~~~~~(19)~~~~|
A|-20--------------------------------|
F|----16----16----16-----------------|
C|-------17----19--------------------|
G|-----------------------------------|
D|-----------------------------------|
         ...........

Guitar 3:
                       1_____
D|-12----------------15b~~~~~(15)~~~~|
A|-----------------------------------|
F|----12----12----12-----------------|
C|-------14----16--------------------|
G|-----------------------------------|
D|-----------------------------------|

===========
Guitar 1:
D|-----------------------------------------------------------------------------------|
A|------------------------------------------------------------17------------------19-|
F|-------------------11------------------16---------17------------------19-----------|
C|---------12------------------17-----------14h16h17--17p16p14--16h17h19--19p17p16---|
G|---------------------14h15h17--17p15p14--------------------------------------------|
D|-12h14h15--15p14p12----------------------------------------------------------------|


Guitar 1:
                                       1.5____1_____   1____
D|-12-00000-14-00000-15-00000-17-00000-19b---(19)--(19)b---(19)~~~~|
A|-----------------------------------------------------------------|
F|-----------------------------------------------------------------|
C|-----------------------------------------------------------------|
G|-----------------------------------------------------------------|
D|-----------------------------------------------------------------|

==========
Guitar 1:
D|---------------------------------------------------------------------------------|
A|-17p13--13-15p13--13-17p13--13-15p13--13-17p13--13-15p13--13-17p13--13-15p13--13-|
F|------16--------16--------16--------16--------16--------16--------16--------16---|
C|---------------------------------------------------------------------------------|
G|---------------------------------------------------------------------------------|
D|---------------------------------------------------------------------------------|

Guitar 3:
D|---------------------------------------------------------------------------------|
A|-20p17--17-19p17--17-20p17--17-19p17--17-20p17--17-19p17--17-20p17--17-19p17--17-|
F|------19--------19--------19--------19--------19--------19--------19--------19---|
C|---------------------------------------------------------------------------------|
G|---------------------------------------------------------------------------------|
D|---------------------------------------------------------------------------------|

==========
Guitar 1:
D|-12-----------------------------------------------------------------------|
A|-----15--13--12~~~-13\-/12~~~~~~~~17p13--13-15p13--13-17p13--13-15p13--13-|
F|---------------------------------------16--------16--------16--------16---|
C|--------------------------------------------------------------------------|
G|--------------------------------------------------------------------------|
D|--------------------------------------------------------------------------|

Guitar 3:
D|-15--14-------------------------------------------------------------------|
A|---------17--15~~~-17\-/15~~~~~~~~20p17--17-19p17--17-20p17--17-19p17--17-|
F|---------------------------------------19--------19--------19--------19---|
C|--------------------------------------------------------------------------|
G|--------------------------------------------------------------------------|
D|--------------------------------------------------------------------------|

==========
Guitar 1: The 21st fret and the 24th fret are both tapped harmonics.
                                                         H
                                                _____________________________
D|-12------------------------------------------------------------------------|
A|---15-13-15-13-12-13-12--12------------------------------------------------|
F|-----------------------14--14-12-14p12-11-12-9~~~~~~~~~21~~~~~~~~~~~~~~~~~~|
C|---------------------------------------------------------------------------|
G|---------------------------------------------------------------------------|
D|---------------------------------------------------------------------------|

Guitar 3:
                                                         H
                                                 ____________________________
D|-15-14-12-14-12--12--------------------------------------------------------|
A|---------------15--15-13-15-13-12-13p12-10-12------------------------------|
F|---------------------------------------------12~~~~~~~~24~~~~~~~~~~~~~~~~~~|
C|---------------------------------------------------------------------------|
G|---------------------------------------------------------------------------|
D|---------------------------------------------------------------------------|

End of Guitar Solo.
==========
Rhythm For Guitar Solo:


Guitars 2 and 4:
D|--------------------------------------------------------------------------|
A|--------------------------------------------------------------------------|
F|--------------------------------------------------------------------------|
C|------5------5---5---5---5-------5h/7-------------------------------------| ---
G|-3333-3------3---3---3---3--3333-3h/5------------------------------12~~~~-|   |
D|--------------------------------------0000-7-00-7-8-5-00-0-7-0-8-0-10~~~~-|   |
   ....                       ....      ....   ..       ....   .   .            |
                                                                                |
                                                                                |-- x3
Guitars 2 and 4:                                                                |
D|-------------------------------------------------------------------------|    |
A|-------------------------------------------------------------------------|    |
F|-------------------------------------------------------------------------|    |
C|------5------5---5---5---5-------5h/7------------------------------------| ---|
G|-3333-3------3---3---3---3--3333-3h/5---------------12~~~--------5-3-2---|
D|--------------------------------------0000-7-00-7-8-10~~~--0-2-3-------3-|
   ....                       ....      ....   ..            .............



=====================================================
=====================================================
Interlude 2:

Guitars 1 and 2: Lightly Palm mute on the ~ chords.
D|-------------------------------------------------------------|
A|-------------------------------------------------------------|
F|-------------------------------------------------------------|
C|-------------------------------------------------------------|
G|------2~~--2--2~~-2--2------2-------2~~-2--2~~-------5-3-2---|
D|-0000-0~~--0--0~~-0--0-0000-0--0000-0~~-0--0~~-0-2-3-------3-|
   ...........................................................

Guitars 1 and 2: Lightly Palm mute on the ~ chords.
D|--------------------------------------------------------------------------------|
A|--------------------------------------------------------------------------------|
F|--------------------------------------------------------------------------------|
C|----------------------------------------------2---------------------------------|
G|------2~~--2--2~~-2--2------2-------2~~-2--2----5-3-2~~~----------2~~~--2--2~~~-|
D|-0000-0~~--0--0~~-0--0-0000-0--0000-0~~-0--0------------3-0--0000-0~~~--0--0~~~-|
   ...........................................                 ...................

Guitars 1 and 2:
D|-----------------------------------------------------------------------------|
A|-----------------------------------------------------------------------------|
F|-----------------------------------------------------------------------------|
C|-----------------------------------------------------------------------------|
G|-2--2------2-------2~~--2--2~~-------5-3-2---------2~~--2--2~~--2--2-------2-|
D|-0--0-0000-0--0000-0~~--0--0~~-0-2-3-------3--0000-0~~--0--0~~--0--0--0000-0-|
   ...........................................................................

Guitars 1 and 3:
D|------------------------------|
A|------------------------------|
F|------------------------------|
C|----------------2-------------|
G|------2~~--2--2---5-3-2~~~----|
D|-0000-0~~--0--0-----------3-0-|
   ..............

=============================
Guitar 1:
D|-----------------------------------------------------------|
A|-----------------------------------------------------------|
F|--------------------12~~~~~~~~~~~-16~~~-17~~~-14~~~~~~~~~~-|
C|-16~~~~~~~--14~~~~--12~~~~~~~~~~~-14~~~-17~~~-14~~~~~~~~~~-|
G|-12~~~~~~~--12~~~~--10~~~~~~~~~~~-14~~~-15~~~-12~~~~~~~~~~-|
D|-12~~~~~~~--12~~~~-----------------------------------------|

Guitar 2:
D|----------------------------------------------------------------|
A|----------------------------------------------------------------|
F|----------------------------------------------------------------|
C|------2----2---2---2---2------2-------2---2---2-----------------|
G|------2----2---2---2---2------2-------2---2---2---------5-3-2---|
D|-0000-0----0---0---0---0-0000-0--0000-0---0---0---0-2-3-------3-|
   ....                    ....    ....             .............

=============================
Guitar 1:
D|---------------------------------------------------------------|
A|---------------------------------------------------------------|
F|---------------------12~~~~~~~~~~~-12~~~~11~~~~-9~~~~~~~~~~~~~-|
C|-16~~~~~~~~--14~~~~--12~~~~~~~~~~~--x-----x-----x--------------|
G|-12~~~~~~~~--12~~~~--10~~~~~~~~~~~-10~~~~-9~~~~-7~~~~~~~~~~~~~-|
D|-12~~~~~~~~--12~~~~--------------------------------------------|

Guitar 2:
D|--------------------------------------------------------------|
A|--------------------------------------------------------------|
F|--------------------------------------------------------------|
C|------2---2---2---2---2------2-------2---2---2--2-------------|
G|------2---2---2---2---2------2-------2---2---2----5-3-2~~~----|
D|-0000-0---0---0---0---0-0000-0--0000-0---0---0------------3-0-|
   ....                           .... 

=============================
Chorus 3:

Guitar 1:
D|-----------------------------------------------------------------------|
A|-3-----5~~~------------------------3-----5~~~--------------------------|
F|-2-----4~~~------------------------2-----4~~~----7---------------------|
C|-0-----2~~~------------------------0-----2~~~----7---------------------|
G|---------------7~~~-------5-3-2------------------5-----10---9----------|
D|----0-------0--7~~~-0-2-3-------3-----0-------0------0----0---0-10-0-0-|
      .       .       .............     .       .      .    .   .    ...

Guitar 2:
D|---------------------------------------------------------------------|
A|-3-----5~~~------------------------3-----5~~~------------------------|
F|-2-----4~~~------------------------2-----4~~~----7-------------------|
C|-0-----2~~~------------------------0-----2~~~----7-----9---7---------|
G|---------------7~~~-------5-3-2------------------5-------------9-----|
D|----0-------0--7~~~-0-2-3-------3-----0-------0------0---0---0---0-0-|
      .       .       .............     .       .      .   .   .   ...


Guitar 3:
D|---------------------------------------------------------------------|
A|---------------------------------------------------------------------|
F|---------------------------------------------------------------------|
C|---------------2~~~~~~~~~~~~~~~~~~~~~~~~~~~~~~~~~~~~~~~~-------------|
G|---------------2~~~~~~~~~~~~~~~~~~~~~~~~~~~~~~~~~~~~~~~~-------------|
D|---------------0~~~~~~~~~~~~~~~~~~~~~~~~~~~~~~~~~~~~~~~~-------------|

=====================================
Guitar 1:
D|----------------------------------------------------------|
A|-3-----5~~~-----------------------------------------------|
F|-2-----4~~~-----------------------------------------------|
C|-0-----2~~~-----------------------2-----------2~~~~~~~~~~~|
G|---------------7~~~-------5-3-2-----5-3-2~~~--2~~~~~~~~~~~|
D|----0-------0--7~~~-0-2-3-------3-----------3-0~~~~~~~~~~~|
      .       .       .............


Guitar 2:
D|----------------------------------------------------------|
A|-3-----5~~~-----------------------------------------------|
F|-2-----4~~~-----------------------------------------------|
C|-0-----2~~~-----------------------2-----------2~~~~~~~~~~~|
G|---------------7~~~-------5-3-2-----5-3-2~~~--2~~~~~~~~~~~|
D|----0-------0--7~~~-0-2-3-------3-----------3-0~~~~~~~~~~~|
      .       .       .............

Guitar 3:
D|-------------------------------------------------------|
A|-------------------------------------------------------|
F|-------------------------------------------------------|
C|---------------2~~~~~~~~~~~~~~~~~~~~~~~~~~~~~~~~-------|
G|---------------2~~~~~~~~~~~~~~~~~~~~~~~~~~~~~~~~--3h/7-|
D|---------------0~~~~~~~~~~~~~~~~~~~~~~~~~~~~~~~~--3h/7-|

End of Chorus 3.
======================================
Outro:

Guitars 1 and 2:
     1
D|-----------------------------------------------------------------|
A|-----------------------------------------------------------------|
F|-----------------------------------------------------------------|
C|-----------------------------------------------------------------|
G|-----------------------------------------------------------------|
D|-3*b-0000000-0000000-000000-0-0-00-0000000-0000000-000000-0-0-00-|
       ...........................................................

======================================
Guitars 1 and 2:
D|------------------------------------------------------------|
A|------------------------------------------------------------|
F|------------------------------------------------------------|
C|------------------------------------------------------------|
G|---------------------------------------------------------5\-|
D|---0000000-0000000-000000-0-0-00--0000000-0000000-000000-5\-|
     .....................................................

======================================
Guitars 1 and 2:
D|----------------------------------------------------------------------|
A|----------------------------------------------------------------------|
F|----------------------------------------------------------------------|
C|----------------------------------------------------------------------|
G|----------2--------2------------------------2--------2----------------|
D|---000000-0-000000-0-000000-0-0-0-0--000000-0-000000-0-000000-0-0-0-0-|
     ..................................................................

======================================
Guitars 1 and 2:
D|-------------------------------------------------------------------------|
A|-------------------------------------------------------------------------|
F|---------------------------------------------------------------[5]-------|
C|---------------------------------------------------------------[5]-------|
G|-----------2--------2------------------------2--------2--------[5]-------|
D|----000000-0-000000-0-000000-0-0-0-0--000000-0-000000-0-000000-----0-0-0-|
      ..........................................................     .....

Song: We Stand by All That Remains
Tuning: D Standard (one step down)

. = mute

Guitar 1 - Intro
----------------------------------------------------------------|
----------------------------------------------------------------|
------------------------------9-----------------9---------------|
-----10-9-----10-9-------10-9-------10-9---10-9---12-10-9-------|
-000------000------00000--------000------0----------------12-10-|
----------------------------------------------------------------|
 ...      ...      .....        ...      .

------------------------------------------------------------|
------------------------------------------------------------|
------------------------------9-----------------------------|
-----10-9-----10-9-------10-9-----9-10-12---7-9-10----------|
-000------000------00000--------0---------0---------12-10-9-|
----------------------------------------------------10-8--7-|
 ...      ...      .....        .         .

Guitar 2 - Intro (also join in on the muted open strings)
---------------------------------------------------------------|
---------------------------------------------------------------|
---------------------------------------------------------------|
-----------------------------------------------7-10-9-7--------|
------------------------------------------7-10----------10-8-7-|
---------------------------------------------------------------|

------------------------------------------------------------|
------------------------------------------------------------|
------------------------------------------------------------|
--------------------------------------7h9--------7----------|
----------------------------------7-7-----7-7-10----12-10-9-|
----------------------------------------------------10-8--7-|

[Verse Part 1]

Guitar 1 Repeat intro x 1

Guitar 2
-------------------------------------------------------|
-------------------------------------------------------|
---------------------------5---------------5p4---------|
-----7-5-----7-5-------7-5-------7-5---5-7-----7-5-----|
-000-----000-----00000-------000-----0-------------8-7-|
-------------------------------------------------------|
 ...     ...     .....       ...     .

-------------------------------------------------------|
-------------------------------------------------------|
---------------------------5---------------------------|
-----7-5-----7-5-------7-5-------7h9--------7----------|
-000-----000-----00000-------0-7-----0-7-10----12-10-9-|
-----------------------------------------------10-8--7-|
 ...     ...     .....

[Verse Pt.2]

Guitar 1
---------------------------------------|
---------------------------------------|
---------------------------------------|
----------9----7-9----------10--7-9-10-|
------9p7---10----------9p7------------|
-0000------0-------0000--------0-------|
 ....      .       ....        .

---------------------------------------|
---------------------------------------|
---------------------------------------|
----------9----7-9---------------------|
------9p7---10--------3-5p3----2-2h3p2-|
-0000------0-------00-------0-0--------| all x 2
 ....      .       ..       . .          The very last part is
                                         slightly different 2nd
                                         time.

Guitar 2
-----------------------------------|
-----------------------------------|
---------------------------2-----2-|
------4p2-5-2-4-5------4p2---4-5---|
-----------------------------------|
-0000----0--------0000------0------|
 ....    .        ....      .

--------------------------------------|
--------------------------------------|
--------------------------------------|
------4p2-5-2-4-5---------------------|
---------------------3-5p3----2-2h3p2-|
-0000------0------00-------0-0--------| x 2
 ....      .      ..       . .

[Chorus]

Guitar 1
------------------------------------------------------------|
------------------------------------------------------------|
-------------9~--------------10~--------------9~--7---4-4/5-|
---------9p7-------------9p7--------------9p7-----5---2-2/3-|
-000-0-0---------000-0-0----------000-0-0-------------------|
------------------------------------------------------------| x 1
 ... . .         ... . .          ... . .

Guitar 2
-----------------                        -----------|
-----------------                        -----------|
---------2~------                        -----------|
---------2~------                        -5---3-3-2-|
-000-0-0-0~------ x 3 in time with above -5---3-3-2-|
-----------------                        -3---1-1-0-|
 ... . .


Verse 2 The same.

Pre-chorus break play the Intro part x2

Chorus again


[Interlude]

Guitar 2
---------------------------------------------------------------------------|
---------------------------------------------------------------------------|
---------------------------------------------------------------------------|
-------------------------------------------------------------------------9-|
-----10-9-10-7-----10-9-10-7-12-10-12-9-----10-9-10-7-----9p7-9-10-9p7-9---|
-000-----------000----------------------000-----------000------------------|
 ...           ...                      ...           ...
x2

-------------------------------------------------------------------------|
-------------------------------------------------------------------------|
-------------------9-7-9----7---7---------------------------7---------13-|
-----10-9-10-7-----------10---9---9-----10-9-10-7-----9p7-9---12p9-12----|
-000-----------000------------------000-----------000--------------------|
-------------------------------------------------------------------------|x2
 ...           ...                  ...           ... ^^^^^^^^^^^^^^^^^^^
                                                      pm 2nd time through

Guitar 1 join with:
--------------------------|
--------------------------|
------------------------9-|
---------------10-9h7-9---|
------12p10-12------------|
-(000)--------------------| x 2 at the end of G2, you'll hear it.

Then
--------------------------------------------------------------------------|
-----------------------------------------------------------------------12-|
-----9-7-9------------------------------9-7-9----------------10-9----9----|
-----------10-----10p9-10-7-9p7-9-8-----------10-----12p9-12------12------|
-000----------000-------------------000----------000----------------------| x
--------------------------------------------------------------------------|
 ...          ...                   ...          ... ^^^^^^^^^^^^^^^^^^^^
x2

The muted run is different but I couldn't hear it very well, apologies.

I can't tab the solo, so sorry again, I'm not very gd at solos.

After solo:
Guitar 1
--------------------------------------------------------------------------|
--------------------------------------------------------------------------|
------------------------------------------------------------------------9-|
-----9p7-9--------9p7-9----10-9-10-7-----9p7-9-----------------10-9p7-9---|
-----------10-----------10---------------------10-----12h10-12------------|
-000----------000--------------------000----------000---------------------| x
 ...          ...                    ...          ...
x2

-----------------------------------------------------------------------------|
------------------------------------------------------------------------12---|
-----9p7-9-------------------------------9p7-9----------------10-9----9------|
-----------10-----10p9-10-7-9p7-9--------------10-----12p9-12------12--------|
-000----------000-----------------10-000----------000------------------------|
---------------------------------------------------------------------------x-|
 ...          ...                    ...          ... ^^^^^^^^^^^^^^^^^^^^
x2

2nd time instead play:
-----------------|
-----------------|
-----------------|
-----------------|
-----222-555-333-|
-000-------------|
 ... ... ... ...

GUitar 2
---------------------------------------------------------------------------|
---------------------------------------------------------------------------|
---------------------------------------------------------------------------|
-------------------------------------------------------------------------9-|
-----10-9-10-7-----10-9-10-7-12-10-12-9-----10-9-10-7-----9p7-9-10-9p7-9---|
-000-----------000----------------------000-----------000------------------| x2

-------------------------------------------------------------------------|
-------------------------------------------------------------------------|
-------------------9-7-9----7---7---------------------------7---------13-|
-----10-9-10-7-----------10---9---9-----10-9-10-7-----9p7-9---12p9-12----|
-000-----------000------------------000-----------000--------------------|
-------------------------------------------------------------------------| x2
 ...           ...                  ...           ... ^^^^^^^^^^^^^^^^^^

Play same as guitar 1 2nd time round.

Chorus to finish.

Thats everything i could get, is should be right...I hope. :) Comments
and ratings welcome.We Stand Lyrics Learn to play "We Stand" with online video lessons 

Whispers (I Hear You)
Tuning:  (DGCFAD)

This is 99% accurate. Don't know solo sorry.


Intro-Guitar 1
D|-------------------------------------------||
A|------------------------------------------o||
F|--9-9999-12-12121212--11-11111111-9-9999---||
C|--x-xxxx-x--x-x-x-x---x--x-x-x-x--x-xxxx---||
G|--7-7777-10-10101010--9--9-9-9-9--7-7777--o||
D|-------------------------------------------||
                                           
D|----------------------------------------------||
A|---------------------------------------------o||
F|--9-9999-9-9999-11/-12-12121212-11-11111111---||
C|--x-xxxx-x-xxxx-x---x--x-x-x-x--x--x-x-x-x----||
G|--7-7777-7-7777-9-/-10-10101010-9--9-9-9-9---o||
D|----------------------------------------------||
        
                                                
Intro- Guitar 2     				                  	
D|--3-3333--||
A|--3-3333--||
F|--5-5555--|| 
C|--5-5555--|| [x16]
G|--3-3333--||
D|--3-3333--||


Main Riff/Verse
D|-------------------------------------------------------------------------------||
A|------------------------------------------------------------------------------o||
F|-------------------------------------------------------------------------------||
C|-------------------------------------------------------------------------------||
G|----7-9-10-9-7----12-12-10----10-10-9-----7-9-10-9-7--12-12-10----10-10-9--7--o||
D|--00-0-0--0-0---00----------00----------00-0-0--0-0-----------12----------8----||
    .. . .  . .   ..          ..          .. . .  . .

D|-------------------------------------------------------------------||
A|------------------------------------------------------------------o||
F|-------------------------------------------------------------------||
C|-------------------------------------------------------------------||
G|----7-9-10-9-7---------------7-9-10-9-7---12-12-10----10-10-9--7--o||
D|--00-0-0--0-0---000--000---00-0-0--0-0------------12----------8----||
    .. . .  . .   ...  ...   .. . .  . .   


Chorus-Guitar 1
D|-------------------------------------------||
A|------------------------------------------o||
F|--9-9999-12-12121212--11-11111111-9-9999---||
C|--x-xxxx-x--x-x-x-x---x--x-x-x-x--x-xxxx---||
G|--7-7777-10-10101010--9--9-9-9-9--7-7777--o||
D|-------------------------------------------||
                                           
D|----------------------------------------------||
A|---------------------------------------------o||
F|--9-9999-9-9999-11/-12-12121212-11-11111111---||
C|--x-xxxx-x-xxxx-x---x--x-x-x-x--x--x-x-x-x----||
G|--7-7777-7-7777-9-/-10-10101010-9--9-9-9-9---o||
D|----------------------------------------------||


Chorus-Guitar 2
D|-------------------------------||
A|-------------------------------||
F|-------------------------------||
C|--5-5555-5-5555----------------|| [x4]
G|--3-3333-3-3333-2-2222-2-2222--||
D|----------------0-0000-0-0000--||
   

Main Riff/Verse                                                              
D|-----------------------------------------||
A|-----------------------------------------||
F|-----------------------------------------||
C|-----------------------------------------||
G|----7-9-10-9-7---------------7-9-10-9-7--||
D|--00-0-0--0-0---000--000---00-0-0--0-0---||
    .. . .  . .   ...  ...   .. . .  . .   

D|--------------------------||
A|--------------------------||
F|--------------------------||
C|--------------------------||
G|--12-12-10----10-10-9--7--||
D|----------12----------8---||

D|-----------------------------------------||
A|-----------------------------------------||
F|-----------------------------------------||
C|-----------------------------------------||
G|----7-9-10-9-7---------------7-9-10-9-7--||
D|--00-0-0--0-0---000--000---00-0-0--0-0---||
    .. . .  . .   ...  ...   .. . .  . .   

D|----------------||
A|----------------||
F|----------------||
C|--------------P-||
G|--12-12-10---12-||
D|----------12----||

D|-----------------------------------------------------------------------------||
A|-----------------------------------------------------------------------------||
F|-----------------------------------------------------------------------------||
C|-----------------------------------------------------------------------------||
G|----7-9-10-9-7----12-12-10----10-10-9-----7-9-10-9-7--12-12-10----10-10-9--7-||
D|--00-0-0--0-0---00----------00----------00-0-0--0-0-----------12----------8--||
    .. . .  . .   ..          ..          .. . .  . .

D|---------------------------------------------------------------------||
A|---------------------------------------------------------------------||
F|---------------------------------------------------------------------||
C|------------------------------------------------------------------//-||
G|----7-9-10-9-7----12-12-10----10-10-9-----7-9-10-9-7--12-12-10----//-||
D|--00-0-0--0-0---00----------00----------00-0-0--0-0-----------12--//-||
    .. . .  . .   ..          ..          .. . .  . .


Chorus-Guitar 1
D|-------------------------------------------||
A|------------------------------------------o||
F|--9-9999-12-12121212--11-11111111-9-9999---||
C|--x-xxxx-x--x-x-x-x---x--x-x-x-x--x-xxxx---||
G|--7-7777-10-10101010--9--9-9-9-9--7-7777--o||
D|-------------------------------------------||
                                           
D|----------------------------------------------||
A|---------------------------------------------o||
F|--9-9999-9-9999-11/-12-12121212-11-11111111---||
C|--x-xxxx-x-xxxx-x---x--x-x-x-x--x--x-x-x-x----||
G|--7-7777-7-7777-9-/-10-10101010-9--9-9-9-9---o||
D|----------------------------------------------||

Chorus-Guitar 2
D|-------------------------------||
A|-------------------------------||
F|-------------------------------||
C|--5-5555-5-5555----------------|| [x4]
G|--3-3333-3-3333-2-2222-2-2222--||
D|----------------0-0000-0-0000--||


Breakdown
D|------------------------------------||
A|-----------------------------------o||
F|------------------------------------||
C|--5-555/----------5-555/------------||
G|--3-333/5-222-222-3-333/5---10-9-7-o||
D|----------000-000---------00—0--0---||
      ...   ... ... . ...   .. .  .


Bridge/Solo Background
D|----------------------------------------------------------------||
A|----------------------------------------------------------------||
F|----------------------------------------------------------------||
C|--5---5-5-5/---------------------5---5-5-5/---------------------|| [x5]
G|--3---3-3-3/555--10-9-7-10-9-----3---3-3-3/555--10-9-7-12-10-9--||
D|---000-0-0---------0-0-0--0-0-10--000-0-0---------0-0-0--0--0-0-||
     ... . .         . . .  . .  .  ... . .         . . .  .  . .


Breakdown
D|----------------------||
A|----------------------||
F|----------------------||
C|--5-555/--------------|| [x3]
G|--3-333/5-22222-22222-||
D|----------00000-00000-||
      ...   ..... .....

D|---------------------------||
A|---------------------------||
F|---------------------------||
C|--5-555/-------------------||
G|--3-333/5-14-12-10-12-10-9-||
D|------------0--0--0--0--0--||
      ...     .  .  .  .  . .


Main Riff/Verse
D|-----------------------------------------------------------------------------||
A|-----------------------------------------------------------------------------||
F|-----------------------------------------------------------------------------||
C|-----------------------------------------------------------------------------||
G|----7-9-10-9-7----12-12-10----10-10-9-----7-9-10-9-7--12-12-10----10-10-9--7-||
D|--00-0-0--0-0---00----------00----------00-0-0--0-0-----------12----------8--||
    .. . .  . .   ..          ..          .. . .  . .

D|--------------------------------------------------------------------||
A|-----------------------------------------------------------------P--||
F|----------------------------------------------------------------12--||
C|--------------------------------------------------------------------||
G|----7-9-10-9-7----12-12-10----10-10-9-----7-9-10-9-7--12-12-10------||
D|--00-0-0--0-0---00----------00----------00-0-0--0-0-----------12----||
    .. . .  . .   ..          ..          .. . .  . .

D|-----------------------------------------------------------------------------||
A|-----------------------------------------------------------------------------||
F|-----------------------------------------------------------------------------||
C|-----------------------------------------------------------------------------||
G|----7-9-10-9-7----12-12-10----10-10-9-----7-9-10-9-7--12-12-10----10-10-9--7-||
D|--00-0-0--0-0---00----------00----------00-0-0--0-0-----------12----------8--||
    .. . .  . .   ..          ..          .. . .  . .

D|--------------------------------------------------------------------||
A|--------------------------------------------------------------------||
F|--------------------------------------------------------------------||
C|--------------------------------------------------------------------||
G|----7-9-10-9-7----12-12-10----10-10-9-----7-9-10-9-7--12-12-10------||
D|--00-0-0--0-0---00----------00----------00-0-0--0-0-----------12/5--||
    .. . .  . .   ..          ..          .. . .  . .


Chorus-Guitar 1
D|-------------------------------------------||
A|------------------------------------------o||
F|--9-9999-12-12121212--11-11111111-9-9999---||
C|--x-xxxx-x--x-x-x-x---x--x-x-x-x--x-xxxx---||
G|--7-7777-10-10101010--9--9-9-9-9--7-7777--o||
D|-------------------------------------------||
                                           
D|----------------------------------------------||
A|---------------------------------------------o||
F|--9-9999-9-9999-11/-12-12121212-11-11111111---||
C|--x-xxxx-x-xxxx-x---x--x-x-x-x--x--x-x-x-x----||
G|--7-7777-7-7777-9-/-10-10101010-9--9-9-9-9---o||
D|----------------------------------------------||

Chorus-Guitar 2
D|-------------------------------||
A|-------------------------------||
F|-------------------------------||
C|--5-5555-5-5555----------------|| [x4]
G|--3-3333-3-3333-2-2222-2-2222--||
D|----------------0-0000-0-0000--||


Outro
D|------||
A|------||
F|------||
C|--2~--||
G|--2~--||
D|--0~--||
All That Remains - The Weak Willed
Tabbed by: rcw110131

Yes, here it is finally.  The tab you've all been waiting for lol.  Sorry it
took so long to get around to.  I also made a Guitar Pro version of this,
so check that out.  Enjoy!!!


UPDATED 6/14/08 - after seeing a few live videos and stuff I changed a few
notes of the solo and redid it for easier playing.  Well, the one part near
the end when you go down to the 6th fret might not be easy but that's the way
Oli plays it!


Guitar I (DGCFAD): Left Guitar
Guitar II (DGCFAD): Right Guitar
Guitar III (DGCFAD): Extra Guitar 1 
Guitar IV (DGCFAD): Extra Guitar 2
Guitar V (DGCFAD): Extra Guitar 3
Guitar VI (DbGbBEAbDb): Extra Guitar 4

h = hammer-on
p = pull-off
t = tap
/ = slide up
\ = slide down
~ = vibrato
* = rest (stop string from vibrating...duh)

===============================================================================
-Intro Riff- (0:00 - 0:17)


  Guitars I + II:
D|-----------------------------------|-----------------------------------|
A|-----------------------------------|-----------------------------------|
F|-----------------------------------|-----------------------------------|
C|-----------------------------------|--------------------9-9-9-9--------|
G|7-7-7-7-10-10-10-10-9-9-9-9-7-7-7-7|10-10-10-10-9-9-9-9---------9-9-9-9|
D|-----------------------------------|-----------------------------------|
PM. . . .  .  .  .  . . . . . . . . .  .  .  .  . . . . . . . . . . . . .

D|-----------------------------------|---------------------------------------|
A|-----------------------------------|---------------------------------------|
F|-----------------------------------|---------------------------------------|
C|-----------------------------------|--------------------10-10-10-10--------|
G|6-6-6-6-10-10-10-10-9-9-9-9-6-6-6-6|10-10-10-10-9-9-9-9-------------9-9-9-9|
D|-----------------------------------|---------------------------------------|
PM. . . .  .  .  .  . . . . . . . . .  .  .  .  . . . . .  .  .  .  . . . . .

D|-----------------------------------|-----------------------------------|
A|-----------------------------------|-----------------------------------|
F|-----------------------------------|-----------------------------------|
C|-----------------------------------|--------------------9-9-9-9--------|
G|7-7-7-7-10-10-10-10-9-9-9-9-7-7-7-7|10-10-10-10-9-9-9-9---------9-9-9-9|
D|-----------------------------------|-----------------------------------|
PM. . . .  .  .  .  . . . . . . . . .  .  .  .  . . . . . . . . . . . . .

D|-------------------------------|-----------------------------------|
A|-------------------------------|-----------------------------------|
F|-------------------------------|-----------------------------------|
C|-------------------------------|-----------------------------------|
G|7-7-7-7-6-6-6-6----------------|--------10-10-10-10-6-6-6-6-9-9-9-9|
D|----------------8-8-8-8-6-6-6-6|7-7-7-7----------------------------|
PM. . . . . . . . . . . . . . . . . . . .  .  .  .  . . . . . . . . .

                               then

  Guitar II: same as above

  Guitar I:
D|-----------------------------------------------|------------------------
A|-----------------------------------------------|------------------------
F|-----------------------------------------------|------------------------
C|-----------------------------------------------|------------------------
G|10-10-10-10-14-14-14-14-12-12-12-12-10-10-10-10|14-14-14-14-12-12-12-12-
D|-----------------------------------------------|------------------------
PM .  .  .  .  .  .  .  .  .  .  .  .  .  .  .  .  .  .  .  .  .  .  .  .

------------------------|
------------------------|
------------------------|
-13-13-13-13------------|
-------------12-12-12-12|
------------------------|
  .  .  .  .  .  .  .  .

D|---------------------------------------|-----------------------------------|
A|---------------------------------------|-----------------------------------|
F|---------------------------------------|-----------------------------------|
C|---------------------------------------|-----------------------------------|
G|9-9-9-9-14-14-14-14-12-12-12-12-9-9-9-9|10-10-10-10-9-9-9-9-7-7-7-7-6-6-6-6|
D|---------------------------------------|-----------------------------------|
PM. . . .  .  .  .  .  .  .  .  . . . . .  .  .  .  . . . . . . . . . . . . .

D|-----------------------------------------------|------------------------
A|-----------------------------------------------|------------------------
F|-----------------------------------------------|------------------------
C|-----------------------------------------------|------------------------
G|10-10-10-10-14-14-14-14-12-12-12-12-10-10-10-10|14-14-14-14-12-12-12-12-
D|-----------------------------------------------|------------------------
PM .  .  .  .  .  .  .  .  .  .  .  .  .  .  .  .  .  .  .  .  .  .  .  .

------------------------|
------------------------|
------------------------|
-13-13-13-13------------|
-------------12-12-12-12|
------------------------|
  .  .  .  .  .  .  .  .

D|---------------------------------------|-----------------------------------|
A|---------------------------------------|-----------------------------------|
F|---------------------------------------|-----------------------------------|
C|---------------------------------------|--------9-9-9-9-10-10-10-10-7-7-7-7|
G|10-10-10-10-9-9-9-9-7-7-7-7-10-10-10-10|9-9-9-9----------------------------|
D|---------------------------------------|-----------------------------------|
PM .  .  .  . . . . . . . . .  .  .  .  . . . . . . . . .  .  .  .  . . . . .


===============================================================================
-Break- (0:18 - 0:22)


  Guitar I:
D|----------------|----------------|----------------|------------------|
A|----------------|----------------|----------------|------------------|
F|----------------|----------------|----------------|------------------|
C|----------------|----------------|----------------|\\\\\\\\\\\\\\\\\\|
G|----------------|----------------|----------------|\\\\pick slide\\\\|
D|----------------|----------------|----------------|\\\\\\\\\\\\\\\\\\|

  Guitar II:
D|----------------|----------------|----------------|------------------|
A|----------------|----------------|----------------|------------------|
F|----------------|----------------|----------------|------------------|
C|----------------|----------------|----------------|------------------|
G|2h3p2h3---------|----6h7---------|1-----------1---|0--1--0--4--3--1--|
D|--------0-0-0-0-|0-0-----000-000-|--------000-----|0--1--0--4--3--1--|
PM        . . . .  . .     ... ...          ...      .  .  .  .  .  .


===============================================================================
-Verse Riff 1- (0:23 - 0:31)


  Guitars I + II:
D|----------------|----------------|----------------|------------------|
A|----------------|----------------|----------------|------------------|
F|----------------|----------------|----------------|------------------|
C|----------------|----------------|----------------|------------------|  x2
G|2h3p2h3---------|----6h7---------|1-----------1---|0--1--0--4--3--1--|
D|--------0-0-0-0-|0-0-----000-000-|--------000-----|0--1--0--4--3--1--|
PM        . . . .  . .     ... ...          ...      .  .  .  .  .  .


===============================================================================
-Fill- (0:32 - 0:35)


  Guitar I:
D|-----------------------------------------------|------------------------
A|-----------------------------------------------|------------------------
F|-----------------------------------------------|------------------------
C|-----------------------------------------------|------------------------
G|10-10-10-10-14-14-14-14-12-12-12-12-10-10-10-10|14-14-14-14-12-12-12-12-
D|-----------------------------------------------|------------------------
PM .  .  .  .  .  .  .  .  .  .  .  .  .  .  .  .  .  .  .  .  .  .  .  .

------------------------|
------------------------|
------------------------|
-13-13-13-13------------|
-------------12-12-12-12|
------------------------|
  .  .  .  .  .  .  .  .

  Guitar II:
D|-----------------------------------|-----------------------------------|
A|-----------------------------------|-----------------------------------|
F|-----------------------------------|-----------------------------------|
C|-----------------------------------|--------------------9-9-9-9--------|
G|7-7-7-7-10-10-10-10-9-9-9-9-7-7-7-7|10-10-10-10-9-9-9-9---------9-9-9-9|
D|-----------------------------------|-----------------------------------|
PM. . . .  .  .  .  . . . . . . . . .  .  .  .  . . . . . . . . . . . . .


===============================================================================
-Verse Riff 2- (0:35 - 0:44)


  Guitar I:
D|----------------|----------------|----------------|------------------|
A|----------------|----------------|----------------|------------------|
F|----------------|----------------|----------------|------------------|
C|----------------|----------------|----------------|------------------|
G|2h3p2h3---------|----6h7---------|1-----------1---|0--1--0--4--3--1--|
D|--------0-0-0-0-|0-0-----000-000-|--------000-----|0--1--0--4--3--1--|
PM        . . . .  . .     ... ...          ...      .  .  .  .  .  .

  D|----------------|----------------|----------------|--------------------|
  A|----------------|----------------|----------------|--------------------|
  F|----------------|----------------|----------------|--------------------|
  C|----------------|----------------|----------------|--------\\\\\\\\\\\\|
  G|2h3p2h3---------|----6h7---------|1-----------1---|0--1--0-\pick slide\|
  D|--------0-0-0-0-|0-0-----000-000-|--------000-----|0--1--0-\\\\\\\\\\\\|
  PM        . . . .  . .     ... ...          ...      .  .  .


  Guitar II:
D|----------------|-----------------|----------------|------------------|
A|----------------|-----------------|----------------|------------------|
F|----------------|-----------------|----------------|------------------|
C|----------------|-----------------|----------------|------------------|
G|6h7p6h7---------|----9h10---------|6-----------6---|0--1--0--4--3--1--|
D|--------0-0-0-0-|0-0------000-000-|--------000-----|0--1--0--4--3--1--|
PM        . . . .  . .     ... ...          ...      .  .  .  .  .  .

  D|----------------|-----------------|----------------|--------------------|
  A|----------------|-----------------|----------------|--------------------|
  F|----------------|-----------------|----------------|--------------------|
  C|----------------|-----------------|----------------|--------\\\\\\\\\\\\|
  G|6h7p6h7---------|----9h10---------|6-----------6---|0--1--0-\pick slide\|
  D|--------0-0-0-0-|0-0------000-000-|--------000-----|0--1--0-\\\\\\\\\\\\|
  PM        . . . .  . .     ... ...          ...      .  .  .


===============================================================================
-Verse Riff 3- (0:44 - 0:53)


  Guitars I + II:
D|----------------|----------------|----------------|------------------|
A|----------------|----------------|----------------|------------------|
F|----------------|----------------|----------------|------------------|
C|4/5\4/5---------|----------------|8-----------8---|------------------|  x2
G|4/5\4/5---------|----6/7---------|6-----------6---|0--1--0--4--3--1--|
D|--------0-0-0-0-|0-0-6/7-000-000-|6-------000-6---|0--1--0--4--3--1--|
PM        . . . .  . .     ... ...          ...      .  .  .  .  .  .


===============================================================================

-Intro Riff Again- (0:53 - 1:10)

===============================================================================
-Interlude- (1:11 - 1:29)

                                                                       __
  Guitar I:                                                              \
D|----------------|-----------------|-----------------|----------------| |
A|----------------|-----------------|-----------------|----------------| |
F|4---5---4-------|--------11-------|12---------------|4---5---4-------| |
C|----------------|-----------------|-----------------|----------------| |
G|2---3---2-------|---------9-------|10---------------|2---3---2-------| |
D|------------0---|0---0------------|-----0---0---0---|------------0---| |
PM            .    .   .                  .   .   .                .     |
                                                                         |
  Guitar II:                                                             |
D|----------------|----------------|----------------|----------------|   |
A|----------------|----------------|----------------|----------------|   |
F|4---5---4-------|--------8-------|9---------------|4---5---4-------|   |
C|----------------|----------------|----------------|----------------|   |
G|2---3---2-------|--------6-------|7---------------|2---3---2-------|   x2
D|------------0---|0---0-----------|----0---0---0---|------------0---|   |
PM            .    .   .                  .   .   .              .       |
                                                                         |
                                  then                                   |
                                                                         |
  Guitars I + II:                                                        |
D|----------------|----------------|----------------|----------------|   |
A|----------------|----------------|----------------|----------------|   |
F|3---5---3-------|----3-------3---|--------3-------|----3-----------|   |
C|x---x---x-------|----1-------1---|--------1-------|----1-----------|   |
G|1---3---1-------|----1-------1---|--------1-------|----1-----------|   |
D|------------0---|0-------0-------|0---0-------0---|0-------0---0---|   |
PM            .    .       .        .   .       .    .       .   .     __/
                                                                      

===============================================================================
-Interlude...Part 2?- (1:29 - 1:47)


  Guitars I + II:
D|----------------|----------------|----------------|----------------|
A|----------------|----------------|----------------|----------------|
F|----------------|----------------|----------------|----------------|
C|2---------------|----------------|2---------------|----------------|
G|2---------------|--------2-2-*---|2---------------|--------2-2-*---|
D|0---------------|--------0-0-*---|0---------------|--------0-0-*---|
PM                         . .                               . .

D|----------------|----------------|----------------|----------------|
A|----------------|----------------|----------------|----------------|
F|----------------|----------------|----------------|----------------|
C|8---------------|----------------|----------------|----------------|
G|6---------------|----------------|2-2-*-----------|----------------|
D|6---------------|----------------|0-0-*-----------|----0000/12\\\\\|
PM                                  . .                  ....

D|----------------|----------------|----------------|----------------|
A|----------------|----------------|----------------|----------------|
F|----------------|----------------|----------------|----------------|
C|2---------------|----------------|2---------------|----------------|
G|2---------------|--------2-2-*---|2---------------|--------2-2-*---|
D|0---------------|--------0-0-*---|0---------------|--------0-0-*---|
PM                         . .                               . .

D|----------------|----------------|----------------|----------------|
A|----------------|----------------|----------------|----------------|
F|----------------|----------------|----------------|----------------|
C|8---------------|----------------|--------3-------|6-------5-------|
G|6---------------|--------2-2-*---|--------3-------|6-------5-------|
D|6---------------|--------0-0-*---|--------1-------|4-------3-------|
PM                         . .

                                                   __
  Guitar III (Clean):                                \
D|12--------|12--------|12--------|12--------|       |
A|---8----8-|---8----8-|---8----8-|---8----8-|       |
F|-----11---|-----11---|-----11---|-----11---|       |
C|----------|----------|----------|----------|       |
G|----------|----------|----------|----------|       |
D|----------|----------|----------|----------|       |
                                                     x2
D|11--------|11--------|11--------|11--------|       |
A|---8----8-|---8----8-|---8----8-|---8----8-|       |
F|-----11---|-----11---|-----11---|-----11---|       |
C|----------|----------|----------|----------|       |
G|----------|----------|----------|----------|       |
D|----------|----------|----------|----------|       |
                                                   __/

===============================================================================
-Interlude Part 3?!- (1:47 - 2:06)


  Guitars I + II:
D|----------------|----------------|----------------|----------------|
A|----------------|----------------|----------------|----------------|
F|----------------|----------------|----------------|----------------|
C|--------2-------|----------------|--------8-------|----------------|  x4
G|2-2-*---2-------|----------------|2-2-*---6-------|----------------|
D|0-0-*---0-------|----------------|0-0-*---6-------|----------------|


  Guitar III (Clean):
D|12--------|12--------|11--------|11--------|
A|---8----8-|---8----8-|---8----8-|---8----8-|
F|-----11---|-----11---|-----11---|-----11---|
C|----------|----------|----------|----------|  x4
G|----------|----------|----------|----------|
D|----------|----------|----------|----------|


  Guitar IV:
D|------------------|-----------------|-----------------|----------------|
A|------------------|-----------------|-----------------|----------------|
F|9-------12---11---|----9-------16---|----\\\\11-------|----------------|
C|------------------|-----------------|-----------------|----------------| x4
G|7-------10----9---|----7-------14---|----\\\\\9-------|----------------|
D|------------------|-----------------|-----------------|----------------|


  Guitar V: (this comes in on the last two times only)
D|----------------|----------------|----------------|----------------|
A|----------------|----------------|----------------|----------------|
F|----------------|----------------|----------------|----------------|
C|5-------9---7---|----5-------4---|----\\\\1-------|----------------|  x2
G|----------------|----------------|----------------|----------------|
D|----------------|----------------|----------------|----------------|

                               then

  Guitars I + II:
D|----------------|
A|----------------|
F|----------------|
C|----------------|
G|2-2-*---2-2-*---|
D|0-0-*---0-0-*---|


===============================================================================
-Verse Riff 1 Again- (2:06 - 2:24)


  Guitars I + II:
D|----------------|----------------|----------------|------------------|
A|----------------|----------------|----------------|------------------|
F|----------------|----------------|----------------|------------------|
C|----------------|----------------|----------------|------------------|  x4
G|2h3p2h3---------|----6h7---------|1-----------1---|0--1--0--4--3--1--|
D|--------0-0-0-0-|0-0-----000-000-|--------000-----|0--1--0--4--3--1--|
PM        . . . .  . .     ... ...          ...      .  .  .  .  .  .


===============================================================================
-Quick Solo- (2:24 - 2:29)


  Guitars I + II:
D|----------------|------------------|----------------|----------------|
A|----------------|------------------|----------------|----------------|
F|----------------|------------------|4---------------|----------------|
C|3---------------|------------------|2---------------|----------------|
G|3---------------|1--2--1--5--4--2--|2---------------|2-2-*---2-2-*---|
D|1---------------|1--2--1--5--4--2--|----------------|0-0-*---0-0-*---|
PM                 .  .  .  .  .  .                    . .     . .


  Guitar III:
D|--------------8h13p8----8h13/17-|---------17/20-17-19-17-16----------|
A|-----------10--------10---------|18----18-------------------18-17-16-|
F|--------10----------------------|---17-------------------------------|
C|-----10-------------------------|------------------------------------|
G|8h12----------------------------|------------------------------------|
D|--------------------------------|------------------------------------|

D|19p14----14-11------------------|---------------11h14t19p14p11----|
A|------16-------12---------------|------------12----------------12-|
F|------------------11------------|---------11----------------------|
C|---------------------13-9-------|----9-13-------------------------|
G|--------------------------9-6---|6/9------------------------------|
D|------------------------------7-|---------------------------------|

D|------------------|
A|/17~--------------|
F|------------------|
C|------------------|
G|------------------|
D|------------------|


===============================================================================

-Oh Hey, Look, That Intro Riff Again- (2:29 - 2:47)

===============================================================================
-Outro...Build-up...?- (2:47 - 3:14)

                                                                      __
  Guitars I + II:                                                       \
D|----------------|----------------|----------------|----------------|  |
A|----------------|----------------|----------------|----------------|  |
F|----------------|------------4---|----------------|----------------|  |
C|2---------------|------------4---|----------------|----------------|  |
G|2---------------|--------2---2---|----------------|----------------|  |
D|0---------------|--------0-------|----------------|----------------|  |
PM                         .                                            |
                                                                        x3
D|----------------|----------------|----------------|----------------|  |
A|----------------|----------------|----------------|----------------|  |
F|2---------------|------------4---|----------------|----------------|  |
C|2---------------|------------2---|------------5\\\|4---------------|  |
G|0---------------|--------2---2---|--------2---3\\\|2---------------|  |
D|----------------|--------2-------|--------2---3\\\|2---------------|  |
PM                         .                .                         __/

                                                                          __
  Guitar III:                                                               \
D|------------------|-----------------|-----------------|------------------||
A|------------------|-----------------|-----------------|------------------||
F|9-------12---11---|----9-------16---|----\\\\11-------|--------11---12---||
C|------------------|-----------------|-----------------|------------------||
G|7-------10----9---|----7-------14---|----\\\\\9-------|---------9---10---||
D|------------------|-----------------|-----------------|------------------||
PM                                                                          |
                                                                           x3
D|-----------------|------------------|-----------------|----------------|  |
A|-----------------|------------------|-----------------|----------------|  |
F|14---------------|-----16------17---|16\\\9-------5---|4---------------|  |
C|-----------------|------------------|-----------------|----------------|  |
G|12---------------|-----14------15---|14\\\7-------3---|2---------------|  |
D|-----------------|------------------|-----------------|----------------|  |
PM                                                                        __/

                                                                      __
  Guitar IV: (this comes in on the last two times only)                 \
D|----------------|----------------|----------------|----------------|  |
A|----------------|----------------|----------------|----------------|  |
F|----------------|--------4-------|----------------|--------5-------|  |
C|--5-4-5---5-4-5-|--5-4-5---5-4-5-|--5-4-5---5-4-5-|--5-4-5---5-4-5-|  |
G|7-------7-------|7---------------|6-------6-------|6---------------|  |
D|----------------|----------------|----------------|----------------|  |
PM. . . . . . . .  . . . . . . . .  . . . . . . . .  . . . . . . . .    |
                                                                        |
D|----------------------|---------------------|--------------------     |
A|----------------------|---------------------|--------------------     |
F|----------------------|---------------------|--------------------     |
C|---10-9-10----10-9-10-|---10-9-10---10-9-10-|--10-9-10---10-9-10-     x2
G|12---------12---------|10---------9---------|8---------8---------     |
D|----------------------|---------------------|--------------------     |
PM .  . .  .  .  . .  .   .  . .  . .  . .  .  .  . .  . .  . .  .      |
                                                                        |
------------------|                                                     |
------------------|                                                     |
9---------8-------|                                                     |
--10-9-10---9-8-9-|                                                     |
------------------|                                                     |
------------------|                                                     |
.  . .  . . . . .                                                     __/   


===============================================================================
-Outro- (3:14 - end)

                                                                          __
  Guitars I + II (both clean):                                              \
D|--------7--------|*-----------7---|----------------|----------------|     |
A|8-----------10---|*---8---*-------|--------7-------|----------------|     |
F|-----------------|----------------|----------------|----------------|     |
C|----9------------|----------------|----9-----------|----------------|     |
G|-----------------|----------------|----------------|----------------|     |
D|-----------------|----------------|----------------|----------------|     |
                                                                           x2
D|---------8---7---|-----------------|------------------|------------------||
A|10---------------|----10-----------|------------------|------------------||
F|-----9-----------|---------9-------|10----------------|11-----------11---||
C|-----------------|-------------7---|-------10-\\\-7---|-----7-/-9--------||
G|-----------------|-----------------|------------------|------------------||
D|-----------------|-----------------|------------------|------------------||
                                                                          __/
                                    then                                  __
                                                                            \
D|--------7--------|*-----------7---|----------------|----------------|     |
A|8-----------10---|*---8---*-------|--------7-------|--------7---8---|     |
F|-----------------|----------------|----------------|----------------|     |
C|----9------------|----------------|----9-----------|----------------|     |
G|-----------------|----------------|----------------|----------------|     |
D|-----------------|----------------|----------------|----------------|     |
                                                                           x2
D|---------8---7---|-----------------|------------------|------------------||
A|10---------------|----10-----------|------------------|------------------||
F|-----9-----------|---------9-------|10----------------|11-----------11---||
C|-----------------|-------------7---|-------10-\\\-7---|-----7-/-9--------||
G|-----------------|-----------------|------------------|------------------||
D|-----------------|-----------------|------------------|------------------||
                                                                          __/
                               lastly, end on:

D|----------------|
A|8---------------|
F|----------------|
C|9---------------|
G|----------------|
D|----------------|

                                                                       __
  Guitar VI (clean):                                                     \
Db|----------------|----------------|----------------|----------------|  |
Ab|----------------|----------------|----------------|----------------|  |
 E|----------------|----------------|----------------|----------------|  |
 B|----------------|----------------|----------------|----------------|  |
Gb|----------------|----------------|----------------|----------------|  |
Db|1-----------3---|*---1---*---0---|----------------|----------------|  |
                                                                        x2
Db|----------------|----------------|----------------|----------------|  |
Ab|----------------|----------------|----------------|----------------|  |
 E|----------------|----------------|----------------|----------------|  |
 B|----------------|----------------|----------------|----------------|  |
Gb|----------------|----------------|----------------|----------------|  |
Db|6-----------4---|-------3--------|2---------------|0---------------|  |
                                                                       __/
                                   then                                __
                                                                         \
Db|----------------|----------------|----------------|----------------|  |
Ab|----------------|----------------|----------------|----------------|  |
 E|----------------|----------------|----------------|----------------|  |
 B|----------------|----------------|----------------|----------------|  |
Gb|----------------|------------3---|----------------|----------------|  |
Db|1-----------3---|*---1---*-------|----------------|----------------|  |
                                                                        x2
Db|----------------|----------------|----------------|----------------|  |
Ab|----------------|----------------|----------------|----------------|  |
 E|----------------|----------------|----------------|----------------|  |
 B|----------------|----------------|----------------|----------------|  |
Gb|----------------|----------------|----------------|----------------|  |
Db|6-----------4---|-------3--------|2---------------|0---------------|  |
                                                                       __/
                             lastly, end on:

Db|----------------|
Ab|----------------|
 E|----------------|
 B|----------------|
Gb|----------------|
Db|1---------------|


                                                                          __
  Guitar III: (this comes in on the last two times only)                    \
D|------------------|-----------------|-----------------|------------------||
A|------------------|-----------------|-----------------|------------------||
F|9-------12---11---|----9-------16---|----\\\\11-------|--------11---12---||
C|------------------|-----------------|-----------------|------------------||
G|7-------10----9---|----7-------14---|----\\\\\9-------|---------9---10---||
D|------------------|-----------------|-----------------|------------------||
PM                                                                          |
                                                                           x2
D|-----------------|------------------|-----------------|----------------|  |
A|-----------------|------------------|-----------------|----------------|  |
F|14---------------|-----16------17---|16\\\9-------5---|4---------------|  |
C|-----------------|------------------|-----------------|----------------|  |
G|12---------------|-----14------15---|14\\\7-------3---|2---------------|  |
D|-----------------|------------------|-----------------|----------------|  |
PM                                                                        __/

                               lastly, end on:

D|----------------|
A|----------------|
F|9---------------|
C|----------------|
G|7---------------|
D|----------------|

Six All That Remains


Order of Song:  READ DIRECTIONS WITH EACH PART OR YOU WON'T UNDERSTAND THE TAB!  LISTEN
THE SONG VERY CLOSE!
Intro           0:00 - 0:09     Riff 1                    1:17 - 1:37
Intro Riff 2    0:09 - 0:28     Clean Tone Interlude      1:37 - 2:08
Verse Riff      0:28 - 0:47     Pre-Solo                  2:08 - 2:28
Riff 1          0:47 - 0:58     Solo                      2:28 - 2:38
Verse Riff      0:58 - 1:07     Riff 1                    2:38 - 2:58
Riff 2          1:07 - 1:17     Outro                     2:58 - End

Intro
0:00 - 0:09
2 Times (Guitars 1 & 2)

Guitar 1
d|----------------------------------------|--------------------------------|
A|----------------------------------------|--------------------------------|
F|----------------------------------------|--------------------------------|
C|-10---------12---12------------------14-|-----16----16----17----17----17-|
G|-10-------10--10-12------------12-10----|---14----14----14----14----14---|
D|--8-88888--------10-1010101010----------|-12----12----12----12----12-----|
      .....  .         . . . . .  .  .      . .   . .   . .   . .   . .

Guitar 2
 |   <-Second time only for this part->   |
d|----------------------------------------|--------------------------------|
A|----------------------------------------|--------------------------------|
F|------------11-----------------------12-|-----14----14----16----16----16-|
C|-10-----------12-12---------------------|---12----12----12----12----12---|
G|-10-------10-----12------------12-10----|-10----10----10----10----10-----|
D|--8-88888--------10-1010101010----------|--------------------------------|
      .....  .         . . . . .  .  .       . .   . .   . .   . .   . .


Intro Riff 2             Outro
0:09 - 0:28              2:58 - End (Order Same for Intro and Outro)

-Order for Guitar 1:  1, 2, 1, 3, 1, 2, 1, 4
Guitar 1
                                   1
d|-----------------------------------------------------------------------|
A|-----------------------------------------------------------------------|
F|-----------------------------------------------------------------------|
C|----------121212------------------141414------------161616171717191919-|
G|----101010------101010121212101010------121212141414-------------------|
D|-888-------------------------------------------------------------------|
   ... . . . . . . . . . . . . . . . . . . . . . . . . . . . . . . . . .

                   2           3                    4
d|--------------|-----|----------------|---------------------------|
A|--------------|-----|----------------|---------------------------|
F|--------------|-----|----------------|---------------------------|
C|-171717161616-|-17\-|-14141412121212-|-17-16-14----14----------2-|
G|--------------|-----|----------------|----------17----17-15-14-2-|
D|--------------|-----|----------------|-------------------------0-|
    . . . . . .          . . . . . . .

Guitar 2
0:19 - 0:28
  -Guitar 2 plays with Guitar 1 part Parts 1, 2, 1, 3. Then comes in  with Guitar 2
at 0:19.
  -Order for Guitar 2:  1, 2, 1, 3
                                    1
d|-----------------------------------------------------------------------|
A|-----------------------------------------------------------------------|
F|----------------------------------------------------141414161616171717-|
C|----------121212------------------141414------141414-------------------|
G|----101010------101010121212101010------121212-------------------------|
D|-888-------------------------------------------------------------------|
   ... . . . . . . . . . . . . . . . . . . . . . . . . . . . . . . . . .

                   2             3
d|--------------|-----|---------------------------|
A|--------------|-----|---------------------------|
F|-161616141414-|-16\-|-16-14-12----12------------|
C|--------------|-----|----------16----16-14-12-2-|
G|--------------|-----|-------------------------2-|
D|--------------|-----|-------------------------0-|
    . . . . . .

Verse Riff
Guitars 1 and/or 2
0:28 - 0:47   0:58 - 1:07   1:07 - 1:17(With Guitar 1 on Riff 2)
Twice
d|----------------------------------|-----------------------------------|
A|----------------------------------|-----------------------------------|
F|----------------------------------|-----------------------------------|
C|----------------------------------|-----------------------------------|
G|---------------------------12--14-|---------------------------12---14-|
D|-0-0-000-0-0-000-0-0-000-0---0----|-0-0-000-0-0-000-0-0-000-0----0----|
   . . ... . . ... . . ... .    .      . . ... . . ... . . ... .    .
d|----------------------------------|----------------------------------|
A|----------------------------------|----------------------------------|
F|----------------------------------|----------------------------------|
C|----------------------------------|----------------------------------|
G|---------------------------9---10-|---------------------------9---10-|
D|-8-8-888-8-8-888-8-8-888-8---8----|-8-8-888-8-8-888-8-8-888-8---8----|
   . . ... . . ... . . ... .   .      . . ... . . ... . . ... .   .

Riff 1
0:47 - 0:58        1:17 - 1:37                2:38 - 2:58
4 times            3 times then Fill 1.       3 Times then Fill 1.
                   3 times then Fill 2.       3 Times then Fill 3.
   - It's either A or B.  Whatever sounds good to you.
Guitar 1 & 2
               A                                     B
d|---------------------------------|   |------------------------------|
A|---------------------------------|   |------------------------------|
F|---------------------------------|   |------------------------------|
C|---------------------------------|   |------------------------------|
G|-2p0-2-----2p0-2-----------------|   |-2p02-----2p0-----------------|
D|-------0-0-------0-0-0-0-000-0-0-|   |-0--0-0-0-0-0-0-0-0-0-000-0-0-|

Fill 1  1:25 - 1:27
d|---------------------------------|
A|---------------------------------|
F|---------------------------------|
C|---------------------------------|
G|-2p0-2-----------2-1-------0-----|
D|-0---0-0-0-0-2-3-----3-0-2---3-0-|

Fill 2 1:35 - 1:37       Fill 3 2:56 - 2:58 Guitar 1
d|--------------|       |----------------------------------------|
A|--------------|       |----------------------------------------|
F|--------------|       |----------------------------------------|
C|--------------|       |----------------------------------------|
G|-2-0-2--2-0-2-|       |-----14---15---12---14---10---12-10-9---|
D|-0-0-0--0-0-0-|       |-0-0----0----0----0----0----0--------12-|

                         Fill 3 2:56 - 2:58 Guitar 2
                        |------------------------------------|
                        |------------------------------------|
                        |------------------------------------|
                        |------------------------------------|
                        |-----10---12---9---10---7---9-7-5---|
                        |-0-0----0----0---0----0---0-------8-|
Riff 2
1:07 - 1:17
  -Guitar 2 plays Verse Riff with Guitar 1.
Guitar 1
d|-------------------------------|-----------------------------|
A|-------------------------------|-----------------------------|
F|-------------------------------|-----------------------------|
C|-------------------------------|-----------------------------|
G|----14-15-12-14-10-12-12-12-14-|----14-15-12-14-10-12-10-9-7-|
D|-0-0--0--0--0--0--0------------|-0-0--0--0--0--0-------------|

d|------------------------|--------------------------|
A|------------------------|--------------------------|
F|------------------------|--------------------------|
C|----9-10-7-9----7-7-7-9-|-----9-10-7-9----7--------|
G|-------------10---------|--------------10---10-9-7-|
D|-8-8-8--8-8-8-----------|--8-8-8--8-8-8------------|

Clean Tone Interlude

Guitar 1
1:37 - 2:08
6 times
d|--------0------------0--------------0-------------0-------|
A|----------------------------------------------------------|
F|----------------------------------------------------------|
C|----10---10------12---12--12----14---14-------14---14-----|
G|--10--10---10--12--12---12----14--14---14---14--14---14---|
D|-8-----------10-------------12-----------12------------12-|

Guitar 2
1:48 - 2:08
Twice (Starts on Third time of Guitar 1)
d|--------------------------------------------------------|
A|--------------------------------------------------------|
F|-16-16-16-16-14-12-11-11h12----14--14---12--12--11--9-7-|
C|----------------------------12---12--\10--10--\9--\7----|
G|--------------------------------------------------------|
D|--------------------------------------------------------|

d|-------------------------------------------------------------|
A|-------------------15-------------15-------------------------|
F|-16-16-16-16-14-16----16-11h12-11----12-11-11h12p11----------|
C|----------------------------------------------------14-12-12-|
G|-------------------------------------------------------------|
D|-------------------------------------------------------------|

Pre-Solo Riff
Guitar 1         Play behind Solo
4 Times          2 Times
2:08 - 2:28      2:28 - 2:37 (Cuts out to play harmony part at end of solo)
d|-----------------------------------|
A|-----------------------------------|
F|-5--7--9\7/9-----9\7/9---------9\7-|
C|-x--x--x-x-x-----x-x-x---------x-x-|
G|-3--5--7\5/7-----7\5/7---------7\5-|
D|-------------0-0-------0-0-0-0-----|

Guitar 2
Twice
2:08 - 2:28
d|--------------------------------------------------------------|
A|--------------------------------------------------------------|
F|-16-16-16-16-14-12-11-11/12\11-12-----12\11/12----------12\11-|
C|--x--x--x--x--x--x--x--x--x--x--x------x--x--x-----------x--x-|
G|-14-14-14-14-12-10--9--9/10\-9-10-----10\-9/10----------10\-9-|
D|----------------------------------0-0-----------0-0-0-0-------|

d|---------------------------------------------------|
A|------------------------------------10-------------|
F|-9--9--11--11--12\----9---11---12--------12---11-9-|
C|-x--x---x---x---x---9---9----9----9----9----9------|
G|-7--7---9---9--10\---------------------------------|
D|---------------------------------------------------|

Solo
2:28 - 2:38
d|-------------------------------------19p15-------------------------|
A|--------------------------15---------------17----17----------------|
F|-14^-14^+14p12-14^---11-12---12p11-12---------16----16-------------|
C|-------------------9-----------------------------------17----------|
G|----------------------------------------------------------19-15-14-|
D|-------------------------------------------------------------------|

d|-------------------------------------------------------------------|
A|-------------------------------------------------------------------|
F|-------------------------------------------------------------------|
C|---------------------------------------------------9-10-12---------|
G|-15-17-15-14------------------------7-9-10-9-10-12---------9-10-12-|
D|-------------17-15-14-12-8--8-10-12--------------------------------|
                                        Guitars 1 & 2 (top or bottom)
d|------------------------------------|-------------------------------|
A|-----------------10-12-10-----------|-------------------------------|
F|---------9-11-12----------12-11-10~-|-14-16-12-14h16-16^+-16-14-14+-|
C|-9-10-12----------------------------|-16-17-14-16h17-17^+-17-16-16+-|
G|------------------------------------|-------------------------------|
D|------------------------------------|-------------------------------|




-------------------------------------------------------------------------------
		Become The Catalyst - All That Remains
-------------------------------------------------------------------------------
Tabbed by:Greg Misiak
Email:metalfan4@gmail.com

   Gtr. 1:(D G C F A d)
   Gtr. 2:(D G C F A d)


  Every time something is harmonized in this song, both guitars will play the riff once 
then harmonize on the second time around.
 If you rate this, please leave a comment elaborating. Thank you.

        Intro Riff
d|-----------------------------------------------------------------------|
A|-----------------------------------------------------------------------|
F|-----------------------------------------------------------------------|Gtr.1
C|-----------------------------------------------------------------------|
G|-7h10p7h10---------7h10p7h10-6h9p6h9--------6h9p6h9-7h10p7h10----------|
D|-----------000-000-------------------000-000-----------------000-000---|
 |           ... ...                   ... ...                 ... ...   |
 |                                                                       |
 |                                                                       |
d|-----------------------------------------------------------------------|
A|-----------------------------------------------------------------------|
F|-----------------------------------------------------------------------|Gtr.2
C|-5h8p5h8----------5h8p5h8----4h7p4h7--------4h7p4h7-5h8p5h8------------|
G|-----------------------------------------------------------------------|
D|-----------000-000------------------000-000------------------000-000---|
             ... ...                  ... ...                  ... ...


               /  First   \        |    / Second     Ending \
              /  Ending    \       |   /                     \
d|---------------------------------|-------------------------------------|
A|---------------------------------|-------------------------------------|
F|---------------------------------|-------------------------------------|Gtr.1
C|---------------------------------|-------9-7---------------------------|
G|-7h10p7h10-6h9p6h9-7h10-6h7p6----|--7-6------10-9----------------------|
D|------------------------------8-7|---8-7-------------------------------|
 |                                    ....                               |
 |                                                                       |
 |                                                                       |
d|---------------------------------|-------------------------------------|
A|---------------------------------|-------------------------------------|
F|---------------------------------|--------5-7--------------------------|Gtr.2
C|-5h8p5h8-4h7p4h7--5h8-4h5p4------|-5-4--------8-7----------------------|
G|----------------------------6-5--|--6-5--------------------------------|
D|---------------------------------|-------------------------------------|
                                     ....

 Verse Riff
d|-----------------------------------------------------------------------|
A|-----------------------------------------------------------------------|
F|-----------------------------------------------------------------------|Gtr.1
C|-------------------------------------9-7-------------------------------|
G|-7---7---6---6h7p6-----10---10---9-------10-9--7---7---6---6h7p6-------|
D|---0---0---0-------8-7----0----0---0-------------0---0---0-------8-7---|
 |   .   .   .              .    .   .             .   .   .             |
 |                                                                       |
 |                                                                       |
d|-----------------------------------------------------------------------|
A|-----------------------------------------------------------------------|
F|-----------------------------------------------------------------------|Gtr.2
C|---------------------------------------12-10---------------------------|
G|-10---10--9-9h10p9-------13---13--12---------13-12-10--10--9-9h10p9----|
D|----0----0-0-------11-10----0---0----0----------------0---0-0----------|
      .    . .                .   .    .                .   . .

d|-----------------------------------------------------------------------|
A|----------------------O------------------------------------------------|
F|-----------------------------------------------------------------------|
C|-----------------------------------------------------------------------|
G|-10-10---9---10-9-7---O------------------------------------------------|
D|---0---0---0-----------------------------------------------------------|
 |   .   .   .                                                            |
 |                                                                       |
d|-----------------------------------------------------------------------|
A|---------------------------O-------------------------------------------|
F|-----------------------------------------------------------------------|
C|-----------------------------------------------------------------------|
G|-------13-13-12-13-12-10---O-------------------------------------------|
D|-11-10---0--0--0-------------------------------------------------------|
           .  .  .

 Riff 2
d|-----------------------------------------------------------------------|
A|-----------------------------------------------------------------------|
F|-----------------------------------------------------------------------|Gtr.1
C|-9----7-7---------7----------------9----7-7----------7-------7--7-9----|
G|-7--------10-9-10---10--10-10--10--7---------10-9-10---10-10-5--5-7----|
D|--------------------8---8--7---7-----------------------8--8------------|
 |                                                                       |
 |                                                                       |
d|-----------------------------------------------------------------------|
A|-----------------------------------------------------------------------|
F|-----------------------------------------------------------------------|Gtr.2
C|------10-10-----------10------------------10-10------------------------|
G|-10---------13--12h13------------------10--------13-12h13-------8-8-10-|
D|-------------------------11--11-10--10---------------------11-11-------|

  Riff 3 Both Gtrs
d|-----------------------------------------------------------------------|
A|-----------------------------------------------------------------------|
F|-----------------------------------------------------------------------|
C|-9---------------9-7------12-------------------------------------------|
G|-7-7-7-7-7-7-7-7-----10-9-10-10-10-10-10-10-12--------------10-10----12|
D|--------------------------------------------10-10-10-10-10--------14---|
     . . . . . . .             .   .  .  .  .     .  .  .  .

d|-----------------------------------------------------------------------|
A|-----------------------------------------------------------------------|
F|-----------------------------------------------------------------------|
C|-----------------------------------------------------------------------|
G|10----10-10----14--12-10-----------------------------------------------|
D|---14-------14------------14-------------------------------------------|

Both Guitars have an palm mute D5 breakdown here.
G|-2--|
D|-0--|
   .
Chords during solo:
d|-----------------------------------------------------------------------|
A|-----------------------------------------------------------------------|
F|-----------------------------------------------------------------------|
C|-9---------------------------------------------------------------------|
G|-7-7-7-7-7-7-7---10------------9---------------------------------------|
D|-----------------8-8-8-8-8-8-8-7-7-7-7-7-7-7---------------------------|
     . . . . . .     . . . . . .   . . . . . .

 After the solo Gtr. 1 plays Riff 3 while Gtr. 2 can be heard in the background.
d|-----------------------------------------------------------------------|
A|-----------------------------------------------------------------------|
F|-9-9-9-9-9-9-9-9-7-7-7-7-7-7-7-7-7-7-7-7-7-7-7-9-9-9-9-9-9-9-9-9-9-----|
C|-----------------------------------------------------------------------|
G|-7-7-7-7-7-7-7-7-5-5-5-5-5-5-5-5-5-5-5-5-5-5-5-7-7-7-7-7-7-7-7-7-7-----|
D|-----------------------------------------------------------------------|

The Air That I Breathe All That Remains

READ ALL PARTS OF THE TAB OR IT WON'T MAKE SENSE!  LISTEN TO THE SONG!  SOME PARTS ARE 
TO HEAR.  READ ALL DIRECTIONS!

-ALSO, Realize that there is more than one way to play just about ANYTHING on guitar!  
you'd want play this song in Drop D rather D Standard I'm sorry, this is how I tabbed it. 
Otherwise, ENJOY!


Order of Song Parts:
Intro/Pre-chorus    0:00 - 0:12     Chorus                  1:36 - 1:59
Riff 1              0:12 - 0:36     Pre-Solo Interlude
 -Intro Solo        0:24 - 0:36          -Part A            1:59 - 2:13..
Verse Riff          0:36 - 0:48          -Part B            2:13 - 2:27..
Intro/Pre-Chorus    0:48 - 0:54     Solo                    2:27 - 2:53..
Chorus              0:54 - 1:06     Riff 1                  2:53 - 3:05
Verse Riff          1:06 - 1:30     End Riff                3:05 - 3:35
Intro Pre-Chorus    1:30 - 1:36
 - With Guitar 2 Harmony

                       -Intro/Pre-Chorus-
0:00 - 0:12     0:48 - 0:54     1:30 - 1:36
Intro           Pre-Chorus      Pre-Chorus-/W Guitar 2 Pre-Chorus Harmony

 -Order of Intro:  A (twice), B, C, A (twice), B, D
 -Order of Pre-Chorus:  A (twice), B, D

Guitar 1                                                   Guitar 2
A   d|-------------------------------------------------|  |------------|
x 2 A|-------------------------------------------------|  |------------|
    F|-------------------------------------------------|  |------------|
    C|-14-11-11-11-11-11-14-11-11-11-11-11-14-11-11-11-|  |-11--or--13-|
    G|-------------------------------------------------|  |-11------11-|
    D|-------------------------------------------------|  |-9-------9--|
        .  .  .  .  .  .  .  .  .  .  .  .  .  .  .  .
B   d|-------------------------------------------------|  |----------|
    A|-------------------------------------------------|  |----------|
    F|-------------------------------------------------|  |----------|
    C|-------------------------------------------------|  |-7--or--9-|
    G|-14-11-11-11-11-11-14-11-11-11-11-11-14-11-11-11-|  |-7------7-|
    D|-------------------------------------------------|  |-5------5-|
        .  .  .  .  .  .  .  .  .  .  .  .  .  .  .  .
C   d|-------------------------------------------------|  |----------|
    A|-------------------------------------------------|  |----------|
    F|-------------------------------------------------|  |----------|
    C|-------------------------------------------------|  |-4--or--6-|
    G|-16-12-12-12-12-12-16-12-12-12-12-12-16-12-12-12-|  |-4------4-|
    D|-------------------------------------------------|  |-2------2-|
        .  .  .  .  .  .  .  .  .  .  .  .  .  .  .  .
D   d|----------------------------------------|           |-----------|
    A|----------------------------------------|           |-----------|
    F|----------------------------------------|           |-----------|
    C|----------------------------------------|           |-9--or--11-|
    G|-16-14-14-14-14-14-16-14-14-14-14-14-16-|           |-9------9--|
    D|----------------------------------------|           |-7------7--|
        .  .  .  .  .  .  .  .  .  .  .  .


                      -Pre-Chorus Harmony-
1:30 - 1:36
Guitar 2
A   d|------------------------------------|
    A|------------------------------------|
    F|-13-9-9-9-9-9-13-9-9-9-9-9-13-9-9-9-|
    C|------------------------------------|
    G|------------------------------------|
    D|------------------------------------|
        . . . . . .  . . . . . .  . . . .
B   d|------------------------------------|
    A|------------------------------------|
    F|------------------------------------|
    C|-13-9-9-9-9-9-13-9-9-9-9-9-13-9-9-9-|
    G|------------------------------------|
    D|------------------------------------|
        . . . . . .  . . . . . .  . . . .
D   d|----------------------------------------|
    A|----------------------------------------|
    F|----------------------------------------|
    C|-16-13-13-13-13-13-16-13-13-13-13-13-16-|
    G|----------------------------------------|
    D|----------------------------------------|
        .  .  .  .  .  .  .  .  .  .  .  .


                         -Riff 1-
0:12 - 0:36     2:53 - 3:05
2 Times         Once
  -Order:  A, B, A, C, A, D
Guitar 1
          A                  B              C
d|-------------------|-------------|---------------|
A|-------------------|-------------|---------------|
F|-------------------|-------------|---------------|
C|------11----11-9-9-|-------------|---------------|
G|------11----11-9-7-|-------------|-----6-7-9-6-7-|
D|-9999-9--99-9--7-5-|-00000-00000-|-5-7-----------|
   ....    ..          ..... .....   . . . . . . .
             D
d|-------------------------------------| 
A|-------------------------------------| Little lick at the end 
F|-------------------------------66-44-| of Part D is hard to hear.
C|-----6p4--6p4--6p4-------66-77-------| Not 100% sure on it.  Sounds
G|-------------------77-99-------------| Close.  Let me know.
D|-4444---44---44----------------------| 
   ....   ..   ..    .. .. .. .. .. ..


                            -Intro Solo-
0:24 - 0:36
Guitar 2
d|------------------------------19-21-16h19p16-14h16p14-12h14-14/16-|
A|-14~---14/16-17~-19-16~-16p17-------------------------------------|
F|----/13-----------------------------------------------------------|
C|------------------------------------------------------------------|
G|------------------------------------------------------------------|
D|------------------------------------------------------------------|

d|-/19-17-16-22b(24)--|(Guitar 1)  or visa versa
A|-/21-19-17-19~------|(Guitar 2)
F|--------------------|
C|--------------------|
G|--------------------|
D|--------------------|


                             -Verse Riff-
0:36 - 0:48    1:06 - 1:30
2 Times        4 times- 3rd & 4th Time
                        Guitars Harmonize
  -Guitar 2 plays Guitar 1 Part at 0:36 - 0:48.  Harmony only comes in at 1:17 - 1:30.
Guitar 1
d|-------------------------------------------------------|
A|-------------------------------------------------------|
F|-------------------------------------------------------|
C|-6---6---4/6---4/6-----2-1-----4-----------------------|
G|-4---4---2/4---2/4---------4-2-2---4---7---6-------2-4-|
D|---0---0-----0-----000-----------0-2-0-5-0-4-0-2-4-----|
     .   .     .     ...           .   .   .   . . . . .
Guitar 2 - Harmony
1:17 - 1:30
d|-------------------------------------------------------|
A|-------------------------------------------------------|
F|-------------------------------------------------------|
C|-6---6---4/6---4/6-----6-4-----4-----------------------|
G|-4---4---2/4---2/4---------7-6-----4---7---6-------2-4-|
D|---0---0-----0-----000-----------0-2-0-5-0-4-0-2-4-----|
     .   .     .     ...           .   .   .   . . . . .


                            -Chorus-
0:54 - 1:06     1:36 - 1:59
2 times

Guitars 1 & 2
d|-------------------------------------|
A|-------------------------------------|
F|-------------------------------------|
C|-13--9-11---6---4---6--4---6---4---6-|
G|-11--9-9----7---6---4--6---4---6---7-|
D|-9---7-7--0---0---0------0---0---0---|
            .   .   .      .   .   .


                       -Pre-Solo Interlude-
1:59 - 2:27
Guitar 1    (Chords for Guitar 2 Pre-Solo and Solo Below Parts A and B)
  A 1:59 - 2:13
d|-----------------------------------------------------|
A|-------------------------------------7-5---------5-4-|
F|-----------------------------------------------------|
C|------11-13-11--------9-11-9-------7-----7-----6-----|
G|---11----------11---9--------9---7-----------6-------|
D|-9----------------7------------5-----------4---------|
   .  .             . .          . .         . .

  B 2:13 - 2:27
Guitar 1
d|-----------------------------------------|
A|-----------------------------------------|
F|-----------6-------8-------9-------------|
C|---------6-------6-------6---------------|
G|-7-7---7-------7-------7-----9-7-6-7-6---|
D|-9-9-9-------9-------9-----------------9-|

Guitar 2
d|-----------------------------------------|
A|-------------------7-------9-------------|
F|-----------9-----------------------------|
C|-----------------------------7-6---7-----|
G|-7-7-7-9-11--7-9-11--7-9-11------9---9-7-|
D|-9-9-------------------------------------|

               -Chords Under Pre-Solo Part A and Solo-
1:59 - 2:13            2:27 -  2:53
Under Pre-Solo         Under Solo
d|-----------------------|
A|-----------------------|
F|-----------------------|
C|-13----11----6----6----|
G|-11----9-----4----6----|
D|-9-----7-----2----4----|


                                -Solo-
2:27 - 2:53
d|-19b+-19b~(20)-16-20-16-17-16----16-16----------------------------------|
A|------------------------------20-------17-19-17-16-17-16------19b(21)19-|
F|---------------------------------------------------------18-16----------|
C|------------------------------------------------------------------------|
G|------------------------------------------------------------------------|
D|------------------------------------------------------------------------|

d|-----------------------------------------------------------------------|
A|-17-19-17-16----16b(17)16-14-16-14-------/16-17-17-/16-17-16-17-/16-17-|
F|-------------18--------------------16-13-------------------------------|
C|-----------------------------------------------------------------------|
G|-----------------------------------------------------------------------|
D|-----------------------------------------------------------------------|

d|-------------------------------------------------------------------------|
A|-16-17-/16-17-16-17-/16-17-16-17-14b(16)-14b(16)14-------14----14-----12-|
F|---------------------------------------------------13/11----11----11\9---|
C|-------------------------------------------------------------------------|
G|-------------------------------------------------------------------------|
D|-------------------------------------------------------------------------|

d|-----------------------------------------------------------------------|
A|--------------------------------------12-------------------------------|
F|-9/8------------------------9-11b(13)----11b(13)11p9h11----------11-13-|
C|-----------------------9-11-----------------------------11-13-14-------|
G|----------9----9-11-11-------------------------------------------------|
D|-----9-12---12---------------------------------------------------------|

d|-----------------------------------------------------------------------|
A|-----------------------------------------------------------------------|
F|-13b(14)-11-/13--------------------------------------------------------|
C|----------------14-/16-13-6h7h9h16p9p7p6-----------------------------6-|
G|-----------------------------------------h9p7p6h7h9h14p9p7p6---6-7-9---|
D|-------------------------------------------------------------9---------|

d|-------------------------------------------------------------------------|
A|-------------------------------------------------------------------------|
F|------------------------------------------------------------------h18p11-|
C|-6-7-------------------------------------------h18p11p9-h21p11p13--------|
G|-----9-h6h7h14p7p6-h16p9p7-h19p11p9-h21p12p11----------------------------|
D|-------------------------------------------------------------------------|

d|------------------------------------------------------------------------|
A|-----------------For some stupid reason I can't figure out the last-----|
F|-p9-h21\20~------couples seconds of the solo.  Anyone figures it out----|
C|-----------------let me know.-------------------------------------------|
G|------------------------------------------------------------------------|
D|------------------------------------------------------------------------|


                            -End Riff-
3:05 - 3:35
4 Times
d|----------------------------------------------------|
A|----------------------------------------------------|
F|----------------------------------------------------|
C|-6---6---4/6---4/6---------6--6---4/6---4/6---------|
G|-4---4---2/4---2/4---------4--4---2/4---2/4---------|
D|---0---0-----0-----000-000---0--0-----0-----0000245-|
     .   .     .     ......                   .......



EMPTY INSIDE
                         As recorded by All That Remains



     E5                   G5                   D5                   C5
 0 2 2 x x x          3 5 5 x x x          x 5 7 7 x x          x 3 5 5 x x

     A5                   B5
 x 0 2 2 x x          x 2 4 4 x x

** ALL GUITARS TUNED DOWN A WHOLE-STEP LOW - HIGH = D G C F A D
** MAIN RIFFS ALL COVERED HERE

   Intro
    Q=205
   4/4
    Gtrs I, II
      PM--|   PM         PM--|   PM
    E E E E E E E E    E E E E E E  E E
||------------------|-------------------|
||o-----------------|-------------------|
||------------------|-------------------|
||------------------|-------------------|
||o-7-------7---7-9-|-10-----------10-9-|
||----0-0-0---0-----|----0-0-0-8-0------|


     PM--|    PM         PM  PM
   E E E E  E E E  E   E E E E E  E E  E
|--------------------|---------------------||
|--------------------|--------------------o||
|--------------------|---------------------||
|---------------7----|---------------------||
|-----------------10-|-9---9---9-10-7-----o||
|-10-0-0-0-10-0------|---0---0--------10---||


    Gtr I
       PM--|    PM          PM--|   PM
     E E E E  E E  E E    E E E E E E  E E
||---------------------|-------------------|
||o--------------------|-------------------|
||---------------------|-------------------|
||---------------------|-------------------|
||o--7--------7----7-9-|-10-----------10-9-|
||-----0-0-0----0------|----0-0-0-8-0------|
|
|   Gtr II
|      PM--|    PM          PM--|   PM
|    E E E E  E E  E E    E E E E E E  E E
||---------------------|-------------------|
||o--------------------|-------------------|
||---------------------|-------------------|
||-------------------7-|--9------------9-7-|
||o-10-------10---10---|----------7--------|
||-----0-0-0----0------|----0-0-0---0------|


     PM--|    PM          PM  PM
   E E E E  E E  E  E   E E E E E  E  E  E
|---------------------|----------------------||
|---------------------|---------------------o||
|---------------------|----------------------||
|----------------7----|----------------------||
|------------------10-|-9---9---9-10--7-----o||
|-10-0-0-0-10-0-------|---0---0---------10---||
|
|    PM--|    PM          PM  PM
|  E E E E  E E  E  E   E E E E E  E  E  E
|---------------------|----------------------||
|---------------------|---------------------o||
|---------------------|----------------------||
|---------------10--9-|-7---7---7--9---------||
|--9--------9---------|--------------10--9--o||
|----0-0-0----0-------|---0---0--------------||


   Verse
       PM|   PM  PM----|   PM  PM         PM|   PM  PM----|   PM  PM
    Q  E E E E E E   E E E E E E E E   Q  E E E E E E   E E E E E E E E
||-----------------|-----------------|----------------|------------------|
||o----------------|-----------------|----------------|------------------|
||-----------------|-----------------|----------------|------------------|
||---------2---2---|-----5---4-------|--------5---5---|-----7---5---4----|
||o-2--------------|-------------2h5-|-5--------------|------------------|
||--0--0-0---0---0-|-0-0---0---0-----|-3--3-3---3---3-|-3-3---3---3---3--|


     PM|   PM  PM----|   PM  PM         PM|         PM|    PM----|
  Q  E E E E E E   E E E E E E E E   Q  E E Q  Q    E E Q  E E E E
|----------------|-----------------|--------------|-----------------||
|----------------|-----------------|--------------|----------------o||
|----------------|-----------------|--------------|-----------------||
|--------2---2---|-----5---4-------|--------------|-----------------||
|-2--------------|-------------2h5-|-5--5-5----5--|-5-5----5-4-2-4-o||
|-0--0-0---0---0-|-0-0---0---0-----|-3--3-3----3--|-3-3----3-2-0-2--||


 Chorus
  E5           G5              D5         C5   D5
  Gtr III
  W             W              W          H    H
  |             |              |          |    |
  /             /              /          /    /

  Gtr I
  TP      TP    TP    TP  TP   TP         TP   TP
  H.      Q     H     Q   Q    W          H    H
|------------|---------------|----------|-----------|
|------------|---------------|----------|-----------|
|------------|---------------|----------|-----------|
|------------|---------------|----------|-----------|
|-7-------9--|-10----12--10--|-9--------|-3----5----|
|------------|---------------|----------|-----------|
|
| Gtr II
| TP      TP    TP    TP  TP   TP         TP   TP
| H.      Q     H     Q   Q    W          H    H
|------------|---------------|----------|-----------|
|------------|---------------|----------|-----------|
|------------|---------------|----------|-----------|
|-5-------7--|--9----10---9--|-7--------|-2----4----|
|------------|---------------|----------|-----------|
|------------|---------------|----------|-----------|


  E5           G5              A5         C5   B5
  W             W              W          H    H
  |             |              |          |    |
  /             /              /          /    /

  TP      TP    TP    TP  TP   TP         TP   TP
  H.      Q     H     Q   Q    W          H    H
|------------|---------------|----------|-----------||
|------------|---------------|----------|-----------||
|------------|---------------|----------|-----------||
|------------|---------------|----------|-----------||
|-7-------9--|-10----12--10--|-9--------|-3----5----||
|------------|---------------|----------|-----------||
|
| TP      TP    TP    TP  TP   TP         TP   TP
| H.      Q     H     Q   Q    W          H    H
|------------|---------------|----------|-----------||
|------------|---------------|----------|-----------||
|------------|---------------|----------|-----------||
|-5-------7--|--9----10---9--|-7--------|-2----4----||
|------------|---------------|----------|-----------||
|------------|---------------|----------|-----------||


   Bridge
    E5                 G5
    W                   W
    |                   |
    /                   /

    E E E E E E  E E    E E  E  E  E  E  E E
||-------------------|-----------------------|
||o------------------|-----------------------|
||--9-----9-----11---|-12------14-------12---|
||----5-----5------7-|----9-------10-------9-|
||o-----7-----7------|------10-------12------|
||-------------------|-----------------------|
|
|   E E E E E E  E E    E E  E  E  E  E  E E
||-------------------|-----------------------|
||o------------------|-----------------------|
||--4-----4------7---|--9-------5--------4---|
||----2-----2------4-|----5--------2-------2-|
||o-----2-----2------|-------7--------3------|
||-------------------|-----------------------|


  D5
   W                 +W
   |                  |
   /                  /

   E E E E E E E E    E E E E E E  E E
|------------------|--------------------|
|------------------|--------------------|
|-11-----9-----7---|--7-----9-----11----|
|----7-----7-----7-|----7-----7------7--|
|------9-----9-----|------9-----9-------|
|------------------|--------------------|
|
|  E E E E E E E E    E E E E E E  E E
|------------------|--------------------|
|------------------|--------------------|
|--2-----4-----2---|--2-----0------2----|
|----0-----0-----0-|----0-----0------0--|
|------0-----0-----|------0-----0-------|
|------------------|--------------------|


  E5                 G5                    A5
  W                   W                     W
  |                   |                     |
  /                   /                     /

  E E E E E E  E E    E E  E  E E E  E E    E  E  E  E  E  E  E  E
|------------------|---------------------|-------------------------|
|------------------|---------------------|-------------------------|
|-9-----9-----11---|-12------11-----12---|-14-------14-------16----|
|---5-----5------7-|----9-------7------9-|----10-------10-------12-|
|-----7-----7------|------10------9------|-------12-------12-------|
|------------------|---------------------|-------------------------|
|
| E E E E E E  E E    E E  E  E E E  E E    E  E  E  E  E  E  E  E
|------------------|---------------------|-------------------------|
|------------------|---------------------|-------------------------|
|-4-----4------7---|--9-------2------4---|--5--------5--------7----|
|---2-----2------4-|----5-------0------0-|-----2--------2--------4-|
|-----2-----2------|-------7------0------|--------3--------3-------|
|------------------|---------------------|-------------------------|


 1.                           2.
  +W                          +W
   |                           |
   /                           /

   E  E  E  E  E  E  E  E      E  E  E  E  E  E  E  E
|--------------------------||-------------------------||
|-------------------------o||-------------------------||
|-17-------16-------16-----||-17-------16-------16----||
|----14-------14-------14--||----14-------14-------14-||
|-------15-------15-------o||-------15-------15-------||
|--------------------------||-------------------------||
|
|  E  E  E  E  E  E  E  E      E  E  E  E  E  E  E  E
|--------------------------||-------------------------||
|-------------------------o||-------------------------||
|--9--------7--------7-----||--9--------7--------7----||
|-----5--------5--------5--||-----5--------5--------5-||
|--------7--------7-------o||--------7--------7-------||
|--------------------------||-------------------------||

Indictment
By: All That Remains
tuning: D; full step down
tabbed by: kevin brown, 6/1/09
Email: kevin080@live.com

so this is completey my interpretation on how to play this song. all learned by ear and 
not based on any other tabs. the parts should all be in order, look at it carefully, 
i hated looking at tabs that were jumbled.


intro
repeat 3x
shown in order

|-------------------------------------|
|-------------------------------------|
|-------------------------------------|
|-------------------------------------|
|----------7-8-7------10-8-7--7-8-----|
|--00000000-----000000------00--------|
   ........     ......      ..

|-------------------------------------|
|-------------------------------------|
|-------------------------------------|
|-------------------------------------|
|----------7-8-7------5-7----3-5------|
|--00000000-----000000---0000---------|
   ........     ......   ....

|-------------------------------------|
|-------------------------------------|
|-------------------------------------|
|-------------------------------------|
|----------7-8-7------10-8-7--7-8-----|
|--00000000-----000000------00--------|
   ........     ......      ..

|-------------------------------------|
|-------------------------------------|
|-------------------------------------|
|--------------------------7\5--------|
|------7\5-5555-5\3--5/7---5\3---4/5--|
|--0000--------------3/5-0-----0-2/3--|
   ....    ....          .     .

-00:28
bridge to chorus
repeat 4x

|-------------------------------------------------|
|-------------------------------------------------|
|----------------------9\8-------11-------9\8--9--|
|-------------------------------------------------|
|--2-------------------7\6-------9--------7\6--7--|
|--0-0-0-3-2-1-0-000-0-----0-000----000-0---------|
     . . . . . . ... .     . ...    ... .
---------------------
                                 ^ ^ ^ ^ ^ ^ ^ ^ ^ ^
To be very specific, on this part above, you might try it different because it sounds 
different
I would perfer it this way: basicly adding a string to the chord

   original                  alternate 1             alternate 2
|-----------------|      >-----------------|        >-----------------|
|-----------------|      >-----------------|        >-----------------|
|11-------9\8--9--|      >11-------9\8--9--|        >11-------9\8--9--|
|-----------------|      >-----------------|        >---------9\8--9--|
|9--------7\6--7--|      >9--------7\6--7--|        >9--------7\6--7--|
|---000-0---------|      >---000-0-7\6--7--|        >---000-0-7\6--7--|
    ... .                    ... .                      ... .
---------------------



-00:47
chorus
repeat 4x

|------------------------------------------------------------|
|------------------------------------------------------------|
|------------------------------------------------------------|
|------------------------------------------------------------|
|--2----------------------------------------10----9-----6/7--|
|--0---0-0-3-2-1-0-000--000-000---000-000-00---000--000------|
       . . . . . . ...  ... ...   ... ... ..   ...  ...


-01:10
interlude
repeat 2x

|-------------------------------------|
|-------------------------------------|
|-------------------------------------|
|-------------------------------------|
|----------7-8-7------10-8-7--7-8-----|
|--00000000-----000000------00--------|
   ........     ......      ..

|-------------------------------------|
|-------------------------------------|
|-------------------------------------|
|-------------------------------------|
|----------7-8-7------5-7----3-5------|
|--00000000-----000000---0000---------|
   ........     ......   ....

|-------------------------------------|
|-------------------------------------|
|-------------------------------------|
|-------------------------------------|
|----------7-8-7------10-8-7--7-8-----|
|--00000000-----000000------00--------|
   ........     ......      ..

|-------------------------------------|
|-------------------------------------|
|-------------------------------------|
|--------------------------7\5--------|
|------7\5-5555-5\3--5/7---5\3---4/5--|
|--0000--------------3/5-0-----0-2/3--|
   ....    ....          .     .



-01:29
chorus
shown in order

|------------------------------------------------------------|
|------------------------------------------------------------|
|------------------------------------------------------------|
|------------------------------------------------------------|
|--2----------------------------------------10----9-----6/7--|
|--0---0-0-3-2-1-0-000--000-000---000-000-00---000--000------|
       . . . . . . ...  ... ...   ... ... ..   ...  ...

|------------------------------------------------------------|
|------------------------------------------------------------|
|------------------------------------------------------------|
|------------------------------------------------------------|
|--2----------------------------------------10----9-----6/7--|
|--0---0-0-3-2-1-0-000--000-000---000-000-00---000--000------|
       . . . . . . ...  ... ...   ... ... ..   ...  ...

                      ~        ~         ~
|------------------------------------------------------------|
|------------------------------------------------------------|
|------------------------------------------------------------|
|------------------------------------------------------------|
|--2----------------------------------------10----9-----6/7--|
|--0---0-0-3-2-1-0-000--000-000---000-000-00---000--000------|
       . . . . . . ...  ... ...   ... ... ..   ...  ...

                      ~        ~         ~
|------------------------------------------------------------|
|------------------------------------------------------------|
|------------------------------------------------------------|
|------------------------------------------------------------|
|--2----------------------------------------10----9-----6/7--|
|--0---0-0-3-2-1-0-000--000-000---000-000-00---000--000------|
       . . . . . . ...  ... ...   ... ... ..   ...  ...


-01:50
second bridge
shown in order

guitar I
|---------------------------------------------|
|---------------------------------------------|
|--9------8------11---12------11-----14-------|
|---------------------------------------------|
|--7------6------9----10------9------12-------|
|----0000---0000---00----0000---0000-----0-0--|

guitar I
|---------------------------------------------|
|---------------------------------------------|
|--9------8------11---12------11-----14-------|
|---------------------------------------------|
|--7------6------9----10------9------12-------|
|----0000---0000---00----0000---0000-----0-0--|

guitar 1
|----------------------------------------------------------|
|----------------------------------------------------------|
|--9---------8--------11------12--------11--------14-------|
|----------------------------------------------------------|
|--7---------6--------9-------10--------9---------12-------|
|-------0000-----0000-----00-------0000------0000-----0-0--|
|guitar 2
|----------------------------------------------------------|
|----------------------------------------------------------|
|--1212------1111-----1414----1616------1414------1717-----|
|----------------------------------------------------------|
|--1010------99-------1212----1414------1212------1515-----|
|-------0000-----0000------00------0000------0000-----0-0--|

guitar 1
|----------------------------------------------------------|
|----------------------------------------------------------|
|--9---------8--------11------12--------11--------14-------|
|----------------------------------------------------------|
|--7---------6--------9-------10--------9---------12-------|
|-------0000-----0000-----00-------0000------0000-----0-0--|
|guitar 2
|----------------------------------------------------------|
|----------------------------------------------------------|
|--1212------1111-----1414----1616------1414------1717-----|
|----------------------------------------------------------|
|--1010------99-------1212----1414------1212------1515-----|
|-------0000-----0000------00------0000------0000-----0-0--|



-02:10
interlude before solo
shown in order

|-------------------------------------|
|-------------------------------------|
|-------------------------------------|
|-------------------------------------|
|----------7-8-7------10-8-7--7-8-----|
|--00000000-----000000------00--------|
   ........     ......      ..

|-------------------------------------|
|-------------------------------------|
|-------------------------------------|
|-------------------------------------|
|----------7-8-7------5-7----3-5------|
|--00000000-----000000---0000---------|
   ........     ......   ....

|-------------------------------------|
|-------------------------------------|
|-------------------------------------|
|-------------------------------------|
|----------7-8-7------10-8-7--7-8-----|
|--00000000-----000000------00--------|
   ........     ......      ..

|-------------------------------------|
|-------------------------------------|
|-------------------------------------|
|--------------------------7\5--------|
|------7\5-5555-5\3--5/7---5\3---4/5--|
|--0000--------------3/5-0-----0-2/3--|WATCHOUT!!
   ....    ....          .     .

~sorry, no solo, i haven't perfected it yet.
if you want my guess to how it goes, feel free to email me.

-02:40
bridge to outtro
repeat 4x

|-------------------------------------------------|
|-------------------------------------------------|
|----------------------9\8-------11-------9\8--9--|
|-------------------------------------------------|
|--2-------------------7\6-------9--------7\6--7--|
|--0-0-0-3-2-1-0-000-0-----0-000----000-0---------|
     . . . . . . ... .     . ...    ... .

-02:59
outtro - played slower, listen to the song for timing.

|-------------------------------------------------------------|
|-------------------------------------------------------------|
|--4----------------------------------------------------------|
|--2----------------------------------------------------------|
|--2-------2-----------------------------------------3--2-----|
|--0---/10\0--0-0-3-2-1-0-000---000-000---000-000----------3--|

                                              *
|---------------------------------------------------|
|---------------------------------------------------|
|---------------------------------------------------|
|---------------------------------------------------|
|--2------------------------------------------------|
|--0--0-0-3-2-1-0-000---000-000---000-000-----5-----|


|---------------------------------------------------|
|---------------------------------------------------|
|---------------------------------------------------|
|---------------------------------------------------|
|2-----------------------------------------3--2-----|
|0--0-0-3-2-1-0-000---000-000---000-000----------3--|

|------------------------------------------------------|
|------------------------------------------------------|
|------------------------------------------------------|
|------------------------------------------------------|
|2-----------------------------------------3--2-----2--|
|0--0-0-3-2-1-0-000---000-000---000-000----------3--0--|

Thats It 
The Fall Of Ideals 
















comments
print report bad tab
3 comments total.
0 reply
fenne50 wrote on February 8 2010, 03:55 pm

you guys kind of understand the concept of the fall of ideals but just little minute mistakes that to me make a big difference in pabs but nice job all round,this will get the job done

0 reply
Chaz1987 wrote on April 14 2010, 03:26 pm

your not even close dude

0 reply
PhantomChassit wrote on October 15 2010, 06:28 pm

In This Calling, at the end solo/harmonizing part, the last notes of each should be bends on the 12th fret on the D string (tuned C for this song) instead of the 17th fret for guitar 3, and on the 14th fret on the A string (tuned G for this song) instead of the 19th fret for guitar 4. That was the only thing off I found in the song; otherwise, it's perfect. I'm going to attempt to learn this whole album using this haha. So, if I find any more mistake that I can figure out, I'll post a comment.

I want to post or [tab]
guest
You may want to rate the tab now too:
select rating
Please do not post tabs as comments. Select "correction" instead!