Oops, an error
Loading. Please wait.

The Last Time Tab

ver1
ver1

Solo

Whole song

More versions @911Tabs.com
21,936 views 33 this week
3 commentsread comments
1 2 3 4 5
excellent!
x 7
Autoscroll
+/-
esc
set tempo
stop
Contributor
Difficulty
Tuning
intermediate
C# G# C# F# A# D#
WARNING: You are trying to view
                                    content from Ultimate-Guitar.com
                                    in an unauthorized application,
                                    which is prohibited.

                                    Please use an official Ultimate
                                    Guitar Tabs application for iPhone,
                                    iPad or Android to access legitimate
                                    chords, guitar, bass, and drum tabs
                                    from Ultimate-Guitar.com database.

                                    Type "ultimate guitar tabs" in Apple
                                    App Store's or Android Market's
                                    search to find the application.
----------------------------------------------------------------------------
                              The Last Time
                             All That Remains
----------------------------------------------------------------------------

YES! Their new album “For We Are Many” as finally come out, and let me just say that
album is incredible! I don’t know if it is better than “Overcome” though... This song is my
song by them now, so I thought I would try playing it. I hope you like it! Also, if you 
to know what it sounds like before you play it, (whether you don't trust me or not), 
keep my guitar cover out with the link below. Enjoy!

Username: dkm817 (same on X box live)
Youtube Guitar Cover:
Dual Cover (No Visuals) - http://www.youtube.com/watch?v=JK-vSTSJtds
Regular Cover (Visuals) - http://www.youtube.com/watch?v=ArXbfC6SfLQ
Email: guitardrums@rockfan.com

Guitar 1 Rhythmic (C# G# C# F# A# D#)
Guitar 2 Lead     (C# G# C# F# A# D#)
Guitar 3 Backup   (C# G# C# F# A# D#)

Intro

Guitar 1
D#-----------------------------------------------------------------|
A#-----------------------------------------------------------------|
F#-----------------------------------------------------------------|
C#-0~~~~~~~~~~~~~~~~~~~~~~~~~~~~~~~~~~~~~~~~~~~~~~~~~~~~~~~~~~~~~~~|
G#-0~~~~~~~~~~~~~~~~~~~~~~~~~~~~~~~~~~~~~~~~~~~~~~~~~~~~~~~~~~~~~~~|
C#-0~~~~~~~~~~~~~~~~~~~~~~~~~~~~~~~~~~~~~~~~~~~~~~~~~~~~~~~~~~~~~~~|

Guitar 2 & 3
D#-----------------------------------------------------------------|
A#-----------------------------------------------------------------|
F#-7~~~~~~~~~~~~~~~~~~~~~~~~~~~~~-/14~~~~~~~~~~~~-/10~~~~~~~~~~~~-/|
C#-x-------------------------------x---------------x---------------|
G#-5~~~~~~~~~~~~~~~~~~~~~~~~~~~~~-/12~~~~~~~~~~~~-/8~~~~~~~~~~~~~-/|
C#-----------------------------------------------------------------|

Guitar 1
D#-----------------------------------------------------------------|
A#-----------------------------------------------------------------|
F#--------------------------------7~~~~~~~~~~~~~~-3~~~~~~~~~~~~~~~-|
C#-5~~~~~~~~~~~~~~~~~~~~~~~~~~~~~-7~~~~~~~~~~~~~~-3~~~~~~~~~~~~~~~-|
G#-7~~~~~~~~~~~~~~~~~~~~~~~~~~~~~-5~~~~~~~~~~~~~~-1~~~~~~~~~~~~~~~-|
C#-5~~~~~~~~~~~~~~~~~~~~~~~~~~~~~----------------------------------|

Guitar 2 & 3
D#-----------------------------------------------------------------|
A#-----------------------------------------------------------------|
F#-9~~~~~~~~~~~~~~~~~~~~~~~~~~~~~~-7~~~~~~~~~~~~~~-7~~~~~~~~~~~~~~-|
C#-x-------------------------------x---------------x---------------|
G#-7~~~~~~~~~~~~~~~~~~~~~~~~~~~~~~-5~~~~~~~~~~~~~~-5~~~~~~~~~~~~~~-|
C#-----------------------------------------------------------------|

Guitar 1
D#-----------------------------------------------------------------|
A#-----------------------------------------------------------------|
F#-----------------------------------------------------------------|
C#-0~~~~~~~~~~~~~~~~~~~~~~~~~~~~~~~~~~~~~~~~~~~~~~~~~~~~~~~~~~~~~~~|
G#-0~~~~~~~~~~~~~~~~~~~~~~~~~~~~~~~~~~~~~~~~~~~~~~~~~~~~~~~~~~~~~~~|
C#-0~~~~~~~~~~~~~~~~~~~~~~~~~~~~~~~~~~~~~~~~~~~~~~~~~~~~~~~~~~~~~~~|

Guitar 2 & 3
D#-----------------------------------------------------------------|
A#-----------------------------------------------------------------|
F#-7~~~~~~~~~~~~~~~~~~~~~~~~~~~~~-/14~~~~~~~~~~~~-/15~~~~~~~~~~~~-/|
C#-x-------------------------------x---------------x---------------|
G#-5~~~~~~~~~~~~~~~~~~~~~~~~~~~~~-/12~~~~~~~~~~~~-/13~~~~~~~~~~~~-/|
C#-----------------------------------------------------------------|

Guitar 1
D#-----------------------------------------------------------------|
A#-----------------------------------------------------------------|
F#-----------------------------------------------------------------|
C#-3~~~~~~~~~~~~~~~~~~~~~~~~~~~~~~-5~~~~~~~~~~~~~~~~~~~~~~~~~~~~~~-|
G#-5~~~~~~~~~~~~~~~~~~~~~~~~~~~~~~-7~~~~~~~~~~~~~~~~~~~~~~~~~~~~~~-|
C#-3~~~~~~~~~~~~~~~~~~~~~~~~~~~~~~-5~~~~~~~~~~~~~~~~~~~~~~~~~~~~~~-|

Guitar 2
D#-----------------------------------------------------------------|
A#-----------------------------------------------------------------|
F#-14~~~~~~~~~~~~~~~~~~~~~~~~~~~~~-12~~~~~~~~~~~~~~~~~~~~~~~~~~~~~-|
C#-x-------------------------------x-------------------------------|
G#-12~~~~~~~~~~~~~~~~~~~~~~~~~~~~~-10~~~~~~~~~~~~~~~~~~~~~~~~~~~~~-|
C#-----------------------------------------------------------------|

Guitar 3
D#-----------------------------------------------------------------|
A#-----------------------------------------------------------------|
F#-14~~~~~~~~~~~~~~~~~~~~~~~~~~~~~~~~~~~~~~\~~~~~~~~~~~~~~~~~~~~~~-|
C#-x---------------------------------------------------------------|
G#-12~~~~~~~~~~~~~~~~~~~~~~~~~~~~~~~~~~~~~~\~~~~~~~~~~~~~~~~~~~~~~-|
C#-----------------------------------------------------------------|

Guitar 1
D#-----------------------------------------------------------------|
A#-----------------------------------------------------------------|
F#-----------------------------------------------------------------|
C#-0~~~~~~~~~~~~~~~~~~~~~~~~~~~~~~~~~~~~~~~~~~~~~~~~~~~~~~~~~~~~~~~|
G#-0~~~~~~~~~~~~~~~~~~~~~~~~~~~~~~~~~~~~~~~~~~~~~~~~~~~~~~~~~~~~~~~|
C#-0~~~~~~~~~~~~~~~~~~~~~~~~~~~~~~~~~~~~~~~~~~~~~~~~~~~~~~~~~~~~~~~|

Guitar 2
D#-----------------------------------------------------------------|
A#-----------------------------------------------------------------|
F#-7~~~~~~~~~~~~~~~~~~~~~~~~~~~~~-/14~~~~~~~~~~~~-/10~~~~~~~~~~~~-/|
C#-x-------------------------------x---------------x---------------|
G#-5~~~~~~~~~~~~~~~~~~~~~~~~~~~~~-/12~~~~~~~~~~~~-/8~~~~~~~~~~~~~-/|
C#-----------------------------------------------------------------|

Guitar 3
D#-----------------------------------------------------------------|
A#-----------------------------------------------------------------|
F#-10~~~~~~~~~~~~~~~~~~~~~~~~~~~~-/17~~~~~~~~~~~~-/14~~~~~~~~~~~~-/|
C#-x-------------------------------x---------------x---------------|
G#-8~~~~~~~~~~~~~~~~~~~~~~~~~~~~~-/15~~~~~~~~~~~~-/12~~~~~~~~~~~~-/|
C#-----------------------------------------------------------------|

Guitar 1
D#-----------------------------------------------------------------|
A#-----------------------------------------------------------------|
F#--------------------------------7~~~~~~~~~~~~~~-3~~~~~~~~~~~~~~~-|
C#-5~~~~~~~~~~~~~~~~~~~~~~~~~~~~~-7~~~~~~~~~~~~~~-3~~~~~~~~~~~~~~~-|
G#-7~~~~~~~~~~~~~~~~~~~~~~~~~~~~~-5~~~~~~~~~~~~~~-1~~~~~~~~~~~~~~~-|
C#-5~~~~~~~~~~~~~~~~~~~~~~~~~~~~~----------------------------------|

Guitar 2
D#-----------------------------------------------------------------|
A#-----------------------------------------------------------------|
F#-9~~~~~~~~~~~~~~~~~~~~~~~~~~~~~~-7~~~~~~~~~~~~~~-7~~~~~~~~~~~~~~-|
C#-x-------------------------------x---------------x---------------|
G#-7~~~~~~~~~~~~~~~~~~~~~~~~~~~~~~-5~~~~~~~~~~~~~~-5~~~~~~~~~~~~~~-|
C#-----------------------------------------------------------------|

Guitar 3
D#-----------------------------------------------------------------|
A#-----------------------------------------------------------------|
F#-12~~~~~~~~~~~~~~~~~~~~~~~~~~~~~-10~~~~~~~~~~~~~-10~~~~~~~~~~~~~-|
C#-x-------------------------------x---------------x---------------|
G#-10~~~~~~~~~~~~~~~~~~~~~~~~~~~~~-8~~~~~~~~~~~~~~-8~~~~~~~~~~~~~~-|
C#-----------------------------------------------------------------|

Guitar 1
D#-----------------------------------------------------------------|
A#-----------------------------------------------------------------|
F#-----------------------------------------------------------------|
C#-0~~~~~~~~~~~~~~~~~~~~~~~~~~~~~~~~~~~~~~~~~~~~~~~~~~~~~~~~~~~~~~~|
G#-0~~~~~~~~~~~~~~~~~~~~~~~~~~~~~~~~~~~~~~~~~~~~~~~~~~~~~~~~~~~~~~~|
C#-0~~~~~~~~~~~~~~~~~~~~~~~~~~~~~~~~~~~~~~~~~~~~~~~~~~~~~~~~~~~~~~~|

Guitar 2 & 3
D#------------------------------------------------------------------|
A#------------------------------------------------------------------|
F#-10~~~~~~~~~~~~~~~~~~~~~~~~~~~~-/14~~~~~~~~~~~~-/15---------------|
C#-x-------------------------------x---------------x----------------|
G#-8~~~~~~~~~~~~~~~~~~~~~~~~~~~~~-/12~~~~~~~~~~~~-/13---------------|
C#------------------------------------------------------------------|

Guitar 1
D#-----------------------------------------------------------------|
A#-----------------------------------------------------------------|
F#-----------------------------------------------------------------|
C#-3~~~~~~~~~~~~~~~~~~~~~~~~~~~~~~-5~~~~~~~~~~~~~~~~~~~~~~~~~~~~~~-|
G#-5~~~~~~~~~~~~~~~~~~~~~~~~~~~~~~-7~~~~~~~~~~~~~~~~~~~~~~~~~~~~~~-|
C#-3~~~~~~~~~~~~~~~~~~~~~~~~~~~~~~-5~~~~~~~~~~~~~~~~~~~~~~~~~~~~~~-|

Guitar 2
D#-----------------------------------------------------------------|
A#-----------------------------------------------------------------|
F#-14~~~~~~~~~~~~~~~~~~~~~~~~~~~~~-12~~~~~~~~~~~~~~~~~~~~~~~~~~~~~-|
C#-x-------------------------------x-------------------------------|
G#-12~~~~~~~~~~~~~~~~~~~~~~~~~~~~~-10~~~~~~~~~~~~~~~~~~~~~~~~~~~~~-|
C#-----------------------------------------------------------------|

Guitar 3
D#-----------------------------------------------------------------|
A#-----------------------------------------------------------------|
F#-14~~~~~~~~~~~~~~~~~~~~~~~~~~~~~~~~~~~~~~\~~~~~~~~~~~~~~~~~~~~~~-|
C#-x---------------------------------------------------------------|
G#-12~~~~~~~~~~~~~~~~~~~~~~~~~~~~~~~~~~~~~~\~~~~~~~~~~~~~~~~~~~~~~-|
C#-----------------------------------------------------------------|

Break Off 1

Guitar 1
D#-----------------------------------------------------------------|
A#-----------------------------------------------------------------|
F#-----------------------------------------------------------------|
C#-0---------------------------------------------------------------|
G#-0---------------------------------------------------------------|
C#-0---------------------------------------------------------------|

Guitar 2
D#-----------------------------------------------------------------|
A#-----------------------------------------------------------------|
F#-----------------------------------------------------------------|
C#-------------7---------------------------------------------------|
G#-----3---5-----------8-------7-------5-----------7-------7h--8---|
C#-0---------------0-------0-------0-------0---0-------0-----------|
Pm .   .   .       .       .       .       .   .       .

Guitar 1 & 2
D#-----------------------------------------------------------------|
A#-----------------------------------------------------------------|
F#-----------------------------------------------------------------|
C#-------------7---------------------------------------------------|
G#-----3---5-----------8-------7-------5-----------7-------7h--8---|
C#-0---------------0-------0-------0-------0---0-------0-----------|
Pm .   .   .       .       .       .       .   .       .

Guitar 1 & 2
D#-----------------------------------------------------------------|
A#-----------------------------------------------------------------|
F#-------------5-------5h7-------------------------7---7---7---7---|
C#-----------------0-------0---7---0---5---0-------7---7---7---7---|
G#-----3---5-----------------------------------5---5---5---5---5---|
C#-0---------------------------------------------------------------|
Pm .   .   .       .       .       .       .   .

Verse 1

Guitar 1 & 2
D#-----------------------------------------------------------------|
A#-----------------------------------------------------------------|
F#-7---------------5--/7-------------------------------------------|
C#-7---0---0---0---5--/7---0---0---5---3---0---0---0-0-0---0-0-0---|
G#-5---0---0---0---3--/5---0---0-----------0---0---0-0-0---0-0-0---|
C#-----0---0---0-----------0---0-----------0---0---0-0-0---0-0-0---|
Pm     .   .   .           .   .           .   .   . . .   . . .

Guitar 1 & 2
D#-----------------------------------------------------------------|
A#-----------------------------------------------------------------|
F#-----------------5--/7-------------------------------------------|
C#-0-0-0---0---0---5--/7---0---0---5---3---0---0---0-0-0---0-0-0---|
G#-0-0-0---0---0---3--/5---0---0-----------0---0---0-0-0---0-0-0---|
C#-0-0-0---0---0-----------0---0-----------0---0---0-0-0---0-0-0---|
Pm . . .   .   .           .   .           .   .   . . .   . . .

Guitar 1
D#-----------------------------------------------------------------|
A#-----------------------------------------------------------------|
F#-------------5---------------------------------------------------|
C#-----------------0---7---0---5---0---3---0---0---5---0---5h--7---|
G#-0---7---8-------------------------------------------------------|
C#-----------------------------------------------------------------|
Pm .   .   .       .       .       .       .   .       .

Guitar 2
D#-----------------------------------------------------------------|
A#-----------------------------------------------------------------|
F#-----------------------------------------------------------------|
C#-------------7---------------------------------------------------|
G#-----3---5-----------8-------7-------5-----------7-------7h--8---|
C#-0---------------0-------0-------0-------0---0-------0-----------|
Pm .   .   .       .       .       .       .   .       .

Guitar 1
D#-----------------------------------------------------------------|
A#-----------------------------------------------------------------|
F#-------------9------9h10-----9-------7-----------7---7---7---7---|
C#-----------------0-------0-------0-------0-------7---7---7---7---|
G#-0---7---8-----------------------------------5---5---5---5---5---|
C#-----------------------------------------------------------------|
Pm .   .   .       .       .       .       .   .

Guitar 2
D#-----------------------------------------------------------------|
A#-----------------------------------------------------------------|
F#-------------5-------5h7-------------------------7---7---7---7---|
C#-----------------0-------0---7---0---5---0-------7---7---7---7---|
G#-----3---5-----------------------------------5---5---5---5---5---|
C#-0---------------------------------------------------------------|
Pm .   .   .       .       .       .       .   .

Guitar 1 & 2
D#-----------------------------------------------------------------|
A#-----------------------------------------------------------------|
F#-7---------------5--/7-------------------------------------------|
C#-7---0---0---0---5--/7---0---0---5---3---0---0---0-0-0---0-0-0---|
G#-5---0---0---0---3--/5---0---0-----------0---0---0-0-0---0-0-0---|
C#-----0---0---0-----------0---0-----------0---0---0-0-0---0-0-0---|
Pm     .   .   .           .   .           .   .   . . .   . . .

Guitar 1 & 2
D#-----------------------------------------------------------------|
A#-----------------------------------------------------------------|
F#-----------------5--/7-------------------------------------------|
C#-0-0-0---0---0---5--/7---0---0---5---3---0---0---0-0-0---0-0-0---|
G#-0-0-0---0---0---3--/5---0---0-----------0---0---0-0-0---0-0-0---|
C#-0-0-0---0---0-----------0---0-----------0---0---0-0-0---0-0-0---|
Pm . . .   .   .           .   .           .   .   . . .   . . .

Pre Chorus 1

Guitar 1 & 2
D#-----------------------------------------------------------------|
A#-----------------------------------------------------------------|
F#-----------------------------------------------------------------|
C#-------------7~~~~~~---------------------------------------------|
G#-----3---5-----------8------/7~~~~~~~~~~-3~~~~~~-3~~~~~~~~~~~~~~-|
C#-0-----------------------0---------------------------------------|
Pm .   .   .               .

Guitar 3
D#-----------------------------------------------------------------|
A#-----------------------------------------------------------------|
F#-7~~~~~~~~~~~~~~~~~~~~~~~~~~~~~~~~~~~~~~~~~~~~~~-9~~~~~~~~~~~~~~-|
C#-----------------------------------------------------------------|
G#-----------------------------------------------------------------|
C#-----------------------------------------------------------------|

Guitar 1 & 2
D#-----------------------------------------------------------------|
A#-----------------------------------------------------------------|
F#-----------------------------------------------------------------|
C#-------------7~~~~~~---------------------------------------------|
G#-----3---5-----------8------/7~~~~~~~~~~-3~~~~~~-3~~~~~~~~~~~~~~-|
C#-0-----------------------0---------------------------------------|
Pm .   .   .               .

Guitar 3
D#-----------------------------------------------------------------|
A#-----------------------------------------------------------------|
F#-10~~~~~~~~~~~~~~~~~~~~~~~~~~~~~~~~~~~~~~~~~~~~~-12~~~~~~~~~~~~~-|
C#-----------------------------------------------------------------|
G#-----------------------------------------------------------------|
C#-----------------------------------------------------------------|

Guitar 1
D#-----------------------------------------------------------------|
A#-----------------------------------------------------------------|
F#-------------5~~~~~~-7-------------------------------------------|
C#-------------------------0---7~~~~~~~~~~-5~~~~~~-7~~~~~~-8~~~~~~-|
G#-----7---8-------------------------------------------------------|
C#-0---------------------------------------------------------------|
Pm .   .   .               .

Guitar 2
D#-----------------------------------------------------------------|
A#-----------------------------------------------------------------|
F#-------------9~~~~~~-10------9~~~~~~~~~~-10~~~~~-5~~~~~~-7~~~~~~-|
C#-------------------------0---------------------------------------|
G#-----7---8-------------------------------------------------------|
C#-0---------------------------------------------------------------|
Pm .   .   .               .

Guitar 3
D#-----------------------------------------------------------------|
A#-----------------------------------------------------------------|
F#-14~~~~~~~~~~~~~~~~~~~~~~~~~~~~~~~~~~~~~~~~~~~~~~~~~~~~~~~~~~~~~-|
C#-----------------------------------------------------------------|
G#-----------------------------------------------------------------|
C#-----------------------------------------------------------------|

Guitar 1 & 2
D#-----------------------------------------------------------------|
A#-----------------------------------------------------------------|
F#-7~~~~~~~~~~~~~~-8~~~~~~~~~~~~~~-7~~~~~~~~~~~~~~-5~~~~~~~~~~~~~~-|
C#-7~~~~~~~~~~~~~~-8~~~~~~~~~~~~~~-7~~~~~~~~~~~~~~-5~~~~~~~~~~~~~~-|
G#-5~~~~~~~~~~~~~~-6~~~~~~~~~~~~~~-5~~~~~~~~~~~~~~-3~~~~~~~~~~~~~~-|
C#-----------------------------------------------------------------|

Guitar 3
D#-----------------------------------------------------------------|
A#-14~~~~~~~~~~~~~-15~~~~~~~~~~~~~-14~~~~~~~~~~~~~-12~~~~~~~~~~~~~-|
F#-----------------------------------------------------------------|
C#-----------------------------------------------------------------|
G#-----------------------------------------------------------------|
C#-----------------------------------------------------------------|

Guitar 1 & 2
D#-----------------------------------------------------------------|
A#-----------------------------------------------------------------|
F#-----------------------------------------------------------------|
C#-------------7~~~~~~---------------------------------------------|
G#-----3---5-----------8------/7~~~~~~~~~~-3~~~~~~-3~~~~~~~~~~~~~~-|
C#-0-----------------------0---------------------------------------|
Pm .   .   .               .

Guitar 3
D#-----------------------------------------------------------------|
A#-----------------------------------------------------------------|
F#-7~~~~~~~~~~~~~~~~~~~~~~~~~~~~~~~~~~~~~~~~~~~~~~-9~~~~~~~~~~~~~~-|
C#-----------------------------------------------------------------|
G#-----------------------------------------------------------------|
C#-----------------------------------------------------------------|

Guitar 1 & 2
D#-----------------------------------------------------------------|
A#-----------------------------------------------------------------|
F#-----------------------------------------------------------------|
C#-------------7~~~~~~---------------------------------------------|
G#-----3---5-----------8------/7~~~~~~~~~~-3~~~~~~-3~~~~~~~~~~~~~~-|
C#-0-----------------------0---------------------------------------|
Pm .   .   .               .

Guitar 3
D#-----------------------------------------------------------------|
A#-----------------------------------------------------------------|
F#-10~~~~~~~~~~~~~~~~~~~~~~~~~~~~~~~~~~~~~~~~~~~~~-12~~~~~~~~~~~~~-|
C#-----------------------------------------------------------------|
G#-----------------------------------------------------------------|
C#-----------------------------------------------------------------|

Guitar 1
D#-----------------------------------------------------------------|
A#-----------------------------------------------------------------|
F#-------------5~~~~~~-7-------------------------------------------|
C#-------------------------0---7~~~~~~~~~~-5~~~~~~-7~~~~~~-8~~~~~~-|
G#-----7---8-------------------------------------------------------|
C#-0---------------------------------------------------------------|
Pm .   .   .               .

Guitar 2
D#-----------------------------------------------------------------|
A#-----------------------------------------------------------------|
F#-------------9~~~~~~-10------9~~~~~~~~~~-10~~~~~-5~~~~~~-7~~~~~~-|
C#-------------------------0---------------------------------------|
G#-----7---8-------------------------------------------------------|
C#-0---------------------------------------------------------------|
Pm .   .   .               .

Guitar 3
D#-----------------------------------------------------------------|
A#-----------------------------------------------------------------|
F#-14~~~~~~~~~~~~~~~~~~~~~~~~~~~~~~~~~~~~~~~~~~~~~~~~~~~~~~~~~~~~~-|
C#-----------------------------------------------------------------|
G#-----------------------------------------------------------------|
C#-----------------------------------------------------------------|

Guitar 1
D#-----------------------------------------------------------------|
A#-----------------------------------------------------------------|
F#---------------------------------7~~~~~~~~~~~~~~-10~~~~~~~~~~~~~-|
C#-5p3p0---3---3---3p2p0-----------7~~~~~~~~~~~~~~-10~~~~~~~~~~~~~-|
G#-------------------------3---3---5~~~~~~~~~~~~~~-8~~~~~~~~~~~~~~-|
C#-----------------------------------------------------------------|
Pm         .   .           .   .

Guitar 2
D#-----------------------------------------------------------------|
A#-----------------------------------------------------------------|
F#---------------------------------7~~~~~~~~~~~~~~-10~~~~~~~~~~~~~-|
C#-8p7p0---7---7---7p5p0---5---5---7~~~~~~~~~~~~~~-10~~~~~~~~~~~~~-|
G#---------------------------------5~~~~~~~~~~~~~~-8~~~~~~~~~~~~~~-|
C#-----------------------------------------------------------------|
Pm         .   .           .   .

Chorus

Guitar 1
D#-----------------------------------------------------------------|
A#-----------------------------------------------------------------|
F#-----------------------------------------------------------------|
C#-0~~~~~~~~~~~~~~~~~~~~~~~~~~~~~~~~~~~~~~~~~~~~~~~~~~~~~~~~~~~~~~~|
G#-0~~~~~~~~~~~~~~~~~~~~~~~~~~~~~~~~~~~~~~~~~~~~~~~~~~~~~~~~~~~~~~~|
C#-0~~~~~~~~~~~~~~~~~~~~~~~~~~~~~~~~~~~~~~~~~~~~~~~~~~~~~~~~~~~~~~~|

Guitar 2 & 3
D#-----------------------------------------------------------------|
A#-----------------------------------------------------------------|
F#-7---7---7---7---7---7---7---7---14--14--14--14--10--10--10--10--|
C#-x---x---x---x---x---x---x---x---x---x---x---x---x---x---x---x---|
G#-5---5---5---5---5---5---5---5---12--12--12--12--8---8---8---8---|
C#-----------------------------------------------------------------|

Guitar 1
D#-----------------------------------------------------------------|
A#-----------------------------------------------------------------|
F#-----------------------------------------------------------------|
C#-8~~~~~~~~~~~~~~~~~~~~~~~~~~~~~~~~~~~~~~~~~~~~~~~~~~~~~~~~~~~~~~~|
G#-8~~~~~~~~~~~~~~~~~~~~~~~~~~~~~~~~~~~~~~~~~~~~~~~~~~~~~~~~~~~~~~~|
C#-8~~~~~~~~~~~~~~~~~~~~~~~~~~~~~~~~~~~~~~~~~~~~~~~~~~~~~~~~~~~~~~~|

Guitar 2 & 3
D#-----------------------------------------------------------------|
A#-----------------------------------------------------------------|
F#-9---9---9---9---9---9---9---9---7---7---7---7---7---7---7---7---|
C#-x---x---x---x---x---x---x---x---x---x---x---x---x---x---x---x---|
G#-7---7---7---7---7---7---7---7---5---5---5---5---5---5---5---5---|
C#-----------------------------------------------------------------|

Guitar 1
D#-----------------------------------------------------------------|
A#-----------------------------------------------------------------|
F#-----------------------------------------------------------------|
C#-3~~~~~~~~~~~~~~~~~~~~~~~~~~~~~~~~~~~~~~~~~~~~~~~~~~~~~~~~~~~~~~~|
G#-3~~~~~~~~~~~~~~~~~~~~~~~~~~~~~~~~~~~~~~~~~~~~~~~~~~~~~~~~~~~~~~~|
C#-3~~~~~~~~~~~~~~~~~~~~~~~~~~~~~~~~~~~~~~~~~~~~~~~~~~~~~~~~~~~~~~~|

Guitar 2 & 3
D#-----------------------------------------------------------------|
A#-----------------------------------------------------------------|
F#-5---5---5---5---5---5---5---5---14--14--14--14--15--15--15--15--|
C#-x---x---x---x---x---x---x---x---x---x---x---x---x---x---x---x---|
G#-3---3---3---3---3---3---3---3---12--12--12--12--13--13--13--13--|
C#-----------------------------------------------------------------|

Guitar 1
D#-----------------------------------------------------------------|
A#-----------------------------------------------------------------|
F#-----------------------------------------------------------------|
C#-10~~~~~~~~~~~~~~~~~~~~~~~~~~~~~~~~~~~~~~~~~~~~~~~~~~~~~~~~~~~~~~|
G#-10~~~~~~~~~~~~~~~~~~~~~~~~~~~~~~~~~~~~~~~~~~~~~~~~~~~~~~~~~~~~~~|
C#-10~~~~~~~~~~~~~~~~~~~~~~~~~~~~~~~~~~~~~~~~~~~~~~~~~~~~~~~~~~~~~~|

Guitar 2 & 3
D#-----------------------------------------------------------------|
A#-----------------------------------------------------------------|
F#-14--14--14--14--14--14--14--14--12--12--12--12--12--12--12--12--|
C#-x---x---x---x---x---x---x---x---x---x---x---x---x---x---x---x---|
G#-12--12--12--12--12--12--12--12--10--10--10--10--10--10--10--10--|
C#-----------------------------------------------------------------|

Guitar 1
D#-----------------------------------------------------------------|
A#-----------------------------------------------------------------|
F#-----------------------------------------------------------------|
C#-0~~~~~~~~~~~~~~~~~~~~~~~~~~~~~~~~~~~~~~~~~~~~~~~~~~~~~~~~~~~~~~~|
G#-0~~~~~~~~~~~~~~~~~~~~~~~~~~~~~~~~~~~~~~~~~~~~~~~~~~~~~~~~~~~~~~~|
C#-0~~~~~~~~~~~~~~~~~~~~~~~~~~~~~~~~~~~~~~~~~~~~~~~~~~~~~~~~~~~~~~~|

Guitar 2
D#-----------------------------------------------------------------|
A#-----------------------------------------------------------------|
F#-7---7---7---7---7---7---7---7---14--14--14--14--10--10--10--10--|
C#-x---x---x---x---x---x---x---x---x---x---x---x---x---x---x---x---|
G#-5---5---5---5---5---5---5---5---12--12--12--12--8---8---8---8---|
C#-----------------------------------------------------------------|

Guitar 3
D#-----------------------------------------------------------------|
A#-----------------------------------------------------------------|
F#-10--10--10--10--10--10--10--10--17--17--17--17--14--14--14--14--|
C#-x---x---x---x---x---x---x---x---x---x---x---x---x---x---x---x---|
G#-8---8---8---8---8---8---8---8---15--15--15--15--12--12--12--12--|
C#-----------------------------------------------------------------|

Guitar 1
D#-----------------------------------------------------------------|
A#-----------------------------------------------------------------|
F#-----------------------------------------------------------------|
C#-8~~~~~~~~~~~~~~~~~~~~~~~~~~~~~~~~~~~~~~~~~~~~~~~~~~~~~~~~~~~~~~~|
G#-8~~~~~~~~~~~~~~~~~~~~~~~~~~~~~~~~~~~~~~~~~~~~~~~~~~~~~~~~~~~~~~~|
C#-8~~~~~~~~~~~~~~~~~~~~~~~~~~~~~~~~~~~~~~~~~~~~~~~~~~~~~~~~~~~~~~~|

Guitar 2
D#-----------------------------------------------------------------|
A#-----------------------------------------------------------------|
F#-9---9---9---9---9---9---9---9---7---7---7---7---7---7---7---7---|
C#-x---x---x---x---x---x---x---x---x---x---x---x---x---x---x---x---|
G#-7---7---7---7---7---7---7---7---5---5---5---5---5---5---5---5---|
C#-----------------------------------------------------------------|

Guitar 3
D#-----------------------------------------------------------------|
A#-----------------------------------------------------------------|
F#-12--12--12--12--12--12--12--12--10--10--10--10--10--10--10--10--|
C#-x---x---x---x---x---x---x---x---x---x---x---x---x---x---x---x---|
G#-10--10--10--10--10--10--10--10--8---8---8---8---8---8---8---8---|
C#-----------------------------------------------------------------|

Guitar 1
D#-----------------------------------------------------------------|
A#-----------------------------------------------------------------|
F#-----------------------------------------------------------------|
C#-3~~~~~~~~~~~~~~~~~~~~~~~~~~~~~~~~~~~~~~~~~~~~~~~~~~~~~~~~~~~~~~~|
G#-3~~~~~~~~~~~~~~~~~~~~~~~~~~~~~~~~~~~~~~~~~~~~~~~~~~~~~~~~~~~~~~~|
C#-3~~~~~~~~~~~~~~~~~~~~~~~~~~~~~~~~~~~~~~~~~~~~~~~~~~~~~~~~~~~~~~~|

Guitar 2
D#-----------------------------------------------------------------|
A#-----------------------------------------------------------------|
F#-5---5---5---5---5---5---5---5---14--14--14--14--15--15--15--15--|
C#-x---x---x---x---x---x---x---x---x---x---x---x---x---x---x---x---|
G#-3---3---3---3---3---3---3---3---12--12--12--12--13--13--13--13--|
C#-----------------------------------------------------------------|

Guitar 3
D#-----------------------------------------------------------------|
A#-----------------------------------------------------------------|
F#-10--10--10--10--10--10--10--10--17--17--17--17--14--14--14--14--|
C#-x---x---x---x---x---x---x---x---x---x---x---x---x---x---x---x---|
G#-8---8---8---8---8---8---8---8---15--15--15--15--12--12--12--12--|
C#-----------------------------------------------------------------|

Guitar 1
D#-----------------------------------------------------------------|
A#-----------------------------------------------------------------|
F#-----------------------------------------------------------------|
C#-10~~~~~~~~~~~~~~~~~~~~~~~~~~~~~~~~~~~~~~~~~~~~~~~~~~~~~~~~~~~~~~|
G#-10~~~~~~~~~~~~~~~~~~~~~~~~~~~~~~~~~~~~~~~~~~~~~~~~~~~~~~~~~~~~~~|
C#-10~~~~~~~~~~~~~~~~~~~~~~~~~~~~~~~~~~~~~~~~~~~~~~~~~~~~~~~~~~~~~~|

Guitar 2
D#-----------------------------------------------------------------|
A#-----------------------------------------------------------------|
F#-14--14--14--14--14--14--14--14--12--12--12--12--12--12--12--12--|
C#-x---x---x---x---x---x---x---x---x---x---x---x---x---x---x---x---|
G#-12--12--12--12--12--12--12--12--10--10--10--10--10--10--10--10--|
C#-----------------------------------------------------------------|

Guitar 3
D#-----------------------------------------------------------------|
A#-----------------------------------------------------------------|
F#-12--12--12--12--12--12--12--12--12--12--12--12--12--12--12--12--|
C#-x---x---x---x---x---x---x---x---x---x---x---x---x---x---x---x---|
G#-10--10--10--10--10--10--10--10--10--10--10--10--10--10--10--10--|
C#-----------------------------------------------------------------|

Break Off 2

Guitar 1
D#-----------------------------------------------------------------|
A#-----------------------------------------------------------------|
F#-----------------------------------------------------------------|
C#-0---------------------------------------------------------------|
G#-0-------------------------------------------------------7h--8---|
C#-0---------------------------------------------------------------|

Guitar 2
D#-----------------------------------------------------------------|
A#-----------------------------------------------------------------|
F#-----------------------------------------------------------------|
C#-------------7---------------------------------------------------|
G#-----3---5-----------8-------7-------5-----------7-------7h--8---|
C#-0---------------0-------0-------0-------0---0-------0-----------|
Pm .   .   .       .       .       .       .   .       .

Verse 1

Guitar 1 & 2
D#-----------------------------------------------------------------|
A#-----------------------------------------------------------------|
F#-7---------------5--/7-------------------------------------------|
C#-7---0---0---0---5--/7---0---0---5---3---0---0---0-0-0---0-0-0---|
G#-5---0---0---0---3--/5---0---0-----------0---0---0-0-0---0-0-0---|
C#-----0---0---0-----------0---0-----------0---0---0-0-0---0-0-0---|
Pm     .   .   .           .   .           .   .   . . .   . . .

Guitar 1 & 2
D#-----------------------------------------------------------------|
A#-----------------------------------------------------------------|
F#-----------------5--/7-------------------------------------------|
C#-0-0-0---0---0---5--/7---0---0---5---3---0---0---0-0-0---0-0-0---|
G#-0-0-0---0---0---3--/5---0---0-----------0---0---0-0-0---0-0-0---|
C#-0-0-0---0---0-----------0---0-----------0---0---0-0-0---0-0-0---|
Pm . . .   .   .           .   .           .   .   . . .   . . .


Guitar 1
D#-----------------------------------------------------------------|
A#-----------------------------------------------------------------|
F#-------------5---------------------------------------------------|
C#-----------------0---7---0---5---0---3---0---0---5---0---5h--7---|
G#-0---7---8-------------------------------------------------------|
C#-----------------------------------------------------------------|
Pm .   .   .       .       .       .       .   .       .

Guitar 2
D#-----------------------------------------------------------------|
A#-----------------------------------------------------------------|
F#-----------------------------------------------------------------|
C#-------------7---------------------------------------------------|
G#-----3---5-----------8-------7-------5-----------7-------7h--8---|
C#-0---------------0-------0-------0-------0---0-------0-----------|
Pm .   .   .       .       .       .       .   .       .

Guitar 1
D#-----------------------------------------------------------------|
A#-----------------------------------------------------------------|
F#-------------9------9h10-----9-------7-----------7---7---7---7---|
C#-----------------0-------0-------0-------0-------7---7---7---7---|
G#-0---7---8-----------------------------------5---5---5---5---5---|
C#-----------------------------------------------------------------|
Pm .   .   .       .       .       .       .   .

Guitar 2
D#-----------------------------------------------------------------|
A#-----------------------------------------------------------------|
F#-------------5-------5h7-------------------------7---7---7---7---|
C#-----------------0-------0---7---0---5---0-------7---7---7---7---|
G#-----3---5-----------------------------------5---5---5---5---5---|
C#-0---------------------------------------------------------------|
Pm .   .   .       .       .       .       .   .

Guitar 1 & 2
D#-----------------------------------------------------------------|
A#-----------------------------------------------------------------|
F#-7---------------5--/7-------------------------------------------|
C#-7---0---0---0---5--/7---0---0---5---3---0---0---0-0-0---0-0-0---|
G#-5---0---0---0---3--/5---0---0-----------0---0---0-0-0---0-0-0---|
C#-----0---0---0-----------0---0-----------0---0---0-0-0---0-0-0---|
Pm     .   .   .           .   .           .   .   . . .   . . .

Guitar 1
D#-----------------------------------------------------------------|
A#-----------------------------------------------------------------|
F#-----------------5--/7-------------------------------------------|
C#-0-0-0---0---0---5--/7---0---0---5---3---0---0---0-0-0---0-0-0---|
G#-0-0-0---0---0---3--/5---0---0-----------0---0---0-0-0---0-0-0---|
C#-0-0-0---0---0-----------0---0-----------0---0---0-0-0---0-0-0---|
Pm . . .   .   .           .   .           .   .   . . .   . . .

Guitar 2
D#-----------------------------------------------------------------|
A#-----------------------------------------------------------------|
F#-----------------5--/7-------------------------------------------|
C#-0-0-0---0---0---5--/7---0---0---5---3---0---0---ps\~~~~~~~~~~~~-|
G#-0-0-0---0---0---3--/5---0---0-----------0---0---ps\~~~~~~~~~~~~-|
C#-0-0-0---0---0-----------0---0-----------0---0---ps\~~~~~~~~~~~~-|
Pm . . .   .   .           .   .           .   .

Pre Chorus 2

Guitar 1 & 2
D#-----------------------------------------------------------------|
A#-----------------------------------------------------------------|
F#-----------------------------------------------------------------|
C#-------------7~~~~~~---------------------------------------------|
G#-----3---5-----------8------/7~~~~~~~~~~-3~~~~~~-3~~~~~~~~~~~~~~-|
C#-0-----------------------0---------------------------------------|
Pm .   .   .               .

Guitar 3
D#-----------------------------------------------------------------|
A#-----------------------------------------------------------------|
F#-7~~~~~~~~~~~~~~~~~~~~~~~~~~~~~~~~~~~~~~~~~~~~~~-9~~~~~~~~~~~~~~-|
C#-----------------------------------------------------------------|
G#-----------------------------------------------------------------|
C#-----------------------------------------------------------------|

Guitar 1 & 2
D#-----------------------------------------------------------------|
A#-----------------------------------------------------------------|
F#-----------------------------------------------------------------|
C#-------------7~~~~~~---------------------------------------------|
G#-----3---5-----------8------/7~~~~~~~~~~-3~~~~~~-3~~~~~~~~~~~~~~-|
C#-0-----------------------0---------------------------------------|
Pm .   .   .               .

Guitar 3
D#-----------------------------------------------------------------|
A#-----------------------------------------------------------------|
F#-10~~~~~~~~~~~~~~~~~~~~~~~~~~~~~~~~~~~~~~~~~~~~~-12~~~~~~~~~~~~~-|
C#-----------------------------------------------------------------|
G#-----------------------------------------------------------------|
C#-----------------------------------------------------------------|

Guitar 1
D#-----------------------------------------------------------------|
A#-----------------------------------------------------------------|
F#-------------5~~~~~~-7-------------------------------------------|
C#-------------------------0---7~~~~~~~~~~-5~~~~~~-7~~~~~~-8~~~~~~-|
G#-----7---8-------------------------------------------------------|
C#-0---------------------------------------------------------------|
Pm .   .   .               .

Guitar 2
D#-----------------------------------------------------------------|
A#-----------------------------------------------------------------|
F#-------------9~~~~~~-10------9~~~~~~~~~~-10~~~~~-5~~~~~~-7~~~~~~-|
C#-------------------------0---------------------------------------|
G#-----7---8-------------------------------------------------------|
C#-0---------------------------------------------------------------|
Pm .   .   .               .

Guitar 3
D#-----------------------------------------------------------------|
A#-----------------------------------------------------------------|
F#-14~~~~~~~~~~~~~~~~~~~~~~~~~~~~~~~~~~~~~~~~~~~~~~~~~~~~~~~~~~~~~-|
C#-----------------------------------------------------------------|
G#-----------------------------------------------------------------|
C#-----------------------------------------------------------------|

Guitar 1
D#-----------------------------------------------------------------|
A#-----------------------------------------------------------------|
F#---------------------------------7~~~~~~~~~~~~~~-10~~~~~~~~~~~~~-|
C#-5p3p0---3---3---3p2p0-----------7~~~~~~~~~~~~~~-10~~~~~~~~~~~~~-|
G#-------------------------3---3---5~~~~~~~~~~~~~~-8~~~~~~~~~~~~~~-|
C#-----------------------------------------------------------------|
Pm         .   .           .   .

Guitar 2
D#-----------------------------------------------------------------|
A#-----------------------------------------------------------------|
F#---------------------------------7~~~~~~~~~~~~~~-10~~~~~~~~~~~~~-|
C#-8p7p0---7---7---7p5p0---5---5---7~~~~~~~~~~~~~~-10~~~~~~~~~~~~~-|
G#---------------------------------5~~~~~~~~~~~~~~-8~~~~~~~~~~~~~~-|
C#-----------------------------------------------------------------|
Pm         .   .           .   .

Chorus

Guitar 1
D#-----------------------------------------------------------------|
A#-----------------------------------------------------------------|
F#-----------------------------------------------------------------|
C#-0~~~~~~~~~~~~~~~~~~~~~~~~~~~~~~~~~~~~~~~~~~~~~~~~~~~~~~~~~~~~~~~|
G#-0~~~~~~~~~~~~~~~~~~~~~~~~~~~~~~~~~~~~~~~~~~~~~~~~~~~~~~~~~~~~~~~|
C#-0~~~~~~~~~~~~~~~~~~~~~~~~~~~~~~~~~~~~~~~~~~~~~~~~~~~~~~~~~~~~~~~|

Guitar 2 & 3
D#-----------------------------------------------------------------|
A#-----------------------------------------------------------------|
F#-7---7---7---7---7---7---7---7---14--14--14--14--10--10--10--10--|
C#-x---x---x---x---x---x---x---x---x---x---x---x---x---x---x---x---|
G#-5---5---5---5---5---5---5---5---12--12--12--12--8---8---8---8---|
C#-----------------------------------------------------------------|

Guitar 1
D#-----------------------------------------------------------------|
A#-----------------------------------------------------------------|
F#-----------------------------------------------------------------|
C#-8~~~~~~~~~~~~~~~~~~~~~~~~~~~~~~~~~~~~~~~~~~~~~~~~~~~~~~~~~~~~~~~|
G#-8~~~~~~~~~~~~~~~~~~~~~~~~~~~~~~~~~~~~~~~~~~~~~~~~~~~~~~~~~~~~~~~|
C#-8~~~~~~~~~~~~~~~~~~~~~~~~~~~~~~~~~~~~~~~~~~~~~~~~~~~~~~~~~~~~~~~|

Guitar 2 & 3
D#-----------------------------------------------------------------|
A#-----------------------------------------------------------------|
F#-9---9---9---9---9---9---9---9---7---7---7---7---7---7---7---7---|
C#-x---x---x---x---x---x---x---x---x---x---x---x---x---x---x---x---|
G#-7---7---7---7---7---7---7---7---5---5---5---5---5---5---5---5---|
C#-----------------------------------------------------------------|

Guitar 1
D#-----------------------------------------------------------------|
A#-----------------------------------------------------------------|
F#-----------------------------------------------------------------|
C#-3~~~~~~~~~~~~~~~~~~~~~~~~~~~~~~~~~~~~~~~~~~~~~~~~~~~~~~~~~~~~~~~|
G#-3~~~~~~~~~~~~~~~~~~~~~~~~~~~~~~~~~~~~~~~~~~~~~~~~~~~~~~~~~~~~~~~|
C#-3~~~~~~~~~~~~~~~~~~~~~~~~~~~~~~~~~~~~~~~~~~~~~~~~~~~~~~~~~~~~~~~|

Guitar 2 & 3
D#-----------------------------------------------------------------|
A#-----------------------------------------------------------------|
F#-5---5---5---5---5---5---5---5---14--14--14--14--15--15--15--15--|
C#-x---x---x---x---x---x---x---x---x---x---x---x---x---x---x---x---|
G#-3---3---3---3---3---3---3---3---12--12--12--12--13--13--13--13--|
C#-----------------------------------------------------------------|

Guitar 1
D#-----------------------------------------------------------------|
A#-----------------------------------------------------------------|
F#-----------------------------------------------------------------|
C#-10~~~~~~~~~~~~~~~~~~~~~~~~~~~~~~~~~~~~~~~~~~~~~~~~~~~~~~~~~~~~~~|
G#-10~~~~~~~~~~~~~~~~~~~~~~~~~~~~~~~~~~~~~~~~~~~~~~~~~~~~~~~~~~~~~~|
C#-10~~~~~~~~~~~~~~~~~~~~~~~~~~~~~~~~~~~~~~~~~~~~~~~~~~~~~~~~~~~~~~|

Guitar 2 & 3
D#-----------------------------------------------------------------|
A#-----------------------------------------------------------------|
F#-14--14--14--14--14--14--14--14--12--12--12--12--12--12--12--12--|
C#-x---x---x---x---x---x---x---x---x---x---x---x---x---x---x---x---|
G#-12--12--12--12--12--12--12--12--10--10--10--10--10--10--10--10--|
C#-----------------------------------------------------------------|

Guitar 1
D#-----------------------------------------------------------------|
A#-----------------------------------------------------------------|
F#-----------------------------------------------------------------|
C#-0~~~~~~~~~~~~~~~~~~~~~~~~~~~~~~~~~~~~~~~~~~~~~~~~~~~~~~~~~~~~~~~|
G#-0~~~~~~~~~~~~~~~~~~~~~~~~~~~~~~~~~~~~~~~~~~~~~~~~~~~~~~~~~~~~~~~|
C#-0~~~~~~~~~~~~~~~~~~~~~~~~~~~~~~~~~~~~~~~~~~~~~~~~~~~~~~~~~~~~~~~|

Guitar 2
D#-----------------------------------------------------------------|
A#-----------------------------------------------------------------|
F#-7---7---7---7---7---7---7---7---14--14--14--14--10--10--10--10--|
C#-x---x---x---x---x---x---x---x---x---x---x---x---x---x---x---x---|
G#-5---5---5---5---5---5---5---5---12--12--12--12--8---8---8---8---|
C#-----------------------------------------------------------------|

Guitar 3
D#-----------------------------------------------------------------|
A#-----------------------------------------------------------------|
F#-10--10--10--10--10--10--10--10--17--17--17--17--14--14--14--14--|
C#-x---x---x---x---x---x---x---x---x---x---x---x---x---x---x---x---|
G#-8---8---8---8---8---8---8---8---15--15--15--15--12--12--12--12--|
C#-----------------------------------------------------------------|

Guitar 1
D#-----------------------------------------------------------------|
A#-----------------------------------------------------------------|
F#-----------------------------------------------------------------|
C#-8~~~~~~~~~~~~~~~~~~~~~~~~~~~~~~~~~~~~~~~~~~~~~~~~~~~~~~~~~~~~~~~|
G#-8~~~~~~~~~~~~~~~~~~~~~~~~~~~~~~~~~~~~~~~~~~~~~~~~~~~~~~~~~~~~~~~|
C#-8~~~~~~~~~~~~~~~~~~~~~~~~~~~~~~~~~~~~~~~~~~~~~~~~~~~~~~~~~~~~~~~|

Guitar 2
D#-----------------------------------------------------------------|
A#-----------------------------------------------------------------|
F#-9---9---9---9---9---9---9---9---7---7---7---7---7---7---7---7---|
C#-x---x---x---x---x---x---x---x---x---x---x---x---x---x---x---x---|
G#-7---7---7---7---7---7---7---7---5---5---5---5---5---5---5---5---|
C#-----------------------------------------------------------------|

Guitar 3
D#-----------------------------------------------------------------|
A#-----------------------------------------------------------------|
F#-12--12--12--12--12--12--12--12--10--10--10--10--10--10--10--10--|
C#-x---x---x---x---x---x---x---x---x---x---x---x---x---x---x---x---|
G#-10--10--10--10--10--10--10--10--8---8---8---8---8---8---8---8---|
C#-----------------------------------------------------------------|

Guitar 1
D#-----------------------------------------------------------------|
A#-----------------------------------------------------------------|
F#-----------------------------------------------------------------|
C#-3~~~~~~~~~~~~~~~~~~~~~~~~~~~~~~~~~~~~~~~~~~~~~~~~~~~~~~~~~~~~~~~|
G#-3~~~~~~~~~~~~~~~~~~~~~~~~~~~~~~~~~~~~~~~~~~~~~~~~~~~~~~~~~~~~~~~|
C#-3~~~~~~~~~~~~~~~~~~~~~~~~~~~~~~~~~~~~~~~~~~~~~~~~~~~~~~~~~~~~~~~|

Guitar 2
D#-----------------------------------------------------------------|
A#-----------------------------------------------------------------|
F#-5---5---5---5---5---5---5---5---14--14--14--14--15--15--15--15--|
C#-x---x---x---x---x---x---x---x---x---x---x---x---x---x---x---x---|
G#-3---3---3---3---3---3---3---3---12--12--12--12--13--13--13--13--|
C#-----------------------------------------------------------------|

Guitar 3
D#-----------------------------------------------------------------|
A#-----------------------------------------------------------------|
F#-10--10--10--10--10--10--10--10--17--17--17--17--14--14--14--14--|
C#-x---x---x---x---x---x---x---x---x---x---x---x---x---x---x---x---|
G#-8---8---8---8---8---8---8---8---15--15--15--15--12--12--12--12--|
C#-----------------------------------------------------------------|

Guitar 1
D#-----------------------------------------------------------------|
A#-----------------------------------------------------------------|
F#-----------------------------------------------------------------|
C#-10~~~~~~~~~~~~~~~~~~~~~~~~~~~~~~~~~~~~~~~~~~~~~~~~~~~~~~~~~~~~~~|
G#-10~~~~~~~~~~~~~~~~~~~~~~~~~~~~~~~~~~~~~~~~~~~~~~~~~~~~~~~~~~~~~~|
C#-10~~~~~~~~~~~~~~~~~~~~~~~~~~~~~~~~~~~~~~~~~~~~~~~~~~~~~~~~~~~~~~|

Guitar 2
D#-----------------------------------------------------------------|
A#-----------------------------------------------------------------|
F#-14--14--14--14--14--14--14--14--12--12--12--12--12--12--12--12--|
C#-x---x---x---x---x---x---x---x---x---x---x---x---x---x---x---x---|
G#-12--12--12--12--12--12--12--12--10--10--10--10--10--10--10--10--|
C#-----------------------------------------------------------------|

Guitar 3
D#-----------------------------------------------------------------|
A#-----------------------------------------------------------------|
F#-12--12--12--12--12--12--12--12--12--12--12--12--12--12--12--12--|
C#-x---x---x---x---x---x---x---x---x---x---x---x---x---x---x---x---|
G#-10--10--10--10--10--10--10--10--10--10--10--10--10--10--10--10--|
C#-----------------------------------------------------------------|

Break Off 3

Guitar 1
D#-----------------------------------------------------------------|
A#-----------------------------------------------------------------|
F#-----------------------------------------------------------------|
C#-0~~~~~~~~~~~~~~~~~~~~~~~~~~~~~~~~~~~~~~~~~~~~~-/12\~~~~~~~~~~~~-|
G#-0~~~~~~~~~~~~~~~~~~~~~~~~~~~~~~~~~~~~~~~~~~~~~-/12\~~~~~~~~~~~~-|
C#-0~~~~~~~~~~~~~~~~~~~~~~~~~~~~~~~~~~~~~~~~~~~~~-/12\~~~~~~~~~~~~-|

Guitar 1
D#-----------------------------------------------------------------|
A#-----------------------------------------------------------------|
F#-----------------------------------------------------------------|
C#-0~~~~~~~~~~~~~~~~~~~~~~~~~~~~~~~~~~~~~~~~~~~~~-/17\~~~~~~~~~~~~-|
G#-0~~~~~~~~~~~~~~~~~~~~~~~~~~~~~~~~~~~~~~~~~~~~~-/17\~~~~~~~~~~~~-|
C#-0~~~~~~~~~~~~~~~~~~~~~~~~~~~~~~~~~~~~~~~~~~~~~-/17\~~~~~~~~~~~~-|

Breakdown

Guitar 1
D#-----------------------------------------------------------------|
A#-----------------------------------------------------------------|
F#-----------------------------------------------------------------|
C#-0~~~~~~-0---0---2---3---0---0---0---0---2---3---3---0---3---0---|
G#-0~~~~~~-0---0---2---3---0---0---0---0---2---3---3---0---3---0---|
C#-0~~~~~~-0---0---2---3---0---0---0---0---2---3---3---0---3---0---|
Pm         .   .           .   .   .   .               .       .

Guitar 2
D#-----------------------------------------------------------------|
A#-----------------------------------------------------------------|
F#-7~~~~~~---------------------------------------------------------|
C#-7~~~~~~-0---0---2---3---0---0---0---0---3---5---3p--0---3p--0---|
G#-5~~~~~~---------------------------------------------------------|
C#-----------------------------------------------------------------|
Pm         .   .           .   .   .   .               .       .

Guitar 1
D#-----------------------------------------------------------------|
A#-----------------------------------------------------------------|
F#-----------------------------------------------------------------|
C#-3p--0---0---0---0---0---0---0---0---0---0---0---5~~~~~~~~~~~~~~-|
G#-3p--0---0---0---0---0---0---0---0---0---0---0---5~~~~~~~~~~~~~~-|
C#-3p--0---0---0---0---0---0---0---0---0---0---0---5~~~~~~~~~~~~~~-|
Pm         .   .   .   .   .   .   .   .   .   .

Guitar 1
D#-----------------------------------------------------------------|
A#-----------------------------------------------------------------|
F#-------------------------------------------------5~~~~~~~~~~~~~~-|
C#-3p--0---0---0---0---0---0---0---0---0---0---0---5~~~~~~~~~~~~~~-|
G#-------------------------------------------------3~~~~~~~~~~~~~~-|
C#-----------------------------------------------------------------|
Pm         .   .   .   .   .   .   .   .   .   .

Guitar 1
D#-----------------------------------------------------------------|
A#-----------------------------------------------------------------|
F#-----------------------------------------------------------------|
C#-0~~~~~~-0---0---2---3---0---0---0---0---2---3---3---0---3---0---|
G#-0~~~~~~-0---0---2---3---0---0---0---0---2---3---3---0---3---0---|
C#-0~~~~~~-0---0---2---3---0---0---0---0---2---3---3---0---3---0---|
Pm         .   .           .   .   .   .               .       .

Guitar 2
D#-----------------------------------------------------------------|
A#-----------------------------------------------------------------|
F#-7~~~~~~---------------------------------------------------------|
C#-7~~~~~~-0---0---2---3---0---0---0---0---3---5---3p--0---3p--0---|
G#-5~~~~~~---------------------------------------------------------|
C#-----------------------------------------------------------------|
Pm         .   .           .   .   .   .               .       .

Guitar 1
D#-----------------------------------------------------------------|
A#-----------------------------------------------------------------|
F#-----------------------------------------------------------------|
C#-3p--0---0---0---0---0---0---0---0---0---0---0---5~~~~~~~~~~~~~~-|
G#-3p--0---0---0---0---0---0---0---0---0---0---0---5~~~~~~~~~~~~~~-|
C#-3p--0---0---0---0---0---0---0---0---0---0---0---5~~~~~~~~~~~~~~-|
Pm         .   .   .   .   .   .   .   .   .   .

Guitar 1
D#-----------------------------------------------------------------|
A#-----------------------------------------------------------------|
F#-------------------------------------------------5~~~~~~~~~~~~~~-|
C#-3p--0---0---0---0---0---0---0---0---0---0---0---5~~~~~~~~~~~~~~-|
G#-------------------------------------------------3~~~~~~~~~~~~~~-|
C#-----------------------------------------------------------------|
Pm         .   .   .   .   .   .   .   .   .   .

Guitar 1
D#-----------------------------------------------------------------|
A#-----------------------------------------------------------------|
F#-----------------------------------------------------------------|
C#-0~~~~~~-0---0---2---3---0---0---0---0---2---3---3---0---3---0---|
G#-0~~~~~~-0---0---2---3---0---0---0---0---2---3---3---0---3---0---|
C#-0~~~~~~-0---0---2---3---0---0---0---0---2---3---3---0---3---0---|
Pm         .   .           .   .   .   .               .       .

Guitar 2
D#-----------------------------------------------------------------|
A#-----------------------------------------------------------------|
F#-7~~~~~~---------------------------------------------------------|
C#-7~~~~~~-0---0---2---3---0---0---0---0---3---5---3p--0---3p--0---|
G#-5~~~~~~---------------------------------------------------------|
C#-----------------------------------------------------------------|
Pm         .   .           .   .   .   .               .       .

Guitar 1
D#-----------------------------------------------------------------|
A#-----------------------------------------------------------------|
F#-----------------------------------------------------------------|
C#-3p--0---0---0---0---0---0---0---0---0---0---0---5~~~~~~~~~~~~~~-|
G#-3p--0---0---0---0---0---0---0---0---0---0---0---5~~~~~~~~~~~~~~-|
C#-3p--0---0---0---0---0---0---0---0---0---0---0---5~~~~~~~~~~~~~~-|
Pm         .   .   .   .   .   .   .   .   .   .

Guitar 1
D#-----------------------------------------------------------------|
A#-----------------------------------------------------------------|
F#-------------------------------------------------5~~~~~~~~~~~~~~-|
C#-3p--0---0---0---0---0---0---0---0---0---0---0---5~~~~~~~~~~~~~~-|
G#-------------------------------------------------3~~~~~~~~~~~~~~-|
C#-----------------------------------------------------------------|
Pm         .   .   .   .   .   .   .   .   .   .

Guitar 1
D#-----------------------------------------------------------------|
A#-----------------------------------------------------------------|
F#-----------------------------------------------------------------|
C#-0~~~~~~-0---0---2---3---0---0---0---0---2---3---3---0---3---0---|
G#-0~~~~~~-0---0---2---3---0---0---0---0---2---3---3---0---3---0---|
C#-0~~~~~~-0---0---2---3---0---0---0---0---2---3---3---0---3---0---|
Pm         .   .           .   .   .   .               .       .

Guitar 2
D#-----------------------------------------------------------------|
A#-----------------------------------------------------------------|
F#-7~~~~~~---------------------------------------------------------|
C#-7~~~~~~-0---0---2---3---0---0---0---0---3---5---3p--0---3p--0---|
G#-5~~~~~~---------------------------------------------------------|
C#-----------------------------------------------------------------|
Pm         .   .           .   .   .   .               .       .

Guitar 1
D#-----------------------------------------------------------------|
A#-----------------------------------------------------------------|
F#-----------------------------------------------------------------|
C#-3p--0---0---0---0---0---0---0---0---0---0---0---5~~~~~~~~~~~~~~-|
G#-3p--0---0---0---0---0---0---0---0---0---0---0---5~~~~~~~~~~~~~~-|
C#-3p--0---0---0---0---0---0---0---0---0---0---0---5~~~~~~~~~~~~~~-|
Pm         .   .   .   .   .   .   .   .   .   .

Guitar 1
D#-----------------------------------------------------------------|
A#-----------------------------------------------------------------|
F#-------------------------------------------------5~~~~~~~~~~~~~~-|
C#-3p--0---0---0---0---0---0---0---0---0---0---0---5~~~~~~~~~~~~~~-|
G#-------------------------------------------------3~~~~~~~~~~~~~~-|
C#-----------------------------------------------------------------|
Pm         .   .   .   .   .   .   .   .   .   .

Guitar Solo

Guitar 1
D#-------------------------------------------------|
A#-------------------------------------------------|
F#-------------------------------------------------|
C#-0~~~~~~~~~~-0-----0-----2-----3-----0-----0-----|
G#-0~~~~~~~~~~-0-----0-----2-----3-----0-----0-----|
C#-0~~~~~~~~~~-0-----0-----2-----3-----0-----0-----|
Pm             .     .                 .     .

Guitar 2
D#-------------------------------------------------|
A#-------------------------------------------------|
F#-------------------------12h14~~~~~~~~~~~~~~~~~--|
C#-------------------------------------------------|
G#-------------------------------------------------|
C#-------------------------------------------------|

Guitar 1
D#-------------------------------------------------|
A#-------------------------------------------------|
F#-------------------------------------------------|
C#-0-----0-----2-----3-----3-----0-----3-----0-----|
G#-0-----0-----2-----3-----3-----0-----3-----0-----|
C#-0-----0-----2-----3-----3-----0-----3-----0-----|
Pm .     .                       .           .

Guitar 2
D#--------------------------------------------------|
A#-------------------------------------------14~~~~-|
F#--------------------------------------------------|
C#----------------15h17----14----15~~~~~~~~~--------|
G#--------------------------------------------------|
C#--------------------------------------------------|

Guitar 1
D#-------------------------------------------------|
A#-------------------------------------------------|
F#-------------------------------------------------|
C#-3p----0-----0-----0-----0-----0-----0-----0-----|
G#-3p----0-----0-----0-----0-----0-----0-----0-----|
C#-3p----0-----0-----0-----0-----0-----0-----0-----|
Pm             .     .     .     .     .     .

Guitar 2
D#-------------------------------------------------|
A#-~~~~~-16----------------------------------------|
F#-------------14~~~~~~~~~~~~~~~~~~~~~-------------|
C#-------------------------------------------------|
G#-------------------------------------------------|
C#-------------------------------------------------|

Guitar 1
D#-------------------------------------------------|
A#-------------------------------------------------|
F#-------------------------------------------------|
C#-0-----0-----0-----0-----5~~~~~~~~~~~~~~~~~~~~~~-|
G#-0-----0-----0-----0-----5~~~~~~~~~~~~~~~~~~~~~~-|
C#-0-----0-----0-----0-----5~~~~~~~~~~~~~~~~~~~~~~-|
Pm .     .     .     .

Guitar 2
D#-------------------------16b~~~~~~~~~~~~~~~~~~~~-|
A#-18h19p18p16-18h19p18p16-------------------------|
F#-------------------------------------------------|
C#-------------------------------------------------|
G#-------------------------------------------------|
C#-------------------------------------------------|

Guitar 1
D#-------------------------------------------------|
A#-------------------------------------------------|
F#-------------------------------------------------|
C#-0~~~~~~~~~~-0-----0-----2-----3-----0-----0-----|
G#-0~~~~~~~~~~-0-----0-----2-----3-----0-----0-----|
C#-0~~~~~~~~~~-0-----0-----2-----3-----0-----0-----|
Pm             .     .                 .     .

Guitar 2
D#-17h-19------------------------------------------|
A#---------18h-19--16h-18--14h-16------------------|
F#---------------------------------14h-17--12h-14--|
C#-------------------------------------------------|
G#-------------------------------------------------|
C#-------------------------------------------------|
Guitar 1
D#-------------------------------------------------|
A#-------------------------------------------------|
F#-------------------------------------------------|
C#-0-----0-----2-----3-----3-----0-----3-----0-----|
G#-0-----0-----2-----3-----3-----0-----3-----0-----|
C#-0-----0-----2-----3-----3-----0-----3-----0-----|
Pm .     .                       .           .

Guitar 2
D#-------------------------------------------------|
A#-------------------------------------------------|
F#-------------------------------------------------|
C#-14h-15--12h-14--10h-12--------------------------|
G#-------------------------12h-13--10h-12--8h--10--|
C#-------------------------------------------------|

Guitar 1
D#-------------------------------------------------|
A#-------------------------------------------------|
F#-------------------------------------------------|
C#-3p----0-----0-----0-----0-----0-----0-----0-----|
G#-3p----0-----0-----0-----0-----0-----0-----0-----|
C#-3p----0-----0-----0-----0-----0-----0-----0-----|
Pm             .     .     .     .     .     .

Guitar 2
D#-------------------------------------------------|
A#-------------------------------------------------|
F#-----------------------------14------------------|
C#-0---14p-0---10p-0---12p-0---------17--15--14----|
G#-------------------------------------------------|
C#-------------------------------------------------|

Guitar 1
D#-------------------------------------------------|
A#-------------------------------------------------|
F#-------------------------------------------------|
C#-0-----0-----0-----0-----5~~~~~~~~~~~~~~~~~~~~~~-|
G#-0-----0-----0-----0-----5~~~~~~~~~~~~~~~~~~~~~~-|
C#-0-----0-----0-----0-----5~~~~~~~~~~~~~~~~~~~~~~-|
Pm .     .     .     .

Guitar 2
D#-------------------------------------------------|
A#---------------------17*~~~~~~~~~~~~~~~p-15p-14--|
F#-14--19p-0---17p-0-------------------------------|
C#-------------------------------------------------|
G#-------------------------------------------------|
C#-------------------------------------------------|

Guitar 1
D#-------------------------------------------------|
A#-------------------------------------------------|
F#-------------------------------------------------|
C#-0~~~~~~~~~~-0-----0-----2-----3-----0-----0-----|
G#-0~~~~~~~~~~-0-----0-----2-----3-----0-----0-----|
C#-0~~~~~~~~~~-0-----0-----2-----3-----0-----0-----|
Pm             .     .                 .     .

Guitar 2
D#-------------------------------------------------|
A#-------------------------------------------------|
F#-------------------------------------------------|
C#-14~~~~~~~~~-15----15~~~~~~~~~~~~~~~~~~~~~-------|
G#-------------------------------------------------|
C#-------------------------------------------------|

Guitar 1
D#-------------------------------------------------|
A#-------------------------------------------------|
F#-------------------------------------------------|
C#-0-----0-----2-----3-----3-----0-----3-----0-----|
G#-0-----0-----2-----3-----3-----0-----3-----0-----|
C#-0-----0-----2-----3-----3-----0-----3-----0-----|
Pm .     .                       .           .

Guitar 2
D#--------------------------------------------------|
A#--------------------------------------------------|
F#-12~~~~~~~~~-14----12~~~~~~~~~--------------------|
C#-------------------------------15----14----15~~~~-|
G#--------------------------------------------------|
C#--------------------------------------------------|

Guitar 1
D#-------------------------------------------------|
A#-------------------------------------------------|
F#-------------------------------------------------|
C#-3p----0-----0-----0-----0-----0-----0-----0-----|
G#-3p----0-----0-----0-----0-----0-----0-----0-----|
C#-3p----0-----0-----0-----0-----0-----0-----0-----|
Pm             .     .     .     .     .     .

Guitar 2
D#--------------------------------------------------|
A#--------------------------------------------------|
F#-------------------------------14p-12p-10---------|
C#-~~~~~-----15p-14p-12----------------------14p-10-|
G#-------12--------------12h-13---------------------|
C#--------------------------------------------------|

Guitar 1
D#-------------------------------------------------|
A#-------------------------------------------------|
F#-------------------------------------------------|
C#-0-----0-----0-----0-----5~~~~~~~~~~~~~~~~~~~~~~-|
G#-0-----0-----0-----0-----5~~~~~~~~~~~~~~~~~~~~~~-|
C#-0-----0-----0-----0-----5~~~~~~~~~~~~~~~~~~~~~~-|
Pm .     .     .     .

Guitar 2
D#-----------14p-13p-11----------17h19-------------|
A#-------------------------------------18h19-16h18-|
F#-------14--------------14h-15--------------------|
C#-h-12--------------------------------------------|
G#-------------------------------------------------|
C#-------------------------------------------------|

Guitar 1
D#-------------------------------------------------|
A#-------------------------------------------------|
F#-------------------------------------------------|
C#-0~~~~~~~~~~-0-----0-----2-----3-----0-----0-----|
G#-0~~~~~~~~~~-0-----0-----2-----3-----0-----0-----|
C#-0~~~~~~~~~~-0-----0-----2-----3-----0-----0-----|
Pm             .     .                 .     .

Guitar 2
D#-------------17b~~~~~~~~~r~~~~~~~~~~--------------|
A#-16----------------------------------14b~~~~~~~~~-|
F#--------------------------------------------------|
C#--------------------------------------------------|
G#--------------------------------------------------|
C#--------------------------------------------------|

Guitar 1
D#-------------------------------------------------|
A#-------------------------------------------------|
F#-------------------------------------------------|
C#-0-----0-----2-----3-----3-----0-----3-----0-----|
G#-0-----0-----2-----3-----3-----0-----3-----0-----|
C#-0-----0-----2-----3-----3-----0-----3-----0-----|
Pm .     .                       .           .

Guitar 2
D#-------------------------------------------------|
A#-r~~~~~~~~~~-------------13h15p13p12-------------|
F#-------------------------------------10h12p10p9--|
C#-------------------------------------------------|
G#-------------------------------------------------|
C#-------------------------------------------------|

Guitar 1
D#-------------------------------------------------|
A#-------------------------------------------------|
F#-------------------------------------------------|
C#-3p----0-----0-----0-----0-----0-----0-----0-----|
G#-3p----0-----0-----0-----0-----0-----0-----0-----|
C#-3p----0-----0-----0-----0-----0-----0-----0-----|
Pm             .     .     .     .     .     .

Guitar 2
D#-------------------------------------------------|
A#-------------------------------------------------|
F#-10~~~~~~~~~-12----9~~~~~~~~~~-10----7~~~~~~~~~~-|
C#-------------------------------------------------|
G#-------------------------------------------------|
C#-------------------------------------------------|

Guitar 1
D#-------------------------------------------------|
A#-------------------------------------------------|
F#-------------------------------------------------|
C#-0-----0-----0-----0-----5~~~~~~~~~~~~~~~~~~~~~~-|
G#-0-----0-----0-----0-----5~~~~~~~~~~~~~~~~~~~~~~-|
C#-0-----0-----0-----0-----5~~~~~~~~~~~~~~~~~~~~~~-|
Pm .     .     .     .

Guitar 2
D#-------------------------------------------------|
A#-------------------------------------------------|
F#-------9-----10----9-----10~~~~~~~~~-9~~~~~~~~~~-|
C#-------------------------------------------------|
G#-------------------------------------------------|
C#-------------------------------------------------|

Bridge 1

Guitar 1 (Clean)
D#-----------------------------------------------------------------|
A#-----------------------------------------------------------------|
F#-------------2~~~~~~~~~~~~~~~~~~~~~~~~~~~~~~~~~~~~~~~~~~~~~~~~~~-|
C#---------0~~~~~~~~~~-3~~~~~~-0~~~~~~~~~~~~~~~~~~~~~~~~~~~~~~~~~~-|
G#-1~~~~~~~~~~~~~~-1~~~~~~-1~~~~~~-3~~~~~~~~~~~~~~~~~~~~~~~~~~~~~~-|
C#-----------------------------------------------------------------|

Guitar 2 (Clean)
D#-----------------------------------------------------------------|
A#-----------------------------------------------------------------|
F#-7~~~~~~~~~~~~~~~~~~~~~~~~~~~~~~~~~~~~~~~~~~~~~~~~~~~~~~~~~~~~~~~|
C#-----------------------------------------------------------------|
G#-----------------------------------------------------------------|
C#-----------------------------------------------------------------|

Guitar 1
D#-----------------------------------------------------------------|
A#-----------------------------------------------------------------|
F#-------------2~~~~~~~~~~~~~~~~~~~~~~~~~~~~~~~~~~~~~~~~~~~~~~~~~~-|
C#---------0~~~~~~~~~~-3~~~~~~-0~~~~~~~~~~~~~~~~~~~~~~~~~~~~~~~~~~-|
G#-1~~~~~~~~~~~~~~-1~~~~~~-1~~~~~~-3~~~~~~~~~~~~~~~~~~~~~~~~~~~~~~-|
C#-----------------------------------------0~~~~~~~~~~~~~~~~~~~~~~-|

Guitar 2
D#-----------------------------------------------------------------|
A#-----------------------------------------------------------------|
F#-~~~~~~~~~~~~~~~~~~~~~~~~~~~~~~~~~~~~~~~~~~~~~~~-9~~~~~~~~~~~~~~-|
C#-----------------------------------------------------------------|
G#-----------------------------------------------------------------|
C#-----------------------------------------------------------------|

Guitar 1
D#-----------------------------------------------------------------|
A#-------------1~~~~~~-3~~~~~~~------------------------------------|
F#---------------------------------2~~~~~~-0~~~~~~-2~~~~~~-3~~~~~~-|
C#---------3~~~~~~~~~~~~~~~~~~-0~~~~~~~~~~~~~~~~~~~~~~~~~~~~~~~~~~-|
G#-1~~~~~~~~~~~~~~~~~~~~~~~~~~-0~~~~~~~~~~~~~~~~~~~~~~~~~~~~~~~~~~-|
C#-----------------------------0~~~~~~~~~~~~~~~~~~~~~~~~~~~~~~~~~~-|

Guitar 2
D#-----------------------------------------------------------------|
A#-----------------------------------------------------------------|
F#-7~~~~~~~~~~~~~~~~~~~~~~~~~~~~~~~~~~~~~~~~~~~~~~~~~~~~~~~~~~~~~~~|
C#-----------------------------------------------------------------|
G#-----------------------------------------------------------------|
C#-----------------------------------------------------------------|

Guitar 1 & 2 (Distorted)
D#-----------------------------------------------------------------|
A#-----------------------------------------------------------------|
F#-7~~~~~~~~~~~~~~-8~~~~~~~~~~~~~~-7~~~~~~~~~~~~~~-5~~~~~~~~~~~~~~-|
C#-7~~~~~~~~~~~~~~-8~~~~~~~~~~~~~~-7~~~~~~~~~~~~~~-5~~~~~~~~~~~~~~-|
G#-5~~~~~~~~~~~~~~-6~~~~~~~~~~~~~~-5~~~~~~~~~~~~~~-3~~~~~~~~~~~~~~-|
C#-----------------------------------------------------------------|

Guitar 3
D#-----------------------------------------------------------------|
A#-14~~~~~~~~~~~~~-15~~~~~~~~~~~~~-14~~~~~~~~~~~~~-12~~~~~~~~~~~~~-|
F#-----------------------------------------------------------------|
C#-----------------------------------------------------------------|
G#-----------------------------------------------------------------|
C#-----------------------------------------------------------------|

Pre Chorus 3

Guitar 1 & 2
D#-----------------------------------------------------------------|
A#-----------------------------------------------------------------|
F#-----------------------------------------------------------------|
C#-------------7~~~~~~---------------------------------------------|
G#-----3---5-----------8------/7~~~~~~~~~~-3~~~~~~-3~~~~~~~~~~~~~~-|
C#-0-----------------------0---------------------------------------|
Pm .   .   .               .

Guitar 3
D#-----------------------------------------------------------------|
A#-----------------------------------------------------------------|
F#-7~~~~~~~~~~~~~~~~~~~~~~~~~~~~~~~~~~~~~~~~~~~~~~-9~~~~~~~~~~~~~~-|
C#-----------------------------------------------------------------|
G#-----------------------------------------------------------------|
C#-----------------------------------------------------------------|

Guitar 1 & 2
D#-----------------------------------------------------------------|
A#-----------------------------------------------------------------|
F#-----------------------------------------------------------------|
C#-------------7~~~~~~---------------------------------------------|
G#-----3---5-----------8------/7~~~~~~~~~~-3~~~~~~-3~~~~~~~~~~~~~~-|
C#-0-----------------------0---------------------------------------|
Pm .   .   .               .

Guitar 3
D#-----------------------------------------------------------------|
A#-----------------------------------------------------------------|
F#-10~~~~~~~~~~~~~~~~~~~~~~~~~~~~~~~~~~~~~~~~~~~~~-12~~~~~~~~~~~~~-|
C#-----------------------------------------------------------------|
G#-----------------------------------------------------------------|
C#-----------------------------------------------------------------|

Guitar 1
D#-----------------------------------------------------------------|
A#-----------------------------------------------------------------|
F#-------------5~~~~~~-7-------------------------------------------|
C#-------------------------0---7~~~~~~~~~~-5~~~~~~-7~~~~~~-8~~~~~~-|
G#-----7---8-------------------------------------------------------|
C#-0---------------------------------------------------------------|
Pm .   .   .               .

Guitar 2
D#-----------------------------------------------------------------|
A#-----------------------------------------------------------------|
F#-------------9~~~~~~-10------9~~~~~~~~~~-10~~~~~-5~~~~~~-7~~~~~~-|
C#-------------------------0---------------------------------------|
G#-----7---8-------------------------------------------------------|
C#-0---------------------------------------------------------------|
Pm .   .   .               .

Guitar 3
D#-----------------------------------------------------------------|
A#-----------------------------------------------------------------|
F#-14~~~~~~~~~~~~~~~~~~~~~~~~~~~~~~~~~~~~~~~~~~~~~~~~~~~~~~~~~~~~~-|
C#-----------------------------------------------------------------|
G#-----------------------------------------------------------------|
C#-----------------------------------------------------------------|

Guitar 1 & 2
D#-----------------------------------------------------------------|
A#-----------------------------------------------------------------|
F#-----------------------------------------------------------------|
C#-0~~~~~~--------1~~~~~~--------0~~~~~~---------------------------|
G#-0~~~~~~--------1~~~~~~--------0~~~~~~---------------------------|
C#-0~~~~~~--------1~~~~~~--------0~~~~~~---------------------------|

Chorus

Guitar 1
D#-----------------------------------------------------------------|
A#-----------------------------------------------------------------|
F#-----------------------------------------------------------------|
C#-0~~~~~~~~~~~~~~~~~~~~~~~~~~~~~~~~~~~~~~~~~~~~~~~~~~~~~~~~~~~~~~~|
G#-0~~~~~~~~~~~~~~~~~~~~~~~~~~~~~~~~~~~~~~~~~~~~~~~~~~~~~~~~~~~~~~~|
C#-0~~~~~~~~~~~~~~~~~~~~~~~~~~~~~~~~~~~~~~~~~~~~~~~~~~~~~~~~~~~~~~~|

Guitar 2 & 3
D#-----------------------------------------------------------------|
A#-----------------------------------------------------------------|
F#-7---7---7---7---7---7---7---7---14--14--14--14--10--10--10--10--|
C#-x---x---x---x---x---x---x---x---x---x---x---x---x---x---x---x---|
G#-5---5---5---5---5---5---5---5---12--12--12--12--8---8---8---8---|
C#-----------------------------------------------------------------|

Guitar 1
D#-----------------------------------------------------------------|
A#-----------------------------------------------------------------|
F#-----------------------------------------------------------------|
C#-8~~~~~~~~~~~~~~~~~~~~~~~~~~~~~~~~~~~~~~~~~~~~~~~~~~~~~~~~~~~~~~~|
G#-8~~~~~~~~~~~~~~~~~~~~~~~~~~~~~~~~~~~~~~~~~~~~~~~~~~~~~~~~~~~~~~~|
C#-8~~~~~~~~~~~~~~~~~~~~~~~~~~~~~~~~~~~~~~~~~~~~~~~~~~~~~~~~~~~~~~~|

Guitar 2 & 3
D#-----------------------------------------------------------------|
A#-----------------------------------------------------------------|
F#-9---9---9---9---9---9---9---9---7---7---7---7---7---7---7---7---|
C#-x---x---x---x---x---x---x---x---x---x---x---x---x---x---x---x---|
G#-7---7---7---7---7---7---7---7---5---5---5---5---5---5---5---5---|
C#-----------------------------------------------------------------|

Guitar 1
D#-----------------------------------------------------------------|
A#-----------------------------------------------------------------|
F#-----------------------------------------------------------------|
C#-3~~~~~~~~~~~~~~~~~~~~~~~~~~~~~~~~~~~~~~~~~~~~~~~~~~~~~~~~~~~~~~~|
G#-3~~~~~~~~~~~~~~~~~~~~~~~~~~~~~~~~~~~~~~~~~~~~~~~~~~~~~~~~~~~~~~~|
C#-3~~~~~~~~~~~~~~~~~~~~~~~~~~~~~~~~~~~~~~~~~~~~~~~~~~~~~~~~~~~~~~~|

Guitar 2 & 3
D#-----------------------------------------------------------------|
A#-----------------------------------------------------------------|
F#-5---5---5---5---5---5---5---5---14--14--14--14--15--15--15--15--|
C#-x---x---x---x---x---x---x---x---x---x---x---x---x---x---x---x---|
G#-3---3---3---3---3---3---3---3---12--12--12--12--13--13--13--13--|
C#-----------------------------------------------------------------|

Guitar 1
D#-----------------------------------------------------------------|
A#-----------------------------------------------------------------|
F#-----------------------------------------------------------------|
C#-10~~~~~~~~~~~~~~~~~~~~~~~~~~~~~~~~~~~~~~~~~~~~~~~~~~~~~~~~~~~~~~|
G#-10~~~~~~~~~~~~~~~~~~~~~~~~~~~~~~~~~~~~~~~~~~~~~~~~~~~~~~~~~~~~~~|
C#-10~~~~~~~~~~~~~~~~~~~~~~~~~~~~~~~~~~~~~~~~~~~~~~~~~~~~~~~~~~~~~~|

Guitar 2 & 3
D#-----------------------------------------------------------------|
A#-----------------------------------------------------------------|
F#-14--14--14--14--14--14--14--14--12--12--12--12--12--12--12--12--|
C#-x---x---x---x---x---x---x---x---x---x---x---x---x---x---x---x---|
G#-12--12--12--12--12--12--12--12--10--10--10--10--10--10--10--10--|
C#-----------------------------------------------------------------|

Guitar 1
D#-----------------------------------------------------------------|
A#-----------------------------------------------------------------|
F#-----------------------------------------------------------------|
C#-0~~~~~~~~~~~~~~~~~~~~~~~~~~~~~~~~~~~~~~~~~~~~~~~~~~~~~~~~~~~~~~~|
G#-0~~~~~~~~~~~~~~~~~~~~~~~~~~~~~~~~~~~~~~~~~~~~~~~~~~~~~~~~~~~~~~~|
C#-0~~~~~~~~~~~~~~~~~~~~~~~~~~~~~~~~~~~~~~~~~~~~~~~~~~~~~~~~~~~~~~~|

Guitar 2
D#-----------------------------------------------------------------|
A#-----------------------------------------------------------------|
F#-7---7---7---7---7---7---7---7---14--14--14--14--10--10--10--10--|
C#-x---x---x---x---x---x---x---x---x---x---x---x---x---x---x---x---|
G#-5---5---5---5---5---5---5---5---12--12--12--12--8---8---8---8---|
C#-----------------------------------------------------------------|

Guitar 3
D#-----------------------------------------------------------------|
A#-----------------------------------------------------------------|
F#-10--10--10--10--10--10--10--10--17--17--17--17--14--14--14--14--|
C#-x---x---x---x---x---x---x---x---x---x---x---x---x---x---x---x---|
G#-8---8---8---8---8---8---8---8---15--15--15--15--12--12--12--12--|
C#-----------------------------------------------------------------|

Guitar 1
D#-----------------------------------------------------------------|
A#-----------------------------------------------------------------|
F#-----------------------------------------------------------------|
C#-8~~~~~~~~~~~~~~~~~~~~~~~~~~~~~~~~~~~~~~~~~~~~~~~~~~~~~~~~~~~~~~~|
G#-8~~~~~~~~~~~~~~~~~~~~~~~~~~~~~~~~~~~~~~~~~~~~~~~~~~~~~~~~~~~~~~~|
C#-8~~~~~~~~~~~~~~~~~~~~~~~~~~~~~~~~~~~~~~~~~~~~~~~~~~~~~~~~~~~~~~~|

Guitar 2
D#-----------------------------------------------------------------|
A#-----------------------------------------------------------------|
F#-9---9---9---9---9---9---9---9---7---7---7---7---7---7---7---7---|
C#-x---x---x---x---x---x---x---x---x---x---x---x---x---x---x---x---|
G#-7---7---7---7---7---7---7---7---5---5---5---5---5---5---5---5---|
C#-----------------------------------------------------------------|

Guitar 3
D#-----------------------------------------------------------------|
A#-----------------------------------------------------------------|
F#-12--12--12--12--12--12--12--12--10--10--10--10--10--10--10--10--|
C#-x---x---x---x---x---x---x---x---x---x---x---x---x---x---x---x---|
G#-10--10--10--10--10--10--10--10--8---8---8---8---8---8---8---8---|
C#-----------------------------------------------------------------|

Guitar 1
D#-----------------------------------------------------------------|
A#-----------------------------------------------------------------|
F#-----------------------------------------------------------------|
C#-3~~~~~~~~~~~~~~~~~~~~~~~~~~~~~~~~~~~~~~~~~~~~~~~~~~~~~~~~~~~~~~~|
G#-3~~~~~~~~~~~~~~~~~~~~~~~~~~~~~~~~~~~~~~~~~~~~~~~~~~~~~~~~~~~~~~~|
C#-3~~~~~~~~~~~~~~~~~~~~~~~~~~~~~~~~~~~~~~~~~~~~~~~~~~~~~~~~~~~~~~~|

Guitar 2
D#-----------------------------------------------------------------|
A#-----------------------------------------------------------------|
F#-5---5---5---5---5---5---5---5---14--14--14--14--15--15--15--15--|
C#-x---x---x---x---x---x---x---x---x---x---x---x---x---x---x---x---|
G#-3---3---3---3---3---3---3---3---12--12--12--12--13--13--13--13--|
C#-----------------------------------------------------------------|

Guitar 3
D#-----------------------------------------------------------------|
A#-----------------------------------------------------------------|
F#-10--10--10--10--10--10--10--10--17--17--17--17--14--14--14--14--|
C#-x---x---x---x---x---x---x---x---x---x---x---x---x---x---x---x---|
G#-8---8---8---8---8---8---8---8---15--15--15--15--12--12--12--12--|
C#-----------------------------------------------------------------|

Guitar 1
D#-----------------------------------------------------------------|
A#-----------------------------------------------------------------|
F#-----------------------------------------------------------------|
C#-10~~~~~~~~~~~~~~~~~~~~~~~~~~~~~~~~~~~~~~~~~~~~~~~~~~~~~~~~~~~~~~|
G#-10~~~~~~~~~~~~~~~~~~~~~~~~~~~~~~~~~~~~~~~~~~~~~~~~~~~~~~~~~~~~~~|
C#-10~~~~~~~~~~~~~~~~~~~~~~~~~~~~~~~~~~~~~~~~~~~~~~~~~~~~~~~~~~~~~~|

Guitar 2
D#-----------------------------------------------------------------|
A#-----------------------------------------------------------------|
F#-14--14--14--14--14--14--14--14--12--12--12--12--12--12--12--12--|
C#-x---x---x---x---x---x---x---x---x---x---x---x---x---x---x---x---|
G#-12--12--12--12--12--12--12--12--10--10--10--10--10--10--10--10--|
C#-----------------------------------------------------------------|

Guitar 3
D#-----------------------------------------------------------------|
A#-----------------------------------------------------------------|
F#-12--12--12--12--12--12--12--12--12--12--12--12--12--12--12--12--|
C#-x---x---x---x---x---x---x---x---x---x---x---x---x---x---x---x---|
G#-10--10--10--10--10--10--10--10--10--10--10--10--10--10--10--10--|
C#-----------------------------------------------------------------|

Interlude

Guitar 1
D#-----------------------------------------------------------------|
A#-----------------------------------------------------------------|
F#-----------------------------------------------------------------|
C#-0~~~~~~-0---0---0---0---0---0---0---0---0---0---3~~~~~~~~~~~~~~-|
G#-0~~~~~~-0---0---0---0---0---0---0---0---0---0---3~~~~~~~~~~~~~~-|
C#-0~~~~~~-0---0---0---0---0---0---0---0---0---0---3~~~~~~~~~~~~~~-|
Pm         .   .   .   .   .   .   .   .   .   .

Guitar 2
D#------------------------------------------------------------------|
A#------------------------------------------------------------------|
F#-7~~~~~~~~~~~~~~~~~~~~~~~~~~~~~~~~~~~~~~~~~~~~~~-14~~~~~-12~~~~~~-|
C#------------------------------------------------------------------|
G#------------------------------------------------------------------|
C#------------------------------------------------------------------|

Guitar 3
D#------------------------------------------------------------------|
A#------------------------------------------------------------------|
F#-5~~~~~~~~~~~~~~~~~~~~~~~~~~~~~~~~~~~~~~~~~~~~~~-10~~~~~-9~~~~~~~-|
C#------------------------------------------------------------------|
G#------------------------------------------------------------------|
C#------------------------------------------------------------------|

Guitar 1
D#-----------------------------------------------------------------|
A#-----------------------------------------------------------------|
F#-----------------------------------------------------------------|
C#-8~~~~~~~~~~~~~~~~~~~~~~~~~~~~~~-7~~~~~~~~~~~~~~-5~~~~~~~~~~~~~~-|
G#-8~~~~~~~~~~~~~~~~~~~~~~~~~~~~~~-7~~~~~~~~~~~~~~-5~~~~~~~~~~~~~~-|
C#-8~~~~~~~~~~~~~~~~~~~~~~~~~~~~~~-7~~~~~~~~~~~~~~-5~~~~~~~~~~~~~~-|

Guitar 2
D#-----------------------------------------------------------------|
A#-----------------------------------------------------------------|
F#-~~~~~~~~~~~~~~~-10~~~~~~-9~~~~~~~~~~~~~~~~~~~~~-5~~~~~~-7~~~~~~-|
C#-----------------------------------------------------------------|
G#-----------------------------------------------------------------|
C#-----------------------------------------------------------------|

Guitar 3
D#-----------------------------------------------------------------|
A#-----------------------------------------------------------------|
F#-~~~~~~~~~~~~~~~-7~~~~~~~-5~~~~~~~~~~~~~~~~~~~~~-5~~~~~~-7~~~~~~-|
C#-----------------------------------------------------------------|
G#-----------------------------------------------------------------|
C#-----------------------------------------------------------------|

Guitar 1
D#-----------------------------------------------------------------|
A#-----------------------------------------------------------------|
F#-----------------------------------------------------------------|
C#-0~~~~~~-0---0---0---0---0---0---0---0---0---0---3~~~~~~~~~~~~~~-|
G#-0~~~~~~-0---0---0---0---0---0---0---0---0---0---3~~~~~~~~~~~~~~-|
C#-0~~~~~~-0---0---0---0---0---0---0---0---0---0---3~~~~~~~~~~~~~~-|
Pm         .   .   .   .   .   .   .   .   .   .

Guitar 2
D#-----------------------------------------------------------------|
A#-----------------------------------------------------------------|
F#-14~~~~~~~~~~~~~~~~~~~~~~~~~~~~~~~~~~~~~~~~~~~~~-14--15--15--15--|
C#-----------------------------------------------------------------|
G#-----------------------------------------------------------------|
C#-----------------------------------------------------------------|

Guitar 3
D#-----------------------------------------------------------------|
A#-----------------------------------------------------------------|
F#-10~~~~~~~~~~~~~~~~~~~~~~~~~~~~~~~~~~~~~~~~~~~~~~~~~~~~~~~~~~~~~-|
C#-----------------------------------------------------------------|
G#-----------------------------------------------------------------|
C#-----------------------------------------------------------------|

Guitar 1
D#-----------------------------------------------------------------|
A#-----------------------------------------------------------------|
F#-----------------------------------------------------------------|
C#-8~~~~~~~~~~~~~~~~~~~~~~~~~~~~~~-7~~~~~~~~~~~~~~-5~~~~~~~~~~~~~~-|
G#-8~~~~~~~~~~~~~~~~~~~~~~~~~~~~~~-7~~~~~~~~~~~~~~-5~~~~~~~~~~~~~~-|
C#-8~~~~~~~~~~~~~~~~~~~~~~~~~~~~~~-7~~~~~~~~~~~~~~-5~~~~~~~~~~~~~~-|

Guitar 2
D#-----------------------------------------------------------------|
A#-----------------------------------------------------------------|
F#-14~~~~~~~~~~~~~~~~~~~~~~~~~~~~~-12~~~~~~~~~~~~~~~~~~~~~~~~~~~~~-|
C#-----------------------------------------------------------------|
G#-----------------------------------------------------------------|
C#-----------------------------------------------------------------|

Guitar 3
D#-----------------------------------------------------------------|
A#-----------------------------------------------------------------|
F#-10~~~~~~~~~~~~~~~~~~~~~~~~~~~~~-9~~~~~~~~~~~~~~~~~~~~~~~~~~~~~~-|
C#-----------------------------------------------------------------|
G#-----------------------------------------------------------------|
C#-----------------------------------------------------------------|

Guitar 1
D#-----------------------------------------------------------------|
A#-----------------------------------------------------------------|
F#-----------------------------------------------------------------|
C#-0~~~~~~-0---0---0---0---0---0---0---0---0---0---3~~~~~~~~~~~~~~-|
G#-0~~~~~~-0---0---0---0---0---0---0---0---0---0---3~~~~~~~~~~~~~~-|
C#-0~~~~~~-0---0---0---0---0---0---0---0---0---0---3~~~~~~~~~~~~~~-|
Pm         .   .   .   .   .   .   .   .   .   .

Guitar 2
D#------------------------------------------------------------------|
A#------------------------------------------------------------------|
F#-7~~~~~~~~~~~~~~~~~~~~~~~~~~~~~~~~~~~~~~~~~~~~~~-14~~~~~-12~~~~~~-|
C#------------------------------------------------------------------|
G#------------------------------------------------------------------|
C#------------------------------------------------------------------|

Guitar 3
D#------------------------------------------------------------------|
A#------------------------------------------------------------------|
F#-5~~~~~~~~~~~~~~~~~~~~~~~~~~~~~~~~~~~~~~~~~~~~~~-10~~~~~-9~~~~~~~-|
C#------------------------------------------------------------------|
G#------------------------------------------------------------------|
C#------------------------------------------------------------------|

Guitar 1
D#-----------------------------------------------------------------|
A#-----------------------------------------------------------------|
F#-----------------------------------------------------------------|
C#-8~~~~~~~~~~~~~~~~~~~~~~~~~~~~~~-7~~~~~~~~~~~~~~-5~~~~~~~~~~~~~~-|
G#-8~~~~~~~~~~~~~~~~~~~~~~~~~~~~~~-7~~~~~~~~~~~~~~-5~~~~~~~~~~~~~~-|
C#-8~~~~~~~~~~~~~~~~~~~~~~~~~~~~~~-7~~~~~~~~~~~~~~-5~~~~~~~~~~~~~~-|

Guitar 2
D#-----------------------------------------------------------------|
A#-----------------------------------------------------------------|
F#-~~~~~~~~~~~~~~~-10~~~~~~-9~~~~~~~~~~~~~~~~~~~~~-5~~~~~~-7~~~~~~-|
C#-----------------------------------------------------------------|
G#-----------------------------------------------------------------|
C#-----------------------------------------------------------------|

Guitar 3
D#-----------------------------------------------------------------|
A#-----------------------------------------------------------------|
F#-~~~~~~~~~~~~~~~-7~~~~~~~-5~~~~~~~~~~~~~~~~~~~~~-5~~~~~~-7~~~~~~-|
C#-----------------------------------------------------------------|
G#-----------------------------------------------------------------|
C#-----------------------------------------------------------------|

Guitar 1
D#-----------------------------------------------------------------|
A#-----------------------------------------------------------------|
F#-----------------------------------------------------------------|
C#-0~~~~~~-0---0---0---0---0---0---0---0---0---0---3~~~~~~~~~~~~~~-|
G#-0~~~~~~-0---0---0---0---0---0---0---0---0---0---3~~~~~~~~~~~~~~-|
C#-0~~~~~~-0---0---0---0---0---0---0---0---0---0---3~~~~~~~~~~~~~~-|
Pm         .   .   .   .   .   .   .   .   .   .

Guitar 2
D#-----------------------------------------------------------------|
A#-----------------------------------------------------------------|
F#-14~~~~~~~~~~~~~~~~~~~~~~~~~~~~~~~~~~~~~~~~~~~~~~~~~~~~~~~~~~~~~-|
C#-----------------------------------------------------------------|
G#-----------------------------------------------------------------|
C#-----------------------------------------------------------------|

Guitar 3
D#-----------------------------------------------------------------|
A#-----------------------------------------------------------------|
F#-10~~~~~~~~~~~~~~~~~~~~~~~~~~~~~~~~~~~~~~~~~~~~~~~~~~~~~~~~~~~~~-|
C#-----------------------------------------------------------------|
G#-----------------------------------------------------------------|
C#-----------------------------------------------------------------|

Guitar 2
D#-----------------------------------------------------------------|
A#-----------------------------------------------------------------|
F#-14~~~~~~~~~~~~~~~~~~~~~~~~~~~~~-12~~~~~~~~~~~~~~~~~~~~~~~~~~~~~-|
C#-----------------------------------------------------------------|
G#-----------------------------------------------------------------|
C#-----------------------------------------------------------------|

Guitar 3
D#-----------------------------------------------------------------|
A#-----------------------------------------------------------------|
F#-10~~~~~~~~~~~~~~~~~~~~~~~~~~~~~-9~~~~~~~~~~~~~~~~~~~~~~~~~~~~~~~|
C#-----------------------------------------------------------------|
G#-----------------------------------------------------------------|
C#-----------------------------------------------------------------|

Guitar 1
D#-----------------------------------------------------------------|
A#-----------------------------------------------------------------|
F#-------------------------------------------------5~~~~~~~~~~~~~~-|
C#-0~~~~~~-0---0---2---3---0---0---0---0---2---3---5~~~~~~~~~~~~~~-|
G#-0~~~~~~-0---0---2---3---0---0---0---0---2---3---3~~~~~~~~~~~~~~-|
C#-0~~~~~~-0---0---2---3---0---0---0---0---2---3-------------------|
Pm         .   .           .   .   .   .

Guitar 2
D#-----------------------------------------------------------------|
A#-----------------------------------------------------------------|
F#-7~~~~~~-----------------------------------------5~~~~~~~~~~~~~~-|
C#-7~~~~~~-0---0---2---3---0---0---0---0---3---5---5~~~~~~~~~~~~~~-|
G#-5~~~~~~-----------------------------------------3~~~~~~~~~~~~~~-|
C#-----------------------------------------------------------------|
Pm         .   .           .   .   .   .

Guitar 3
D#-----------------------------------------------------------------|
A#-----------------------------------------------------------------|
F#-~~~~~~~~~~~~~~~~~~~~~~~~~~~~~~~---------------------------------|
C#-----------------------------------------------------------------|
G#-----------------------------------------------------------------|
C#-----------------------------------------------------------------|

Guitar 1 & 2
D#-----------------------------------------------------------------|
A#-----------------------------------------------------------------|
F#-----------------------------------------------------------------|
C#-0~~~~~~~~~~~~~~~~~~~~~~~~~~~~~~~~~~~~~~~~~~~~~~~~~~~~~~~~~~~~~~~|
G#-0~~~~~~~~~~~~~~~~~~~~~~~~~~~~~~~~~~~~~~~~~~~~~~~~~~~~~~~~~~~~~~~|
C#-0~~~~~~~~~~~~~~~~~~~~~~~~~~~~~~~~~~~~~~~~~~~~~~~~~~~~~~~~~~~~~~~|

Guitar 1 & 2
D#-----------------------------------------------------------------|
A#-----------------------------------------------------------------|
F#-----------------------------------------------------------------|
C#-~~~~~~~~~~~~~~~~~~~~~~~~~~~~~~~~~~~~~~~~~~~~~~~~~~~~~~~~~~~~~~~~|
G#-~~~~~~~~~~~~~~~~~~~~~~~~~~~~~~~~~~~~~~~~~~~~~~~~~~~~~~~~~~~~~~~~|
C#-~~~~~~~~~~~~~~~~~~~~~~~~~~~~~~~~~~~~~~~~~~~~~~~~~~~~~~~~~~~~~~~~|

Tab Legend
h  -  hammer-on
p  -  pull-off
/  -  slide up
\  -  slide down
ps/-  pickslide up
ps\-  pickslide down
~  -  let ring
pm.-  palm mute
b  -  bend
r  -  return from bend
*  -  harmonic
x  -  dead note
^  -  Whammy bar
^\ -  Whammy bar (hold down)

There you go! Tabbing the solo might be hard to follow because I had to make the lines
to keep it in the beat. Still, I feel like I did well on this tab. Tell me how it was, oh
one last thing... ROCK OUT!!!!
comments
print report bad tab
3 comments total.
0 reply
Cmnoname wrote on January 30 2014, 11:29 pm

sounds ok, layouts hard to follow though

0 reply
thefish79 wrote on May 12 2014, 03:58 pm

How is it hard to follow?

0 reply
thefish79 wrote on May 12 2014, 03:56 pm, edited at 03:58 pm

I disagree with Cmnoname, the tab is great! I don't understand why he finds it hard to follow. You have this pretty much 100% accurate. The only thing you could've done to make it better would be to assign note values. But you can figure that out by listening to the song, so that's not even a big deal. Great job!!

I want to post or [tab]
guest
You may want to rate the tab now too:
select rating
Please do not post tabs as comments. Select "correction" instead!