Oops, an error
Loading. Please wait.

The Last Time Tab

ver2
ver2

Solo

Whole song

Interactive

More versions @911Tabs.com
2,905 views 1 this week
1 commentread comment
1 2 3 4 5
worth learning
x 2
Autoscroll
+/-
esc
set tempo
stop
Contributor
Difficulty
Tuning
intermediate
C# G# C# F# A# D#
Hey! There's an official Ultimate Guitar app which is ideal
for learning songs when you're away from computer. Get the app
WARNING: You are trying to view
                                    content from Ultimate-Guitar.com
                                    in an unauthorized application,
                                    which is prohibited.

                                    Please use an official Ultimate
                                    Guitar Tabs application for iPhone,
                                    iPad or Android to access legitimate
                                    chords, guitar, bass, and drum tabs
                                    from Ultimate-Guitar.com database.

                                    Type "ultimate guitar tabs" in Apple
                                    App Store's or Android Market's
                                    search to find the application.
All that Remains!
Tabbed by: Mike Gillis (mike3oo)
Tuning: C# F# B E G# C#



Guitar#1 INTRO (0:00-0:18)
C#|-------------------------------------------------------------------------|
G#|-------------------------------------------------------------------------|
E |-------------------------------------------------------------------------|
B |----9-----------------9-10-9-7-------12----------------9-10-9-7----------|
F#|------10-9---7-10-7------------10------10-9---7-10-7---------------------|
C#|-------------------------------------------------------------------------|


Guitar#2 INTRO
C#|-------------------------------------------------------------------------|
G#|-------------------------------------------------------------------------|
E |-------------------------------------------------------------------------|
B |-9-------7---9-12-9--------5-7-9----------7---9-12-9--------5-7----------|
F#|-7-------5---7-10-7--------3-5-7----------5---7-10-7--------3-5----------|
C#|-------------------------------------------------------------------------|



(0:19-0:25)
C#|--------------------------------------------------------|
G#|--------------------------------------------------------|
E |--------------------------------------------------------|
B |--------9-5--------------------------9-5----------------|
F#|-7-9-10-----9-7-7-9-9>10------7-9-10-----9-7-7-9-9>10---|
C#|--------------------------------------------------------|


C#|-------------------------------|
G#|-------------------------------|
E |--------7-7>9------------------|
B |--------------9-7---9-9-9-9-9--|
F#|-7-9-10-----------7-7-7-7-7-7--|
C#|-------------------------------|



(0:26-0:39)
C#|-------------------------------------------------------------|
G#|-------------------------------------------------------------|
E |-------------------------------------------------------------|
B |-----9-----7p5-----------------------5-----7p5---------------|
F#|-7-7-7-7-7------7-7-777-777-777--7-7-7-7-7-----7-7-777-777---|
C#|-------------------------------------------------------------|


C#|-------------------------------------------------------------------------|
G#|-------------------------------------------------------------------------|
E |-----------------------------------7-7>9---------------------------------|
B |--------9-5------------------------------9-7---9-9-9-9-9-----------------|
F#|-7-9-10-----9-7-7-9-9>10----7-9-10-----------7-7-7-7-7-7-----------------|
C#|-------------------------------------------------------------------------|


C#|-------------------------------------------------------------|
G#|-------------------------------------------------------------|
E |-------------------------------------------------------------|
B |-----9-----7p5-----------------------5-----7p5---------------|
F#|-7-7-7-7-7------7-7-777-777-777--7-7-7-7-7-----7-7-777-777---|
C#|-------------------------------------------------------------|



Guitar#1 (0:40-0:48)
C#|-------------------------------------------------------------------------|
G#|-------------------------------------------------------------------------|
E |----------------------------------------------------11-11>12-11----------|
B |--------9-5-------------------9-5-------------------------------12-10-9--|
F#|-7-9-10------7>9-5-9---7-9-10------7>9-5-9---7-9-10----------------------|
C#|-------------------------------------------------------------------------|


Guitar#2
C#|-------------------------------------------------------------------------|
G#|-------------------------------------------------------------------------|
E |-9-----------11-------12----------------14--16---------------------------|
B |-------------------------------------------------------------------------|
F#|-------------------------------------------------------------------------|
C#|-------------------------------------------------------------------------|


Guitar#2
C#|-----------|
G#|-----------|
E |-----------|
B |-9-10-9-7--|
F#|-7-8--7-5--|
C#|-----------|



Guitar#1 (0:49-0:58)
C#|-------------------------------------------------------------------------|
G#|-------------------------------------------------------------------------|
E |----------------------------------------------------11-11>12-11----------|
B |--------9-5-------------------9-5-------------------------------12-10-9--|
F#|-7-9-10------7>9-5-9---7-9-10------7>9-5-9---7-9-10----------------------|
C#|-------------------------------------------------------------------------|


Guitar#2
C#|-------------------------------------------------------------------------|
G#|-------------------------------------------------------------------------|
E |-9-----------11-------12----------------14--16---------------------------|
B |-------------------------------------------------------------------------|
F#|-------------------------------------------------------------------------|
C#|-------------------------------------------------------------------------|


C#|-------------------------------------------------------------------------|
G#|-------------------------------------------------------------------------|
E |-------------------------------------------------------------------------|
B |-9p7----7p5-----9-9-9-9-9--12-12-12-12-12--------------------------------|
F#|----------------7-7-7-7-7--10-10-10-10-10--------------------------------|
C#|-----00-----00-----------------------------------------------------------|



(0:58-1:16)
C#|-------------------------------------------------------------------------|
G#|-------------------------------------------------------------------------|
E |-------------------------------------------------------------------------|
B |-14-14-14-14-14-14-14-14-16-16-16-16-17-17-17-17-16-16-16-16-16-16-16-16-|
F#|-------------------------------------------------------------------------|
C#|-------------------------------------------------------------------------|


C#|-------------------------------------------------------------------------|
G#|-------------------------------------------------------------------------|
E |-------------------------------------------------16-16-16-16-17-17-17-17-|
B |-14-14-14-14-14-14-14-14-------------------------------------------------|
F#|-------------------------17-17-17-17-17-17-17-17-------------------------|
C#|-------------------------------------------------------------------------|


C#|-------------------------------------------------------------------------|
G#|-------------------------------------------------------------------------|
E |-16-16-16-16-16-16-16-16-14-14-14-14-14-14-14-14-12-12-12-12-12-12-12-12-|
B |-------------------------------------------------------------------------|
F#|-------------------------------------------------------------------------|
C#|-------------------------------------------------------------------------|


C#|-------------------------------------------------------------------------|
G#|-15-15-15-15-12-12-12-12-------------------------------------------------|
E |-------------------------14-14-14-14-14-14-14-14-12-12-12-12-12-12-12-12-|
B |-------------------------------------------------------------------------|
F#|-------------------------------------------------------------------------|
C#|-------------------------------------------------------------------------|


C#|-------------------------------------------------------------------------|
G#|-------------------------------------------------------------------------|
E |-12-12-12-12-12-12-12-12-16-16-16-16-17-17-17-17-16-16-16-16-16-16-16-16-|
B |-------------------------------------------------------------------------|
F#|-------------------------------------------------------------------------|
C#|-------------------------------------------------------------------------|


C#|-------------------------|
G#|-------------------------|
E |-14-14-14-14-14-14-14-14-|
B |-------------------------|
F#|-------------------------|
C#|-------------------------|



(1:17-1:33)
C#|--------------------------|
G#|--------------------------|
E |--------------------------|
B |--------9-5---------------|
F#|-7-9-10-----9-7-7-9-9>10--|
C#|--------------------------|


C#|-------------------------------------------------------------|
G#|-------------------------------------------------------------|
E |-------------------------------------------------------------|
B |-9-----9-----7p5----------------------5-----7p5--------------|
F#|-7-7-7-7-7-7-----7-7-777-777-777--7-7-7-7-7-----7-7-777-777--|
C#|-------------------------------------------------------------|


C#|-------------------------------------------------------------------------|
G#|-------------------------------------------------------------------------|
E |-----------------------------------11-11>12-11---------------------------|
B |--------9-5------------------------------------12---9-9-9-9-9------------|
F#|-7-9-10-----9-7-7-9-9>10----7-9-10----------------7-7-7-7-7-7------------|
C#|-------------------------------------------------------------------------|


C#|-------------------------------------------------------------|
G#|-------------------------------------------------------------|
E |----------------------------------------------------PICK-----|
B |-9-----9-----7p5----------------------5-----7p5-----SLIDE----|
F#|-7-7-7-7-7-7-----7-7-777-777-777--7-7-7-7-7-------->>>>>>----|
C#|--------------------------------------------------->>>>>>----|



Guitar#1 (1:33-1:42)
C#|-------------------------------------------------------------------------|
G#|-------------------------------------------------------------------------|
E |----------------------------------------------------11-11>12-11----------|
B |--------9-5-------------------9-5-------------------------------12-10-9--|
F#|-7-9-10------7>9-5-9---7-9-10------7>9-5-9---7-9-10----------------------|
C#|-------------------------------------------------------------------------|


Guitar#2
C#|-------------------------------------------------------------------------|
G#|-------------------------------------------------------------------------|
E |-9-----------11-------12----------------14--16---------------------------|
B |-------------------------------------------------------------------------|
F#|-------------------------------------------------------------------------|
C#|-------------------------------------------------------------------------|


C#|-------------------------------------------------------------------------|
G#|-------------------------------------------------------------------------|
E |-------------------------------------------------------------------------|
B |-9p7----7p5-----9-9-9-9-9--12-12-12-12-12--------------------------------|
F#|----------------7-7-7-7-7--10-10-10-10-10--------------------------------|
C#|-----00-----00-----------------------------------------------------------|



(1:42-2:00)
C#|-------------------------------------------------------------------------|
G#|-------------------------------------------------------------------------|
E |-------------------------------------------------------------------------|
B |-14-14-14-14-14-14-14-14-16-16-16-16-17-17-17-17-16-16-16-16-16-16-16-16-|
F#|-------------------------------------------------------------------------|
C#|-------------------------------------------------------------------------|


C#|-------------------------------------------------------------------------|
G#|-------------------------------------------------------------------------|
E |-------------------------------------------------16-16-16-16-17-17-17-17-|
B |-14-14-14-14-14-14-14-14-------------------------------------------------|
F#|-------------------------17-17-17-17-17-17-17-17-------------------------|
C#|-------------------------------------------------------------------------|


C#|-------------------------------------------------------------------------|
G#|-------------------------------------------------------------------------|
E |-16-16-16-16-16-16-16-16-14-14-14-14-14-14-14-14-12-12-12-12-12-12-12-12-|
B |-------------------------------------------------------------------------|
F#|-------------------------------------------------------------------------|
C#|-------------------------------------------------------------------------|


C#|-------------------------------------------------------------------------|
G#|-15-15-15-15-12-12-12-12-------------------------------------------------|
E |-------------------------14-14-14-14-14-14-14-14-12-12-12-12-12-12-12-12-|
B |-------------------------------------------------------------------------|
F#|-------------------------------------------------------------------------|
C#|-------------------------------------------------------------------------|


C#|-------------------------------------------------------------------------|
G#|-------------------------------------------------------------------------|
E |-12-12-12-12-12-12-12-12-16-16-16-16-17-17-17-17-16-16-16-16-16-16-16-16-|
B |-------------------------------------------------------------------------|
F#|-------------------------------------------------------------------------|
C#|-------------------------------------------------------------------------|


C#|-------------------------|
G#|-------------------------|
E |-14-14-14-14-14-14-14-14-|
B |-------------------------|
F#|-------------------------|
C#|-------------------------|



PRESOLO (2:01-2:22)
C#|-------------------------------------------------------------------------|
G#|-------------------------------------------------------------------------|
E |-------------------------------------------------------------------------|
B |-------9>>>>--9-----7-7---------7-5-7-7--7-----------------------7-------|
F#|-2---7-->>>>--7-----5-5---------5-5-5-5--5-2---------------------5-------|
C#|-0--------------0-0-----0-0-0-0------------0-0-0-0-0-0-0-0-0-0-0---------|


C#|-------------------------------------------------------------------------|
G#|-------------------------------------------------------------------------|
E |-------------------------------------------------------------------------|
B |-9-----7-7---------7-5-7-7--7-----------------------7--------------------|
F#|-7-----5-5---------5-5-5-5--5-2---------------------5--------------------|
C#|---0-0-----0-0-0-0------------0-0-0-0-0-0-0-0-0-0-0----------------------|


C#|-------------------------------------------------------------------------|
G#|-------------------------------------------------------------------------|
E |-------------------------------------------------------------------------|
B |-9-----7-7---------7-5-7-7--7-----------------------7--------------------|
F#|-7-----5-5---------5-5-5-5--5-2---------------------5--------------------|
C#|---0-0-----0-0-0-0------------0-0-0-0-0-0-0-0-0-0-0----------------------|

C#|-------------------------------------------------------------------------|
G#|-------------------------------------------------------------------------|
E |-------------------------------------------------------------------------|
B |-9-----7-7---------7-5-7-7--7-----------------------7--------------------|
F#|-7-----5-5---------5-5-5-5--5-2---------------------5--------------------|
C#|---0-0-----0-0-0-0------------0-0-0-0-0-0-0-0-0-0-0----------------------|



SOLO (2:23-2:40)
C#|-------------------------------------------------------------------------|
G#|-----------------------------------19-20-19-17--20-22-20-19-20//(21)-----|
E |-14>16v----------------19-21-16v-----------------------------------------|
B |-----------17-19-16-17---------------------------------------------------|
F#|-------------------------------------------------------------------------|
C#|-------------------------------------------------------------------------|


C#|-17-19-------------------------------------------------------------------|
G#|-------19-22-17-19-------------------------------------------------------|
E |-------------------19-21-17-19-------------------------------------------|
B |-------------------------------19-21-17-19-------------------------------|
F#|-------------------------------------------19-21-17-19-------------------|
C#|-------------------------------------------------------19-20-17-19-15-17-|


C#|-------------------------------------------------------------------------|
G#|-------------------------------------------------------------------------|
E |--------------------------------21-19------------------------------------|
B |-----------------16-21-19-------------21//s-19----16-17-17---------------|
F#|-17-21-17-19-17-----------22-21----------------21------------------------|
C#|-------------------------------------------------------------------------|


C#|-------------------------------------------------------------------------|
G#|----------------------------------------------------------20-------------|
E |-------------------------------------------------------21----21-19-------|
B |-19-21-19-17-16--16-17-16-14--------19-21-19-17--------------------21-22-|
F#|-----------------------------14-15--------------17-19--------------------|
C#|-------------------------------------------------------------------------|


C#|-17-19-17-15--------17//(19)-17---14///(15)-14---------------------------|
G#|-------------15-17-------------------------------------------------------|
E |------------------------------------------------19h21-18h19--------------|
B |------------------------------------------------------------17h19-17p16--|
F#|-------------------------------------------------------------------------|
C#|-------------------------------------------------------------------------|


C#|------------------------------------------|
G#|------------------------------------------|
E |------------------------------------------|
B |-17-19-16-17-14--14-16-17p14-17-16--------|
F#|------------------------------------------|
C#|------------------------------------------|
END SOLO
comments
We did not receive enough feedback on this tab! Please rate:
print report bad tab
1 2 3 4 5
1 comment total.
0 reply
Etaan5 wrote on April 16 2013, 02:51 am

This isnt the song...

I want to post or [tab]
guest
You may want to rate the tab now too:
select rating
Please do not post tabs as comments. Select "correction" instead!