Oops, an error
Loading. Please wait.

This Calling Tab

ver3
ver3
More versions @911Tabs.com
80,333 views 116 this week
23 commentsread comments
1 2 3 4 5
excellent!
x 32
Autoscroll
+/-
esc
set tempo
stop
Contributor
Difficulty
Tuning
intermediate
D G C F A D
WARNING: You are trying to view
                                    content from Ultimate-Guitar.com
                                    in an unauthorized application,
                                    which is prohibited.

                                    Please use an official Ultimate
                                    Guitar Tabs application for iPhone,
                                    iPad or Android to access legitimate
                                    chords, guitar, bass, and drum tabs
                                    from Ultimate-Guitar.com database.

                                    Type "ultimate guitar tabs" in Apple
                                    App Store's or Android Market's
                                    search to find the application.
-------------------------------------------------------------------------------
                          "This Calling" --- All That Remains
-------------------------------------------------------------------------------

Tabbed by: [travis]


**************************************************************
******************Update #1 Aug. 17, 2009 (10:25am)***********
I had to fix one little part on the Break. I had the octave chords
for Guitar 1 on the wrong strings, but now I have the on the correct
strings. I'm surprised no one had made a comment on it yet, but it's 
fixed now. Thanks to everybody for voting and commenting on this tab so far.
**************************************************************
**************************************************************





Tuning: D Standard = D G C F A D (low to high)


Key: G Major = [G A B C D E F#]


Legend:

... = palm mute
h = hammer on
p = pull off
b = bend
pb = pre bend
__ = hold bend
.5 = half step bend
1 = whole step bend
* = pinch harmonic
T = tap
x = muffled string
/ = slide up
\ = slide down
h/ = pick once
p\ = pick once
h/p\ = pick once
p\h/ = pick once
() = note not picked / bring bent note back to normal
~ = vibrato


============================
Intro:

Guitars 1 and 2:
D|------------------------------------------------------------------------------------|
A|------------------------------------------------------------------------------------|
F|------------------------------------------------------------------------------------|
C|-9----------------------10--7--9--------------2--4-------7--9-----------------------|
G|-7-----------------------7--7--7--------------3--5-------5--7-----------------------|
D|---00000000000000000000----------000000000000-------0-0--------00000000000000000000-|
     ....................          ............       ...        ....................

============================
Guitars 1 and 2:
D|----------------------------------------|
A|----------------------------------------|
F|----------------------------------------|
C|-10--7--9---------------2h4------7------|
G|--7--7--7---------------3--------5------|
D|-----------000000000000-----0-0-----0-0-|
             ............     ...     ...

End of Intro.
============================
Verse 1:

Guitar 1:
D|-------------------------------------------------------------------|
A|-------------------------------------------------------------------|
F|-------------------------------------------------------------------|
C|-9--------------------------10--7--9------------------2--4-------7-|
G|-7---------------------------7--7--7------------------3--5-------5-|
D|---00-0-00-0-00-0-00-0-00-0-----------0000-0----0000--------0-0----|
     ........................           ......    ....        ...

Guitar 2:
D|-------------------------------------------------------------------|
A|-------------------------------------------------------------------|
F|----------------------------12--11--9-----------------5--4---------|
C|-9--------------------------10--10--9-----------------x--x-------7-|
G|-7----------------------------------------------------7--5-------5-|
D|---00-0-00-0-00-0-00-0-00-0-----------0000-0----0000--------0-0----|
     ........................           ......    ....        ...

=============================
Guitar 1:
D|----------------------------------------------------------------------|
A|----------------------------------------------------------------------|
F|----------------------------------------------------------------------|
C|-9--------------------------10--7--9------------------2h4------7------|
G|-7---------------------------7--7--7------------------3--------5------|
D|---00-0-00-0-00-0-00-0-00-0-----------0000-0----0000------0-0-----0-0-|
     ........................           ......    ....      ...     ...

Guitar 2:
D|---------------------------------------------------------------------|
A|---------------------------------------------------------------------|
F|----------------------------12--11--9--------------------------------|
C|-5--------------------------10--10--9-----------------10p9-----7-----|
G|-2-----------------------------------------------------7-------5-----|
D|---00-0-00-0-00-0-00-0-00-0------------0000-0----0000------0-0---0-0-|
     ........................            ......    ....      ...   ...




=============================
Guitar 1:
D|-------------------------------------------------------------------|
A|-------------------------------------------------------------------|
F|-------------------------------------------------------------------|
C|-9--------------------------10--7--9------------------2--4-------7-|
G|-7---------------------------7--7--7------------------3--5-------5-|
D|---00-0-00-0-00-0-00-0-00-0-----------0000-0----0000--------0-0----|
     ........................           ......    ....        ...

Guitar 2:
D|-------------------------------------------------------------------|
A|-------------------------------------------------------------------|
F|----------------------------12--11--9-----------------5--4---------|
C|-9--------------------------10--10--9-----------------x--x-------7-|
G|-7----------------------------------------------------7--5-------5-|
D|---00-0-00-0-00-0-00-0-00-0-----------0000-0----0000--------0-0----|
     ........................           ......    ....        ...

=============================
Guitar 1:
D|----------------------------------------------------------------------|
A|----------------------------------------------------------------------|
F|----------------------------------------------------------------------|
C|-9--------------------------10--7--9------------------2h4------7------|
G|-7---------------------------7--7--7------------------3--------5------|
D|---00-0-00-0-00-0-00-0-00-0-----------0000-0----0000------0-0-----0-0-|
     ........................           ......    ....      ...     ...

Guitar 2:
D|---------------------------------------------------------------------|
A|---------------------------------------------------------------------|
F|----------------------------12--11--9--------------------------------|
C|-5--------------------------10--10--9-----------------10p9-----7-----|
G|-2-----------------------------------------------------7-------5-----|
D|---00-0-00-0-00-0-00-0-00-0------------0000-0----0000------0-0---0-0-|
     ........................            ......    ....      ...   ...

==============================
Guitar 1:
D|----------------------|
A|----------------------|
F|----------------------|
C|-5-----4-----2~~~~~~--|
G|-7-----5-----2~~~~~~--|
D|----0-----0-----------|
      .     . 

Guitar 2:
D|------------------------|
A|------------------------|
F|--9-----7---------------|
C|--x-----x-----9~~~~~~~--|
G|-10-----9-----7~~~~~~~--|
D|-----0-----0------------|
       .     .

End of Verse 1.
=============================
Chorus 1:

Guitar 1:
D|---------3~~~~~-------------------5~~~~~~~------------|
A|---------------3--------------------------5-----------|
F|------------------5~~~~~---------------------7~~~~~~~-|
C|-5~~~~~-------------------7~~~~~~---------------------|
G|-3~~~~~-------------------5~~~~~~---------------------|
D|------------------------------------------------------|

Guitar 2:
D|--------0~~~~~~--------------------0~~~~~--------------|
A|---------------0-------------------------0-------------|
F|------------------9~~~~~--------------------11~~~~~~~~-|
C|-10~~~~------------------12~~~~~~~---------------------|
G|--7~~~~-------------------9~~~~~~~---------------------|
D|-------------------------------------------------------|

=============================
Guitars 1 and 2:
D|-------------------------------------------------------------------------------------------------|
A|-------------------------------------------------------------------------------------------------|
F|-------------------------------------------------------------------------------------------------|
C|-16-16-16-16-16-16-14-14-14-14-14-14-14-14-14-14-16-16-16-16-16-16-17-17-17-17-17-17-17-17-17-17-|
G|-14-14-14-14-14-14-14-14-14-14-14-14-14-14-14-14-14-14-14-14-14-14-14-14-14-14-14-14-14-14-14-14-|
D|-12-12-12-12-12-12-12-12-12-12-12-12-12-12-12-12-12-12-12-12-12-12-12-12-12-12-12-12-12-12-12-12-|

=============================
Guitar 1:
D|---------3~~~~~-------------------5~~~~~~~------------|
A|---------------3--------------------------5-----------|
F|------------------5~~~~~---------------------7~~~~~~~-|
C|-5~~~~~-------------------7~~~~~~---------------------|
G|-3~~~~~-------------------5~~~~~~---------------------|
D|------------------------------------------------------|

Guitar 2:
D|--------0~~~~~~--------------------0~~~~~--------------|
A|---------------0-------------------------0-------------|
F|------------------9~~~~~--------------------11~~~~~~~~-|
C|-10~~~~------------------12~~~~~~~---------------------|
G|--7~~~~-------------------9~~~~~~~---------------------|
D|-------------------------------------------------------|

End of Chorus 1.
==============================
Interlude 1:

Guitars 1 and 2:
D|-------------------------------------------------------------------|
A|-------------------------------------------------------------------|
F|-------------------------------------------------------------------|
C|-9--------------------------10--7--9------------------2--4-------7-|
G|-7---------------------------7--7--7------------------3--5-------5-|
D|---00-0-00-0-00-0-00-0-00-0-----------00-0-00-0-00-0--------0-0----|
     ........................           ..............        ...

===============================
Guitars 1 and 2:
D|----------------------------------------------------------------------|
A|----------------------------------------------------------------------|
F|----------------------------------------------------------------------|
C|-9--------------------------10--7--9------------------2h4------7------|
G|-7---------------------------7--7--7------------------3--------5------|
D|---00-0-00-0-00-0-00-0-00-0-----------00-0-00-0-00-0------0-0-----0-0-|
     ........................           ..............      ...     ...

End of Interlude 1.
===============================
Verse 2:

Guitar 1:
D|-------------------------------------------------------------------|
A|-------------------------------------------------------------------|
F|-------------------------------------------------------------------|
C|-9--------------------------10--7--9------------------2--4-------7-|
G|-7---------------------------7--7--7------------------3--5-------5-|
D|---00-0-00-0-00-0-00-0-00-0-----------0000-0----0000--------0-0----|
     ........................           ......    ....        ...

Guitar 2:
D|-------------------------------------------------------------------|
A|-------------------------------------------------------------------|
F|----------------------------12--11--9-----------------5--4---------|
C|-9--------------------------10--10--9-----------------x--x-------7-|
G|-7----------------------------------------------------7--5-------5-|
D|---00-0-00-0-00-0-00-0-00-0-----------0000-0----0000--------0-0----|
     ........................           ......    ....        ...

=============================
Guitar 1:
D|----------------------------------------------------------------------|
A|----------------------------------------------------------------------|
F|----------------------------------------------------------------------|
C|-9--------------------------10--7--9------------------2h4------7------|
G|-7---------------------------7--7--7------------------3--------5------|
D|---00-0-00-0-00-0-00-0-00-0-----------0000-0----0000------0-0-----0-0-|
     ........................           ......    ....      ...     ...

Guitar 2:
D|---------------------------------------------------------------------|
A|---------------------------------------------------------------------|
F|----------------------------12--11--9--------------------------------|
C|-5--------------------------10--10--9-----------------10p9-----7-----|
G|-2-----------------------------------------------------7-------5-----|
D|---00-0-00-0-00-0-00-0-00-0------------0000-0----0000------0-0---0-0-|
     ........................            ......    ....      ...   ...

==============================
Guitar 1:
D|-------------------------------------------------------------------|
A|-------------------------------------------------------------------|
F|-------------------------------------------------------------------|
C|-9--------------------------10--7--9------------------2--4-------7-|
G|-7---------------------------7--7--7------------------3--5-------5-|
D|---00-0-00-0-00-0-00-0-00-0-----------0000-0----0000--------0-0----|
     ........................           ......    ....        ...

Guitar 2:
D|-------------------------------------------------------------------|
A|-------------------------------------------------------------------|
F|----------------------------12--11--9-----------------5--4---------|
C|-9--------------------------10--10--9-----------------x--x-------7-|
G|-7----------------------------------------------------7--5-------5-|
D|---00-0-00-0-00-0-00-0-00-0-----------0000-0----0000--------0-0----|
     ........................           ......    ....        ...

=============================
Guitar 1:
D|----------------------------------------------------------------------|
A|----------------------------------------------------------------------|
F|----------------------------------------------------------------------|
C|-9--------------------------10--7--9------------------2h4------7------|
G|-7---------------------------7--7--7------------------3--------5------|
D|---00-0-00-0-00-0-00-0-00-0-----------0000-0----0000------0-0-----0-0-|
     ........................           ......    ....      ...     ...

Guitar 2:
D|---------------------------------------------------------------------|
A|---------------------------------------------------------------------|
F|----------------------------12--11--9--------------------------------|
C|-5--------------------------10--10--9-----------------10p9-----7-----|
G|-2-----------------------------------------------------7-------5-----|
D|---00-0-00-0-00-0-00-0-00-0------------0000-0----0000------0-0---0-0-|
     ........................            ......    ....      ...   ...

==============================
Chorus 2:

Guitar 1:
D|---------3~~~~~-------------------5~~~~~~~------------|
A|---------------3--------------------------5-----------|
F|------------------5~~~~~---------------------7~~~~~~~-|
C|-5~~~~~-------------------7~~~~~~---------------------|
G|-3~~~~~-------------------5~~~~~~---------------------|
D|------------------------------------------------------|

Guitar 2:
D|--------0~~~~~~--------------------0~~~~~--------------|
A|---------------0-------------------------0-------------|
F|------------------9~~~~~--------------------11~~~~~~~~-|
C|-10~~~~------------------12~~~~~~~---------------------|
G|--7~~~~-------------------9~~~~~~~---------------------|
D|-------------------------------------------------------|

=============================
Guitars 1 and 2:
D|-------------------------------------------------------------------------------------------------|
A|-------------------------------------------------------------------------------------------------|
F|-------------------------------------------------------------------------------------------------|
C|-16-16-16-16-16-16-14-14-14-14-14-14-14-14-14-14-16-16-16-16-16-16-17-17-17-17-17-17-17-17-17-17-|
G|-14-14-14-14-14-14-14-14-14-14-14-14-14-14-14-14-14-14-14-14-14-14-14-14-14-14-14-14-14-14-14-14-|
D|-12-12-12-12-12-12-12-12-12-12-12-12-12-12-12-12-12-12-12-12-12-12-12-12-12-12-12-12-12-12-12-12-|

=============================
Guitar 1:
D|---------3~~~~~-------------------5~~~~~~~------------|
A|---------------3--------------------------5-----------|
F|------------------5~~~~~---------------------7~~~~~~~-|
C|-5~~~~~-------------------7~~~~~~---------------------|
G|-3~~~~~-------------------5~~~~~~---------------------|
D|------------------------------------------------------|

Guitar 2:
D|--------0~~~~~~--------------------0~~~~~--------------|
A|---------------0-------------------------0-------------|
F|------------------9~~~~~--------------------11~~~~~~~~-|
C|-10~~~~------------------12~~~~~~~---------------------|
G|--7~~~~-------------------9~~~~~~~---------------------|
D|-------------------------------------------------------|

=============================
Guitars 1 and 2:
D|-------------------------------------------------------------------------------------------------|
A|-------------------------------------------------------------------------------------------------|
F|-------------------------------------------------------------------------------------------------|
C|-16-16-16-16-16-16-14-14-14-14-14-14-14-14-14-14-16-16-16-16-16-16-17-17-17-17-17-17-17-17-17-17-|
G|-14-14-14-14-14-14-14-14-14-14-14-14-14-14-14-14-14-14-14-14-14-14-14-14-14-14-14-14-14-14-14-14-|
D|-12-12-12-12-12-12-12-12-12-12-12-12-12-12-12-12-12-12-12-12-12-12-12-12-12-12-12-12-12-12-12-12-|

=============================
Guitar 1:
D|---------3~~~~~-------------------5~~~~~~~------------|
A|---------------3--------------------------5-----------|
F|------------------5~~~~~---------------------7~~~~~~~-|
C|-5~~~~~-------------------7~~~~~~---------------------|
G|-3~~~~~-------------------5~~~~~~---------------------|
D|------------------------------------------------------|

Guitar 2:
D|--------0~~~~~~--------------------0~~~~~--------------|
A|---------------0-------------------------0-------------|
F|------------------9~~~~~--------------------11~~~~~~~~-|
C|-10~~~~------------------12~~~~~~~---------------------|
G|--7~~~~-------------------9~~~~~~~---------------------|
D|-------------------------------------------------------|

End of Chorus 2.
=============================
Interlude 2:

Guitar 1:
D|--------------------------------------------------------------------|
A|--------------------------------------------------------------------|
F|------------------------------------------10~~~~~~~~~~~~9~~~~~~~~~~-|
C|-9---------9-------------------------------x------------x-----------|
G|-7---------7---------10--9h10p9----7-------8~~~~~~~~~~~~7~~~~~~~~~~-|
D|---0-0-0-0---0-0-0-0------------10---10-7---------------------------|
     .......   .......

Guitar 2:
D|----------------------------------------------------------------------|
A|----------------------------------------------------------------------|
F|----------------------------------------------------------------------|
C|-9---------9--------------------------------------9--10-9-----------9-|
G|-7---------7---------10--9h10p9----7------------7---------7-------5---|
D|---0-0-0-0---0-0-0-0------------10---10-7--8--8--------------7--7-----|
     .......   .......                          .....             .....

==============================
Guitars 1 and 2:
D|---------------|
A|---------------|
F|---------------|
C|---------------|
G|--------7-9-10-|
D|-7-8-10--------|
   .............

===============================
Guitar 1:
D|---------------------------------------------------------------|
A|---------------------------------------------------------------|
F|------------------------------------------10~~~~~~~~9~~~~~~~~~~|
C|-9---------9-------------------------------x--------x----------|
G|-7---------7---------10--9h10p9----7-------8~~~~~~~~7~~~~~~~~~~|
D|---0-0-0-0---0-0-0-0------------10---10-7----------------------|
     .......   .......

Guitar 2:
D|----------------------------------------------------------------------|
A|----------------------------------------------------------------------|
F|----------------------------------------------------------------------|
C|-9---------9--------------------------------------9--10-9-----------9-|
G|-7---------7---------10--9h10p9----7------------7---------7-------5---|
D|---0-0-0-0---0-0-0-0------------10---10-7--8--8--------------7--7-----|
     .......   .......                          .....             .....

================================
Guitar 1:
D|---------------------------------------------------------------------|
A|---------------------------------------------------------------------|
F|-9--7---------------------------------------------5~~~~~~~~9~~~~~~~~-|
C|-x--x-----9---------9-----------------------------x--------x---------|
G|-7--5-----7---------7---------10-9h10p9----7------3~~~~~~~~7~~~~~~~~-|
D|-------0----0-0-0-0---0-0-0-0-----------10---10-7--------------------|
         .    .......   .......                 

Guitar 2:
D|---------------------------------------------------------------------------|
A|---------------------------------------------------------------------------|
F|-12--11--------------------------------------------------------------------|
C|--x---x-----9---------9---------9-7h9p7------------------9-10-9----------9-|
G|-10---9-----7---------7-----------------9-10-9----7----7--------7------5---|
D|---------0----0-0-0-0---0-0-0-0----------------10----8------------7--7-----|
           .    .......   .......                      .....           .....

=================================
Guitar 1:
D|---------------|
A|---------------|
F|---------------|
C|---------------|
G|--------7-9-10-|
D|-7-8-10--------|
   .............

Guitar 2:
D|-------------|
A|-------------|
F|-------------|
C|-------5-7-9-|
G|-5-7-9-------|
D|-------------|
   ...........

==================================
Guitar 1:
D|--------------------------------------------------------------|
A|--------------------------------------------------------------|
F|------------------------------------------5~~~~~~~~9~~~~~~~~~-|
C|-9---------9------------------------------x--------x----------|
G|-7---------7---------10--9h10p9----7------3~~~~~~~~7~~~~~~~~~-|
D|---0-0-0-0---0-0-0-0------------10---10-7---------------------|
     .......   .......

Guitar 2:
D|------------------------------------------------------------------|
A|------------------------------------------------------------------|
F|------------------------------------------------------------------|
C|-9---------9---------9--7h9p7------------------9--10-9----------9-|
G|-7---------7------------------9-10-9----7----7---------7------5---|
D|---0-0-0-0---0-0-0-0-----------------10----8-------------7--7-----|
     .......   .......                       .....            .....     

==================================
Guitar 1:
D|---------|
A|---------|
F|-9--7----|
C|-x--x----|
G|-7--5----|
D|-------0-|
         .

Guitar 2:
D|------------|
A|------------|
F|-12--11-----|
C|--x---x-----|
G|-10---9-----|
D|----------0-|
            .

End of Interlude 2.
===================================
Bridge 1:

Guitar 1:
D|---------------------------------------------------------------------|
A|---------------------------------------------------------------------|
F|-11~~~~~~~~~~~~9~~~~~~~------7~~~~~~~----5~~~~~~~~11~~~~~~~~~~~~~~~~~|
C|--9~~~~~~~~~~~~9~~~~~~~------5~~~~~~~----5~~~~~~~~-9~~~~~~~~~~~~~~~~~|
G|--7~~~~~~~~~~~~7~~~~~~~------3~~~~~~~----3~~~~~~~~-6~~~~~~~~~~~~~~~~~|
D|------------------------0-0-----------0------------------------------|
                          ...           .

Guitar 2:
D|---------------------------------------------------------------------------------|
A|---------------------------------------------------------------------------------|
F|---------------------------------------------------------------------------------|
C|---------------------------------------------------------------------------------|
G|---------------------------------------------------------------------------------|
D|-00-0-00-0-00-0-00-0-00-0-----00-0-00-0-00-0----00-0----00-0-00-0-00-0-00-0-00-0-|
   ........................     ..............    ....    ........................

====================================
Guitar 1:
D|-------------------------0~~~~~~~~~~~~~~~~~~~~~~~~~-|
A|-------------------------0~~~~~~~~~~~~~~~~~~~~~~~~~-|
F|-11-------12~~~~~~~~~~---x--------------------------|
C|--9--------9~~~~~~~~~~---9~~~~~~~~~~~~~~~~~~~~~~~~~-|
G|--6--------7~~~~~~~~~~---7~~~~~~~~~~~~~~~~~~~~~~~~~-|
D|-----0-0---------------0----------------------------|
       ...               .

Guitar 2:
D|----------------------------------------------------------------------------------|
A|----------------------------------------------------------------------------------|
F|----------------------------------------------------------------------------------|
C|----------------------------------------------------------------------------------|
G|----------------------------------7\----------------------------------------------|
D|------------00-0-00-0-00-0-00-0---7\---00-0-00-0-00-0-00-0-00-0----00-0-00-0-00-0-|
              ...................        ........................    ..............

====================================
Guitars 1 and 2:
                                                                   .5_____  1______
D|---------------------------------------------------------------------------------|
A|---------------------------------------------------------------------------------|
F|----------------------------------------------------------------3*b~~~~~---------|
C|---------------------------------------------------------------------------------|
G|---------------------------------------------------------------------------------|
D|-00-0------00-0-00-0-00-0-00-0-00-0------00-0-00-0-00-0----00-0---------3*b~~~~~~|
   ....      ........................      ..............    ....

=====================================
Guitars 1 and 2:
D|-----------------------------------------------------------------------------------|
A|-----------------------------------------------------------------------------------|
F|-----------------------------------------------------------------------------------|
C|-----------------------------------------------------------------------------------|
G|-----------------------------------------------------------------------------------|
D|-00-0-00-0-00-0-00-0-00-0-----00-0-00-0-00-0---00-0----00-0-00-0-00-0-00-0-00-0----|
   ........................     ..............   ....    ........................

=====================================
Guitars 1 and 2:
D|-----------------------------|
A|-----------------------------|
F|-----------------------------|
C|-----------------------------|
G|-----------------------------|
D|-00-0-00-0-00-0-00-0----00-0-|
   ...................    ....

End of Bridge 1.
=======================================
Guitar Solo:

Guitar 1:      
                                              .5__
D|---------------------------------------------------------|
A|--------------------/12~~~~~(12)p\-----------------------|
F|-11h12-14~~~~~~~~~~~--------------/11~~~~(11)b--(11)~~~~-|
C|---------------------------------------------------------|
G|---------------------------------------------------------|
D|---------------------------------------------------------|


Guitar 1: The tap is a tap slide. Tap and slide to the 21st fret and pull off to the 14th fret.

                                    T  (T)
D|----------------------------------------------------7-------10--------12--------14-|
A|-----------------------------------------------------------------------------------|
F|-11h12h14p12p11h12h14p12p11h12h14-19h/21p14p12p11-9---9h/12----12h/14----14h/16----|
C|-----------------------------------------------------------------------------------|
G|-----------------------------------------------------------------------------------|
D|-----------------------------------------------------------------------------------|

Guitar 1:
                          .5__        .5__       .5__       .5__       .5__       .5__
D|--------17----17-19~~~19pb--(19)~~19pb--(19)~~19b--(19)~~19b--(19)~~19b--(19)~~19b--(19)~~-|
A|-------------------------------------------------------------------------------------------|
F|-16h/19----19------------------------------------------------------------------------------|
C|-------------------------------------------------------------------------------------------|
G|-------------------------------------------------------------------------------------------|
D|-------------------------------------------------------------------------------------------|

Guitar 1:
                                                                       .5__       .5__
D|-x-19p15-15-15-15-14-15--------------------------------------------------------------------|
A|-x---------------------17--19------17------15------15-----12-------------------------------|
F|-------------------------16--16p\14--14p\12--12p\11--11p\9--9-11~~~11pb--(11)~~11b--(11)~~~|
C|-------------------------------------------------------------------------------------------|
G|-------------------------------------------------------------------------------------------|
D|-------------------------------------------------------------------------------------------|

Guitar 1:
D|-------------------------------------------------------------------------------------------|
A|-------------------------------------------------------------------------------------------|
F|-17-16-14----------16-14-12----------14-12-11-------------------9-11-12--------------------|
C|----------17-16-14----------16-14-12----------14-12-10----10-12---------10p9~~~~~----------|
G|-------------------------------------------------------14------------------------10--------|
D|------------------------------------------------------------------------------------/12~~~~|

+++
+++

Guitar 2: Play All Bars Over Guitar 1 During Solo.
D|-------3~~~~~~~~~~~~-----------5~~~~~~~~~~--------------------------------|
A|-------3~~~~~~~~~~~~-----------5~~~~~~~~~~--------------------------------|
F|-------5~~~~~~~~~~~~-----------7~~~~~~~~~~11~~~~~~~~~~~~~9~~~~~~~~~~~~~~~-|
C|-5~~~~~-------------7~~~~~~~~~~------------9~~~~~~~~~~~~~9~~~~~~~~~~~~~~~-|
G|-3~~~~~-------------5~~~~~~~~~~------------7~~~~~~~~~~~~~7~~~~~~~~~~~~~~~-|
D|--------------------------------------------------------------------------|

Guitar 2:
D|-------------------------------------------3~~~~~~~~~~----------5~~~~~~~~-|
A|-------------------------------------------3~~~~~~~~~~----------5~~~~~~~~-|
F|-12~~~~~~~11~~~~~~~~~7~~~~~~~~~~-----------5~~~~~~~~~~7~~~~~~~~~7~~~~~~~~-|
C|--x-------x----------x----------5~~~~~~~~~~-----------7~~~~~~~~~----------|
G|-10~~~~~~~9~~~~~~~~~~5~~~~~~~~~~3~~~~~~~~~~-----------5~~~~~~~~~----------|
D|--------------------------------------------------------------------------|

Guitar 2:
D|----------------------------------------------------------|
A|----------------------------------------------------------|
F|-11~~~~~~~~~~9~~~~~~~~~~~9~~~~~~~11~~~~~~~~~~12~~~~~~~~~~~|
C|--9~~~~~~~~~~9~~~~~~~~~~~x-------x------------x-----------|
G|--7~~~~~~~~~~7~~~~~~~~~~~7~~~~~~~9~~~~~~~~~~~10~~~~~~~~~~~|
D|----------------------------------------------------------|

End of Guitar Solo.
===================================
Chorus 3:

Guitar 1:
D|---------3~~~~~-------------------5~~~~~~~------------|
A|---------------3--------------------------5-----------|
F|------------------5~~~~~---------------------7~~~~~~~-|
C|-5~~~~~-------------------7~~~~~~---------------------|
G|-3~~~~~-------------------5~~~~~~---------------------|
D|------------------------------------------------------|

Guitar 2:
D|--------0~~~~~~--------------------0~~~~~--------------|
A|---------------0-------------------------0-------------|
F|------------------9~~~~~--------------------11~~~~~~~~-|
C|-10~~~~------------------12~~~~~~~---------------------|
G|--7~~~~-------------------9~~~~~~~---------------------|
D|-------------------------------------------------------|

=============================
Guitars 1 and 2:
D|-------------------------------------------------------------------------------------------------|
A|-------------------------------------------------------------------------------------------------|
F|-------------------------------------------------------------------------------------------------|
C|-16-16-16-16-16-16-14-14-14-14-14-14-14-14-14-14-16-16-16-16-16-16-17-17-17-17-17-17-17-17-17-17-|
G|-14-14-14-14-14-14-14-14-14-14-14-14-14-14-14-14-14-14-14-14-14-14-14-14-14-14-14-14-14-14-14-14-|
D|-12-12-12-12-12-12-12-12-12-12-12-12-12-12-12-12-12-12-12-12-12-12-12-12-12-12-12-12-12-12-12-12-|

=============================
Guitar 1:
D|---------3~~~~~-------------------5~~~~~~~------------|
A|---------------3--------------------------5-----------|
F|------------------5~~~~~---------------------7~~~~~~~-|
C|-5~~~~~-------------------7~~~~~~---------------------|
G|-3~~~~~-------------------5~~~~~~---------------------|
D|------------------------------------------------------|

Guitar 2:
D|--------0~~~~~~--------------------0~~~~~--------------|
A|---------------0-------------------------0-------------|
F|------------------9~~~~~--------------------11~~~~~~~~-|
C|-10~~~~------------------12~~~~~~~---------------------|
G|--7~~~~-------------------9~~~~~~~---------------------|
D|-------------------------------------------------------|

=============================
Guitars 1 and 2:
D|-------------------------------------------------------------------------------------------------|
A|-------------------------------------------------------------------------------------------------|
F|-------------------------------------------------------------------------------------------------|
C|-16-16-16-16-16-16-14-14-14-14-14-14-14-14-14-14-16-16-16-16-16-16-17-17-17-17-17-17-17-17-17-17-|
G|-14-14-14-14-14-14-14-14-14-14-14-14-14-14-14-14-14-14-14-14-14-14-14-14-14-14-14-14-14-14-14-14-|
D|-12-12-12-12-12-12-12-12-12-12-12-12-12-12-12-12-12-12-12-12-12-12-12-12-12-12-12-12-12-12-12-12-|

=============================
Guitar 1:
D|---------3~~~~~-------------------5~~~~~~~------------|
A|---------------3--------------------------5-----------|
F|------------------5~~~~~---------------------7~~~~~~~-|
C|-5~~~~~-------------------7~~~~~~---------------------|
G|-3~~~~~-------------------5~~~~~~---------------------|
D|------------------------------------------------------|

Guitar 2:
D|--------0~~~~~~--------------------0~~~~~--------------|
A|---------------0-------------------------0-------------|
F|------------------9~~~~~--------------------11~~~~~~~~-|
C|-10~~~~------------------12~~~~~~~---------------------|
G|--7~~~~-------------------9~~~~~~~---------------------|
D|-------------------------------------------------------|

End of Chorus 3.
===============================
Harmony:


Guitar 3:
                    1____                                         1_______
D|---------------------------------------------------------------------------------------|
A|---------------------------------------------------------------------------------------|
F|-14h16~~~~~~~~~~14b----(14)~~~~~~~~~~--------------------------------------------------|
C|-------------------------------------16~~~~~~16h/17~~~~~~~~~~~17b-------(17)~~~~~~~~~~~|
G|---------------------------------------------------------------------------------------|
D|---------------------------------------------------------------------------------------|

Guitar 4:
                   .5____                                        .5_______
D|---------------------------------------------------------------------------------------|
A|---------------------------------------------------------------------------------------|
F|---------------------------------------------------------------------------------------|
C|-16h17~~~~~~~~~~16b----(16)~~~~~~~~~~--------------------------------------------------|
G|-------------------------------------17~~~~~~17h/19~~~~~~~~~~~19b-------(19)~~~~~~~~~~~|
D|---------------------------------------------------------------------------------------|

===============================
Guitar 3:
D|---------|
A|---------|
F|---------|
C|-17--19--|
G|---------|
D|---------|

Guitar 4:
D|---------|
A|---------|
F|---------|
C|-14--16--|
G|---------|
D|---------|

================================
Guitar 3:
                    1____                                         1_______
D|---------------------------------------------------------------------------------------|
A|---------------------------------------------------------------------------------------|
F|-14h16~~~~~~~~~~14b----(14)~~~~~~~~~~--------------------------------------------------|
C|-------------------------------------16~~~~~~16h/17~~~~~~~~~~~17b-------(17)~~~~~~~~~~~|
G|---------------------------------------------------------------------------------------|
D|---------------------------------------------------------------------------------------|

Guitar 4:
                   .5____                                        .5_______
D|---------------------------------------------------------------------------------------|
A|---------------------------------------------------------------------------------------|
F|---------------------------------------------------------------------------------------|
C|-16h17~~~~~~~~~~16b----(16)~~~~~~~~~~--------------------------------------------------|
G|-------------------------------------17~~~~~~17h/19~~~~~~~~~~~19b-------(19)~~~~~~~~~~~|
D|---------------------------------------------------------------------------------------|

++++
++++
Guitars 1 and 2 Both Play these bars over the Harmony of Guitars 3 and 4.

Guitar 1:
D|-------------------------------------------------------------------|
A|-------------------------------------------------------------------|
F|-------------------------------------------------------------------|
C|-9--------------------------10--7--9------------------2--4-------7-|
G|-7---------------------------7--7--7------------------3--5-------5-|
D|---00-0-00-0-00-0-00-0-00-0-----------0000-0----0000--------0-0----|
     ........................           ......    ....        ...

Guitar 2:
D|-------------------------------------------------------------------|
A|-------------------------------------------------------------------|
F|----------------------------12--11--9-----------------5--4---------|
C|-9--------------------------10--10--9-----------------x--x-------7-|
G|-7----------------------------------------------------7--5-------5-|
D|---00-0-00-0-00-0-00-0-00-0-----------0000-0----0000--------0-0----|
     ........................           ......    ....        ...

=============================
Guitar 1:
D|----------------------------------------------------------------------|
A|----------------------------------------------------------------------|
F|----------------------------------------------------------------------|
C|-9--------------------------10--7--9------------------2h4------7------|
G|-7---------------------------7--7--7------------------3--------5------|
D|---00-0-00-0-00-0-00-0-00-0-----------0000-0----0000------0-0-----0-0-|
     ........................           ......    ....      ...     ...

Guitar 2:
D|---------------------------------------------------------------------|
A|---------------------------------------------------------------------|
F|----------------------------12--11--9--------------------------------|
C|-5--------------------------10--10--9-----------------10p9-----7-----|
G|-2-----------------------------------------------------7-------5-----|
D|---00-0-00-0-00-0-00-0-00-0------------0000-0----0000------0-0---0-0-|
     ........................            ......    ....      ...   ...

End of Harmony.
======================================

Outro:

Guitar 1:
D|-------------------------------------------------------------------|
A|-------------------------------------------------------------------|
F|-------------------------------------------------------------------|
C|-9--------------------------10--7--9------------------2--4-------7-|
G|-7---------------------------7--7--7------------------3--5-------5-|
D|---00-0-00-0-00-0-00-0-00-0-----------0000-0----0000--------0-0----|
     ........................           ......    ....        ...

Guitar 2:
D|-------------------------------------------------------------------|
A|-------------------------------------------------------------------|
F|----------------------------12--11--9-----------------5--4---------|
C|-9--------------------------10--10--9-----------------x--x-------7-|
G|-7----------------------------------------------------7--5-------5-|
D|---00-0-00-0-00-0-00-0-00-0-----------0000-0----0000--------0-0----|
     ........................           ......    ....        ...

=============================
Guitar 1:
D|----------------------------------------------------------------------|
A|----------------------------------------------------------------------|
F|----------------------------------------------------------------------|
C|-9--------------------------10--7--9------------------2h4------7------|
G|-7---------------------------7--7--7------------------3--------5------|
D|---00-0-00-0-00-0-00-0-00-0-----------0000-0----0000------0-0-----0-0-|
     ........................           ......    ....      ...     ...

Guitar 2:
D|---------------------------------------------------------------------|
A|---------------------------------------------------------------------|
F|----------------------------12--11--9--------------------------------|
C|-5--------------------------10--10--9-----------------10p9-----7-----|
G|-2-----------------------------------------------------7-------5-----|
D|---00-0-00-0-00-0-00-0-00-0------------0000-0----0000------0-0---0-0-|
     ........................            ......    ....      ...   ...

==============================
Guitar 1:
D|----------------------------|
A|----------------------------|
F|----------------------------|
C|-5-----4----2~~~~~~~~~9\----|
G|-7-----5----2~~~~~~~~~7\----|
D|----0-----0-----------------|
      .     .

Guitar 2:
D|----------------------------|
A|----------------------------|
F|--9-----7-------------------|
C|--x-----x----9~~~~~~~~9\----|
G|-10-----9----7~~~~~~~~7\----|
D|-----0-----0----------------|
       .     .

End of Song.
======================================
Please Rate and Comment My Tab.
Thanks.
[travis]
comments
print report bad tab
23 comments total. Showing first comments.
+1 reply
cheez1492 wrote on June 27 2009, 10:20 am

looks great dude

0 reply
[travis] wrote on June 27 2009, 05:54 pm

Thanks "cheez1492."

+1 reply
macsparks2468 wrote on June 30 2009, 12:20 pm

Good job

I want to post or [tab]
guest
You may want to rate the tab now too:
select rating
Please do not post tabs as comments. Select "correction" instead!