Oops, an error
Loading. Please wait.

This Calling Tab

ver4
ver4
More versions @911Tabs.com
10,015 views 15 this week
5 commentsread comments
1 2 3 4 5
excellent!
x 5
Autoscroll
+/-
esc
set tempo
stop
Contributor
Difficulty
Tuning
intermediate
D G C F A D
Hey! There's an official Ultimate Guitar app which is ideal
for learning songs when you're away from computer. Get the app
WARNING: You are trying to view
                                    content from Ultimate-Guitar.com
                                    in an unauthorized application,
                                    which is prohibited.

                                    Please use an official Ultimate
                                    Guitar Tabs application for iPhone,
                                    iPad or Android to access legitimate
                                    chords, guitar, bass, and drum tabs
                                    from Ultimate-Guitar.com database.

                                    Type "ultimate guitar tabs" in Apple
                                    App Store's or Android Market's
                                    search to find the application.
So this isn't really my tab my friend emailed it to me and i decided to put it on here
you all to use. Hopefully it is right I didn't really check it for accuracy. I had to
and paste it and doing that messed up a lot of it and I had to re-align a lot of things 
I may have missed some but I trust if there is something it shouldn't be too hard for you
to figure out where it should go. And I don't have really any clue what the PM's and S's 
stuff at the top are but I left it incase you guys know and use it to help you learn it.
So yeah...enjoy :)

Tuning: D Standard (all strings full step down)

Duration Legend
---------------
W - whole
H - half
Q - quarter
E - 8th
S - 16th
T - 32nd
X - 64th
. - note dotted
|-n-|  - n-tuplets

Tablature Legend
----------------
L - tied note
x - dead note
g - grace note
(n) - ghost note
> - accentuded note
NH - natural harmonic
AH - artificial harmonic
TH - tapped harmonic
SH - semi harmonic
PH - pitch harmonic
h - hammer on
p - pull off
b - bend
br - bendRelease
pb - preBend
pbr - preBendRelease
brb - bendReleaseBend
\n/ - tremolo bar dip
\n - tremolo bar dive
-/n - tremolo bar Release up
/n\ - tremolo bar inverted dip
/n - tremolo bar return
-\n - tremolo bar Release down
S - shift slide
s - legato slide
/ -  slide into from below or out of upwards
\ -  slide into from above or out of downwards
~ - vibrato
W - wide vibrato
tr - trill
TP - tremolo picking
T - tapping
S - slap
P - pop
< - fade in
^ - brush up
v - brush down

____________________________________________________________________________

                            All That Remains
                              This Calling


                  PM PM PM PM PM PM PM PM PM PM PM PM
             Q    S  S  S  S  S  S  S  S  S  S  S  S
D||-------|---------------------------------------------|
A||-------|---------------------------------------------|
F||-------|---------------------------------------------|
C||-------|--9------------------------------------------|
G||-------|--7------------------------------------------|
D||-------|-------0-0-0-0-0-0-0-0-0-0-0-0---------------|

 PM PM PM PM PM PM PM PM
  S  S  S  S  S  S  S  S   Q    Q
-------------------------------------|
-------------------------------------|
-------------------------------------|
--------------------------10----7----|
---------------------------7----7----|
--0--0--0--0--0--0--0--0-------------|

  PM PM PM PM PM PM PM PM PM PM PM PM              PM PM
  Q    S  S  S  S  S  S  S  S  S  S  S  S     Q    Q    E  E  Q
-------------------------------------------|-----------------------|
-------------------------------------------|-----------------------|
-------------------------------------------|-----------------------|
--9----------------------------------------|--2----4----------7----|
--7----------------------------------------|--3----5----------5----|
-------0--0--0--0--0--0--0--0--0--0--0--0--|------------0--0-------|


    PM PM PM PM PM PM PM PM PM PM PM PM
  Q    S  S  S  S  S  S  S  S  S  S  S  S
-------------------------------------------|
-------------------------------------------|
-------------------------------------------|
--9----------------------------------------|
--7----------------------------------------|
-------0--0--0--0--0--0--0--0--0--0--0--0--|

PM PM PM PM PM PM PM PM
  S  S  S  S  S  S  S  S   Q    Q
-------------------------------------|
-------------------------------------|
-------------------------------------|
--------------------------10----7----|
---------------------------7----7----|
--0--0--0--0--0--0--0--0-------------|

   PM PM PM PM PM PM PM PM PM PM PM PM           PM PM      PM PM
  Q    S  S  S  S  S  S  S  S  S  S  S  S     E   E  E  E  Q    E  E
-------------------------------------------|--------------------------|
-------------------------------------------|--------------------------|
-------------------------------------------|--------------------------|
--9----------------------------------------|--2h--4--------7----------|
--7----------------------------------------|--3------------5----------|
-------0--0--0--0--0--0--0--0--0--0--0--0--|---------0--0-------0--0--|


  PM PM PM PM PM PM PM PM PM    PM PM PM PM PM PM
  Q    S  S  E  S  S  E  S  S  E     S  S  E  S  S  E   Q     Q
----------------------------------|--------------------------------|
----------------------------------|--------------------------------|
----------------------------------|--------------------12----11----|
--9-------------------------------|--------------------10----10----|
--7-------------------------------|--------------------------------|
-------0--0--0--0--0--0--0--0--0--|--0--0--0--0--0--0--------------|


                                         PM PM
  Q    S S S S E  E  S S S S     Q    Q    E  E  Q
-----------------------------|------------------------|
-----------------------------|------------------------|
--9--------------------------|------------------------|
--9--------------------------|--10----9----------7----|
-----------------------------|---7----5----------5----|
-------0-0-0-0-0-----0-0-0-0-|-------------0--0-------|

 PM PM PM PM PM PM PM PM PM    PM PM PM PM PM PM
  Q    S  S  E  S  S  E  S  S  E     S  S  E  S  S  E   Q     Q
----------------------------------|--------------------------------|
----------------------------------|--------------------------------|
----------------------------------|--------------------12----11----|
--5-------------------------------|--------------------10----10----|
--2-------------------------------|--------------------------------|
-------0--0--0--0--0--0--0--0--0--|--0--0--0--0--0--0--------------|


  PM PM PM PM PM                       PM PM      PM PM
  Q    S  S  S  S  E  E  S S S S     E   E  E  E  Q    E  E
---------------------------------|---------------------------|
---------------------------------|---------------------------|
--9------------------------------|---------------------------|
--9------------------------------|--10p--9--------7----------|
---------------------------------|---7------------5----------|
-------0--0--0--0--0-----0-0-0-0-|----------0--0-------0--0--|

     PM PM PM PM PM PM PM PM PM    PM PM PM PM PM PM
  Q    S  S  E  S  S  E  S  S  E     S  S  E  S  S  E   Q     Q
----------------------------------|--------------------------------|
----------------------------------|--------------------------------|
----------------------------------|--------------------12----11----|
--9-------------------------------|--------------------10----10----|
--7-------------------------------|--------------------------------|
-------0--0--0--0--0--0--0--0--0--|--0--0--0--0--0--0--------------|


                                    PM PM
  Q    S S S S E  E  S S S S     Q    Q    E  E  Q
-----------------------------|------------------------|
-----------------------------|------------------------|
--9--------------------------|------------------------|
--9--------------------------|--10----9----------7----|
-----------------------------|---7----5----------5----|
-------0-0-0-0-0-----0-0-0-0-|-------------0--0-------|


  PM PM PM PM PM PM PM PM PM    PM PM PM PM PM PM
  Q    S  S  E  S  S  E  S  S  E     S  S  E  S  S  E   Q     Q
----------------------------------|--------------------------------|
----------------------------------|--------------------------------|
----------------------------------|--------------------12----11----|
--5-------------------------------|--------------------10----10----|
--2-------------------------------|--------------------------------|
-------0--0--0--0--0--0--0--0--0--|--0--0--0--0--0--0--------------|

   PM PM PM PM PM                       PM PM      PM PM
  Q    S  S  S  S  E  E  S S S S     E   E  E  E  Q    E  E
---------------------------------|---------------------------|
---------------------------------|---------------------------|
--9------------------------------|---------------------------|
--9------------------------------|--10p--9--------7----------|
---------------------------------|---7------------5----------|
-------0--0--0--0--0-----0-0-0-0-|----------0--0-------0--0--|

        PM        PM
   Q    E   E  E  E  Q       W                    H.           Q
--------------------------|-------------------|----------------0----|
--------------------------|-------------------|---------------------|
--------------------------|-------------------|---------------------|
--14-------12--L-----9----|--L----------------|--10-----------------|
--10--------9--L-----7----|--L----------------|---7-----------------|
--------0---------0-------|-------------------|---------------------|

  Q    Q    H            H.           Q       Q    Q     H
--L------------------|----------------0----|--L-------------------|
-------0-------------|---------------------|-------0--------------|
------------9--------|---------------------|------------11--------|
---------------------|--12-----------------|----------------------|
---------------------|---9-----------------|----------------------|
---------------------|---------------------|----------------------|

E   E   E   E   E   E  E  E     E  E  E  E  E  E  E  E
--------------------------------|-------------------------------|
--------------------------------|-------------------------------|
--11--11--11--11--11--11--9--9--|--9--9--9--9--9--9--9--9-------|
---9---9---9---9---9-----9---9--9--|--9--9--9--9--9--9--9--9----|
---7---7---7---7---7-----7---7--7--|--7--7--7--7--7--7--7--7----|
--------------------------------|-------------------------------|


   E   E   E   E   E   E   E   E      E   E   E   E   E   E   E   E
----------------------------------|----------------------------------|
----------------------------------|----------------------------------|
--11--11--11--11--11--11--12--12--|--12--12--12--12--12--12--12--12--|
---9---9---9---9---9---9---9---9--|---9---9---9---9---9---9---9---9--|
---7---7---7---7---7---7---7---7--|---7---7---7---7---7---7---7---7--|
----------------------------------|----------------------------------|


H.           Q       Q    Q    H            H.           Q
----------------0----|--L------------------|----------------0----|
---------------------|-------0-------------|---------------------|
---------------------|------------9--------|---------------------|
--10-----------------|---------------------|--12-----------------|
---7-----------------|---------------------|---9-----------------|
---------------------|---------------------|---------------------|


                              PM PM PM PM PM PM PM PM PM
  Q    Q     H           Q    S  S  E  S  S  E  S  S  E
--L-------------------|----------------------------------|
-------0--------------|----------------------------------|
------------11--------|----------------------------------|
----------------------|--9-------------------------------|
----------------------|--7-------------------------------|
----------------------|-------0--0--0--0--0--0--0--0--0--|

 PM PM PM PM PM PM
  S  S  E  S  S  E   Q    Q       Q    S S S S E  E  S S S S
-------------------------------|-----------------------------|
-------------------------------|-----------------------------|
-------------------------------|-----------------------------|
--------------------10----7----|--9--------------------------|
---------------------7----7----|--7--------------------------|
--0--0--0--0--0--0-------------|-------0-0-0-0-0-----0-0-0-0-|

            PM PM              PM PM PM PM PM PM PM PM PM
  Q    Q    E  E  Q       Q    S  S  E  S  S  E  S  S  E
-----------------------|----------------------------------|
-----------------------|----------------------------------|
-----------------------|----------------------------------|
--2----4----------7----|--9-------------------------------|
--3----5----------5----|--7-------------------------------|
------------0--0-------|-------0--0--0--0--0--0--0--0--0--|


 PM PM PM PM PM PM
  S  S  E  S  S  E   Q    Q       Q    S S S S E  E  S S S S
-------------------------------|-----------------------------|
-------------------------------|-----------------------------|
-------------------------------|-----------------------------|
--------------------10----7----|--9--------------------------|
---------------------7----7----|--7--------------------------|
--0--0--0--0--0--0-------------|-------0-0-0-0-0-----0-0-0-0-|


         PM PM      PM PM         PM PM PM PM PM PM PM PM PM
  E   E  E  E  Q    E  E     Q    S  S  E  S  S  E  S  S  E
--------------------------|----------------------------------|
--------------------------|----------------------------------|
--------------------------|----------------------------------|
--2h--4--------7----------|--9-------------------------------|
--3------------5----------|--7-------------------------------|
---------0--0-------0--0--|-------0--0--0--0--0--0--0--0--0--|

  PM PM PM PM PM PM
  S  S  E  S  S  E   Q     Q       Q    S S S S E  E  S S S S
--------------------------------|-----------------------------|
--------------------------------|-----------------------------|
--------------------12----11----|--9--------------------------|
--------------------10----10----|--9--------------------------|
--------------------------------|-----------------------------|
--0--0--0--0--0--0--------------|-------0-0-0-0-0-----0-0-0-0-|


            PM PM              PM PM PM PM PM PM PM PM PM
   Q    Q    E  E  Q       Q    S  S  E  S  S  E  S  S  E
------------------------|----------------------------------|
------------------------|----------------------------------|
------------------------|----------------------------------|
--10----9----------7----|--5-------------------------------|
---7----5----------5----|--2-------------------------------|
-------------0--0-------|-------0--0--0--0--0--0--0--0--0--|

PM PM PM PM PM PM                     PM PM PM PM PM
  S  S  E  S  S  E   Q     Q       Q    S  S  S  S  E  E  S S S S
--------------------------------|---------------------------------|
--------------------------------|---------------------------------|
--------------------12----11----|--9------------------------------|
--------------------10----10----|--9------------------------------|
--------------------------------|---------------------------------|
--0--0--0--0--0--0--------------|-------0--0--0--0--0-----0-0-0-0-|


          PM PM      PM PM         PM PM PM PM PM PM PM PM PM
   E   E  E  E  Q    E  E     Q    S  S  E  S  S  E  S  S  E
---------------------------|----------------------------------|
---------------------------|----------------------------------|
---------------------------|----------------------------------|
--10p--9--------7----------|--9-------------------------------|
---7------------5----------|--7-------------------------------|
----------0--0-------0--0--|-------0--0--0--0--0--0--0--0--0--|

  PM PM PM PM PM PM
  S  S  E  S  S  E   Q     Q       Q    S S S S E  E  S S S S
--------------------------------|-----------------------------|
--------------------------------|-----------------------------|
--------------------12----11----|--9--------------------------|
--------------------10----10----|--9--------------------------|
--------------------------------|-----------------------------|
--0--0--0--0--0--0--------------|-------0-0-0-0-0-----0-0-0-0-|

             PM PM              PM PM PM PM PM PM PM PM PM
   Q    Q    E  E  Q       Q    S  S  E  S  S  E  S  S  E
------------------------|----------------------------------|
------------------------|----------------------------------|
------------------------|----------------------------------|
--10----9----------7----|--5-------------------------------|
---7----5----------5----|--2-------------------------------|
-------------0--0-------|-------0--0--0--0--0--0--0--0--0--|


  PM PM PM PM PM PM                     PM PM PM PM PM
  S  S  E  S  S  E   Q     Q       Q    S  S  S  S  E  E  S S S S
--------------------------------|---------------------------------|
--------------------------------|---------------------------------|
--------------------12----11----|--9------------------------------|
--------------------10----10----|--9------------------------------|
--------------------------------|---------------------------------|
--0--0--0--0--0--0--------------|-------0--0--0--0--0-----0-0-0-0-|


          PM PM
   E   E  E  E  Q    Q        H.           Q       Q    Q    H
--------------------------|----------------0----|--L------------------|
--------------------------|---------------------|-------0-------------|
--------------------------|---------------------|------------9--------|
--10p--9--------7----L----|--10-----------------|---------------------|
---7------------5----L----|---7-----------------|---------------------|
----------0--0------------|---------------------|---------------------|

   H.           Q       Q    Q     H            E   E   E   E   E   E  E
----------------0----|--L-------------------|------------------------------|
---------------------|-------0--------------|------------------------------|
---------------------|------------11--------|--11--11--11--11--11--11--9---|
--12-----------------|----------------------|---9---9---9---9---9---9--9---|
---9-----------------|----------------------|---7---7---7---7---7---7--7---|
---------------------|----------------------|------------------------------|

  E  E  E  E  E  E  E  E      E   E   E   E   E   E   E   E
--------------------------|----------------------------------|
--------------------------|----------------------------------|
--9--9--9--9--9--9--9--9--|--11--11--11--11--11--11--12--12--|
--9--9--9--9--9--9--9--9--|---9---9---9---9---9---9---9---9--|
--7--7--7--7--7--7--7--7--|---7---7---7---7---7---7---7---7--|
--------------------------|----------------------------------|

   E   E   E   E   E   E   E   E      H.           Q       Q    Q    H
----------------------------------|----------------0----|--L---------------|
----------------------------------|---------------------|-------0----------|
--12--12--12--12--12--12--12--12--|---------------------|------------9-----|
---9---9---9---9---9---9---9---9--|--10-----------------|------------------|
---7---7---7---7---7---7---7---7--|---7-----------------|------------------|
----------------------------------|---------------------|------------------|


   H.           Q       Q    Q     H            E   E   E   E   E   E  E  E
----------------0----|--L-------------------|------------------------------|
---------------------|-------0--------------|------------------------------|
---------------------|------------11--------|--11--11--11--11--11--11--9--9|
--12-----------------|----------------------|---9---9---9---9---9---9--9--9|
---9-----------------|----------------------|---7---7---7---7---7---7--7--7|
---------------------|----------------------|------------------------------|

  E  E  E  E  E  E  E  E      E   E   E   E   E   E   E   E
--------------------------|----------------------------------|
--------------------------|----------------------------------|
--9--9--9--9--9--9--9--9--|--11--11--11--11--11--11--12--12--|
--9--9--9--9--9--9--9--9--|---9---9---9---9---9---9---9---9--|
--7--7--7--7--7--7--7--7--|---7---7---7---7---7---7---7---7--|
--------------------------|----------------------------------|

   E   E   E   E   E   E   E   E      H.           Q       Q    Q H
----------------------------------|----------------0----|--L---------------|
----------------------------------|---------------------|-------0----------|
--12--12--12--12--12--12--12--12--|---------------------|------------9-----|
---9---9---9---9---9---9---9---9--|--10-----------------|------------------|
---7---7---7---7---7---7---7---7--|---7-----------------|------------------|
----------------------------------|---------------------|------------------|

                                                   PM PM PM PM
   H.           Q       Q    Q     H           Q    E  E  E  E
----------------0----|--L-------------------|-------------------|
---------------------|-------0--------------|-------------------|
---------------------|------------11--------|-------------------|
--12-----------------|----------------------|--9----------------|
---9-----------------|----------------------|--7----------------|
---------------------|----------------------|-------0--0--0--0--|

       PM PM PM PM                                                 PM PM PM
  Q    E  E  E  E      Q    S   S E  Q       Q    Q    Q       Q    E  E  Q
-------------------|----------------------|-----------------|--------------|
-------------------|----------------------|-----------------|--------------|
-------------------|----------------------|-----------------|--------------|
--9----------------|----------------------|-----------------|-------------9|
--7----------------|--10----9h-10-9--5----|--7----5---------|----------7---|
-------0--0--0--0--|----------------------|------------7----|--0----8------|

                          PM PM PM      PM PM  PM PM PM  PM
   Q    Q    Q       Q    E  E  Q       E  E   E  E  E   E
------------------|------------------|----------------------|
------------------|------------------|----------------------|
------------------|------------------|----------------------|
--10----9---------|-------------9----|----------------------|
-------------7----|----------5-------|------------7--9--10--|
------------------|--7----7----------|--7--8--10------------|

       PM PM PM PM         PM PM PM PM
  Q    E  E  E  E     Q    E  E  E  E      Q    S   S E  Q
-------------------|-------------------|----------------------|
-------------------|-------------------|----------------------|
-------------------|-------------------|----------------------|
--9----------------|--9----------------|----------------------|
--7----------------|--7----------------|--10----9h-10-9--5----|
-------0--0--0--0--|-------0--0--0--0--|----------------------|


                         PM PM PM                              PM PM PM
  Q    Q    Q       Q    E  E  Q        Q    Q    Q       Q    E  E  Q
-----------------|------------------|------------------|------------------|
-----------------|------------------|------------------|------------------|
-----------------|------------------|------------------|------------------|
-----------------|-------------9----|--10----9---------|-------------9----|
--7----5---------|----------7-------|-------------7----|----------5-------|
------------7----|--0----8----------|------------------|--7----7----------|

                         PM PM PM PM         PM PM PM PM
  Q    Q    Q       Q    E  E  E  E     Q    E  E  E  E     Q    S  S  E  Q
-----------------|-------------------|-------------------|-----------------|
--8----7---------|-------------------|-------------------|-----------------|
--x----x---------|-------------------|-------------------|-----------------|
--5----4---------|--9----------------|--9----------------|--9----7h-9p-7---|
-----------------|--7----------------|--7----------------|----------------9|
------------0----|-------0--0--0--0--|-------0--0--0--0--|-----------------|

                           PM PM PM                              PM PM PM
   Q    Q     Q       Q    E  E  Q        Q    Q    Q       Q    E  E  Q
-------------------|------------------|------------------|-----------------|
-------------------|------------------|------------------|-----------------|
-------------------|------------------|------------------|-----------------|
-------------------|-------------9----|--10----9---------|-------------9---|
--10----9----------|--7-------7-------|-------------7----|----------5------|
-------------10----|-------8----------|------------------|--7----7---------|

   PM PM PM  PM PM PM         PM PM PM PM         PM PM PM PM
   E  E  E   E  E  E     Q    E  E  E  E     Q    E  E  E  E
----------------------|-------------------|-------------------|
----------------------|-------------------|-------------------|
----------------------|-------------------|-------------------|
----------------7--9--|--9----------------|--9----------------|
------7--9--10--------|--7----------------|--7----------------|
--10------------------|-------0--0--0--0--|-------0--0--0--0--|


                                                PM PM PM
  Q    S  S  E  Q        Q    Q     Q       Q    E  E  Q        Q    Q    Q
---------------------|-------------------|------------------|--------------|
---------------------|-------------------|------------------|--------------|
---------------------|-------------------|------------------|--------------|
--9----7h-9p-7-------|-------------------|-------------9----|--10----9-----|
----------------9----|--10----9----------|--7-------7-------|-------------7|
---------------------|-------------10----|-------8----------|--------------|


       PM PM PM
  Q    E  E  Q       Q    Q   Q
------------------|-----------------|-------|-------|-------|-------|------|
------------------|--8----7---------|-------|-------|-------|-------|------|
------------------|--x----x---------|-------|-------|-------|-------|------|
-------------9----|--5----4---------|-------|-------|-------|-------|------|
----------5-------|-----------------|-------|-------|-------|-------|------|
--7----7----------|------------0----|-------|-------|-------|-------|------|


                               PM PM PM PM PM PM PM PM PM
                          Q    S  S  E  S  S  E  S  S  E
-------|-------|-------|----------------------------------|
-------|-------|-------|----------------------------------|
-------|-------|-------|----------------------------------|
-------|-------|-------|----------------------------------|
-------|-------|-------|----------------------------------|
-------|-------|-------|-------0--0--0--0--0--0--0--0--0--|

  PM PM PM PM PM PM                  PM PM PM PM PM PM PM PM PM
  S  S  E  S  S  E  H           Q    S  S  E  S  S  E  S  S  E
-----------------------------|----------------------------------|
-----------------------------|----------------------------------|
-----------------------------|----------------------------------|
-----------------------------|----------------------------------|
-----------------------------|----------------------------------|
--0--0--0--0--0--0-----------|-------0--0--0--0--0--0--0--0--0--|


           PM PM PM              PM PM PM PM PM PM PM PM PM
  H        S  S  E  Q       Q    S  S  E  S  S  E  S  S  E
-------------------------|----------------------------------|
-------------------------|----------------------------------|
-------------------------|----------------------------------|
-------------------------|----------------------------------|
-------------------------|----------------------------------|
-----------0--0--0-------|-------0--0--0--0--0--0--0--0--0--|

  PM PM PM PM PM PM                  PM PM PM PM PM PM PM PM PM
  S  S  E  S  S  E  H           Q    S  S  E  S  S  E  S  S  E
-----------------------------|----------------------------------|
-----------------------------|----------------------------------|
-----------------------------|----------------------------------|
-----------------------------|----------------------------------|
-----------------------------|----------------------------------|
--0--0--0--0--0--0-----------|-------0--0--0--0--0--0--0--0--0--|

       PM PM PM   PH              PH     PM PM PM PM PM PM PM PM PM
  Q    S  S  E    H               Q      S  S  E  S  S  E  S  S  E
-----------------------------|--------------------------------------|
-----------------------------|--------------------------------------|
----------------<>3b~--------|--------------------------------------|
-----------------------------|--------------------------------------|
-----------------------------|--------------------------------------|
-------0--0--0---------------|--<>3b~----0--0--0--0--0--0--0--0--0--|

  PM PM PM PM PM PM                  PM PM PM PM PM PM PM PM PM
  S  S  E  S  S  E  H           Q    S  S  E  S  S  E  S  S  E
-----------------------------|----------------------------------|
-----------------------------|----------------------------------|
-----------------------------|----------------------------------|
-----------------------------|----------------------------------|
-----------------------------|----------------------------------|
--0--0--0--0--0--0-----------|-------0--0--0--0--0--0--0--0--0--|


           PM PM PM              PM PM PM PM PM PM PM PM PM
  H        S  S  E  Q       Q    S  S  E  S  S  E  S  S  E
-------------------------|----------------------------------|
-------------------------|----------------------------------|
-------------------------|----------------------------------|
-------------------------|----------------------------------|
-------------------------|----------------------------------|
-----------0--0--0-------|-------0--0--0--0--0--0--0--0--0--|

  PM PM PM PM PM PM                  PM PM PM PM PM PM PM PM PM
  S  S  E  S  S  E  H           Q    S  S  E  S  S  E  S  S  E
-----------------------------|----------------------------------|
-----------------------------|----------------------------------|
-----------------------------|----------------------------------|
-----------------------------|----------------------------------|
-----------------------------|----------------------------------|
--0--0--0--0--0--0-----------|-------0--0--0--0--0--0--0--0--0--|


  PM PM PM
  S  S  E  Q    S S E  E   E       W                    H         H
-------------------------------|---------------------|---------------------|
-----------------------7S--8h--|--10~----------------|--L--------/12-------|
-------------------------------|---------------------|---------------------|
-------------------------------|---------------------|---------------------|
-------------------------------|---------------------|---------------------|
--0--0--0-------0-0-0----------|---------------------|---------------------|

    Q.        E      Q.     S  S
----------------------------------|
----------------------------7h-8h-|
--/11~------(11)br~--L------------|
----------------------------------|
----------------------------------|
----------------------------------|


                                T
                |------5-----|            |---3--|
   S  S  S  S   S  S  S  S   S  E    E    E   E  E
----------------------------------------------------|
--10p-8p-7h-8h-10p-8p-7h-8h-10-15s--17p--10p--8--7--|
----------------------------------------------------|
----------------------------------------------------|
----------------------------------------------------|
----------------------------------------------------|

  E  E  E    E   E   E    E   E      E    E   E   E    E   E   E   E
-----7----------10-----------12--|-----------14-----------17------17--|
---------------------------------|------------------------------------|
--9-----9S--12------12S--14------|--14S--16------16S--19------19------|
---------------------------------|------------------------------------|
---------------------------------|------------------------------------|
---------------------------------|------------------------------------|


   Q.       Q     E  E  E     H        Q    Q
--19~-------L-----L--L--L--|--L--------L----L\----|
---------------------------|----------------------|
---------------------------|----------------------|
---------------------------|----------------------|
---------------------------|----------------------|
---------------------------|----------------------|

   E   E   E   E   E   E   E   E      E   E   E    E   E   E    E   E
--19--15--15--15--15------15------|------------------------------------|
----------------------19------17--|------19-----------17-----------15--|
----------------------------------|--16------16s--14------14s--12------|
----------------------------------|------------------------------------|
----------------------------------|------------------------------------|
----------------------------------|------------------------------------|


   E    E   E   E   E   E  E   E      H        Q    Q
-----------------------------------|----------------------|
-----------15----------12----------|----------------------|
--12s--11------11s--9------9--11~--|--L--------L----------|
-----------------------------------|--L--------L----L\----|
-----------------------------------|----------------------|
-----------------------------------|----------------------|

   |---3---|   |---3--|   |---3--|   |--3--|
    E   E   E   E   E  E   E   E  E   E  E  E
-----------------------------------------------|
--/13--12--10-------------12--10--8------------|
---------------12--11--9-------------11--9--7--|
-----------------------------------------------|
-----------------------------------------------|
-----------------------------------------------|


   |--3--|  |--3--|  |--3--|  |--3--|
   E  E  E  E  E  E  E  E  E  E  E  E       H         Q     Q
---------------------------------------|--------------------------|
--10--8--7--------------------5--7--8--|--------------------------|
------------9--7--5--4--5--7-----------|--5g4~--------------------|
---------------------------------------|--------------5-----------|
---------------------------------------|-------------------/7~----|
---------------------------------------|--------------------------|


  W                    H.           Q       Q    Q    H
-------------------|----------------0----|--L------------------|
-------------------|---------------------|-------0-------------|
-------------------|---------------------|------------9--------|
-------------------|--10-----------------|---------------------|
--L----------------|---7-----------------|---------------------|
-------------------|---------------------|---------------------|


   H.           Q       Q    Q     H            E   E   E   E   E   E  E  E
----------------0----|--L-------------------|------------------------------|
---------------------|-------0--------------|------------------------------|
---------------------|------------11--------|--11--11--11--11--11--11--9--9|
--12-----------------|----------------------|---9---9---9---9---9---9--9--9|
---9-----------------|----------------------|---7---7---7---7---7---7--7--7|
---------------------|----------------------|------------------------------|

  E  E  E  E  E  E  E  E      E   E   E   E   E   E   E   E
--------------------------|----------------------------------|
--------------------------|----------------------------------|
--9--9--9--9--9--9--9--9--|--11--11--11--11--11--11--12--12--|
--9--9--9--9--9--9--9--9--|---9---9---9---9---9---9---9---9--|
--7--7--7--7--7--7--7--7--|---7---7---7---7---7---7---7---7--|
--------------------------|----------------------------------|

 E   E   E   E   E   E   E   E      H.           Q       Q    Q      H
----------------------------------|----------------0----|--L---------------|
----------------------------------|---------------------|-------0----------|
--12--12--12--12--12--12--12--12--|---------------------|------------9-----|
---9---9---9---9---9---9---9---9--|--10-----------------|------------------|
---7---7---7---7---7---7---7---7--|---7-----------------|------------------|
----------------------------------|---------------------|------------------|


   H.           Q       Q    Q     H            E   E   E   E   E   E  E  E
----------------0----|--L-------------------|------------------------------|
---------------------|-------0--------------|------------------------------|
---------------------|------------11--------|--11--11--11--11--11--11--9--9|
--12-----------------|----------------------|---9---9---9---9---9---9--9--9|
---9-----------------|----------------------|---7---7---7---7---7---7--7--7|
---------------------|----------------------|------------------------------|


  E  E  E  E  E  E  E  E      E   E   E   E   E   E   E   E
--------------------------|----------------------------------|
--------------------------|----------------------------------|
--9--9--9--9--9--9--9--9--|--11--11--11--11--11--11--12--12--|
--9--9--9--9--9--9--9--9--|---9---9---9---9---9---9---9---9--|
--7--7--7--7--7--7--7--7--|---7---7---7---7---7---7---7---7--|
--------------------------|----------------------------------|

   E   E   E   E   E   E   E   E      H.           Q       Q    Q    H
----------------------------------|----------------0----|--L---------------|
----------------------------------|---------------------|-------0----------|
--12--12--12--12--12--12--12--12--|---------------------|------------9-----|
---9---9---9---9---9---9---9---9--|--10-----------------|------------------|
---7---7---7---7---7---7---7---7--|---7-----------------|------------------|
----------------------------------|---------------------|------------------|


                                                  PM PM PM PM PM PM PM PM PM
   H.           Q       Q    Q     H           Q    S  S  E  S  S E  S S E
----------------0----|--L-------------------|------------------------------|
---------------------|-------0--------------|------------------------------|
---------------------|------------11--------|------------------------------|
--12-----------------|----------------------|--9---------------------------|
---9-----------------|----------------------|--7---------------------------|
---------------------|----------------------|-------0--0--0--0--0-0--0-0-0-|


  PM PM PM PM PM PM
  S  S  E  S  S  E   Q     Q       Q    S S S S E  E  S S S S
--------------------------------|-----------------------------|
--------------------------------|-----------------------------|
--------------------12----11----|--9--------------------------|
--------------------10----10----|--9--------------------------|
--------------------------------|-----------------------------|
--0--0--0--0--0--0--------------|-------0-0-0-0-0-----0-0-0-0-|


             PM PM              PM PM PM PM PM PM PM PM PM
   Q    Q    E  E  Q       Q    S  S  E  S  S  E  S  S  E
------------------------|----------------------------------|
------------------------|----------------------------------|
------------------------|----------------------------------|
--10----9----------7----|--5-------------------------------|
---7----5----------5----|--2-------------------------------|
-------------0--0-------|-------0--0--0--0--0--0--0--0--0--|


  PM PM PM PM PM PM                     PM PM PM PM PM
  S  S  E  S  S  E   Q     Q       Q    S  S  S  S  E  E  S S S S
--------------------------------|---------------------------------|
--------------------------------|---------------------------------|
--------------------12----11----|--9------------------------------|
--------------------10----10----|--9------------------------------|
--------------------------------|---------------------------------|
--0--0--0--0--0--0--------------|-------0--0--0--0--0-----0-0-0-0-|


          PM PM      PM PM         PM PM PM PM PM PM PM PM PM
   E   E  E  E  Q    E  E     Q    S  S  E  S  S  E  S  S  E
---------------------------|----------------------------------|
---------------------------|----------------------------------|
---------------------------|----------------------------------|
--10p--9--------7----------|--9-------------------------------|
---7------------5----------|--7-------------------------------|
----------0--0-------0--0--|-------0--0--0--0--0--0--0--0--0--|


  PM PM PM PM PM PM
  S  S  E  S  S  E   Q     Q       Q    S S S S E  E  S S S S
--------------------------------|-----------------------------|
--------------------------------|-----------------------------|
--------------------12----11----|--9--------------------------|
--------------------10----10----|--9--------------------------|
--------------------------------|-----------------------------|
--0--0--0--0--0--0--------------|-------0-0-0-0-0-----0-0-0-0-|

             PM PM              PM PM PM PM PM PM PM PM PM
   Q    Q    E  E  Q       Q    S  S  E  S  S  E  S  S  E
------------------------|----------------------------------|
------------------------|----------------------------------|
------------------------|----------------------------------|
--10----9----------7----|--5-------------------------------|
---7----5----------5----|--2-------------------------------|
-------------0--0-------|-------0--0--0--0--0--0--0--0--0--|


  PM PM PM PM PM PM                     PM PM PM PM PM
  S  S  E  S  S  E   Q     Q       Q    S  S  S  S  E  E  S S S S
--------------------------------|---------------------------------|
--------------------------------|---------------------------------|
--------------------12----11----|--9------------------------------|
--------------------10----10----|--9------------------------------|
--------------------------------|---------------------------------|
--0--0--0--0--0--0--------------|-------0--0--0--0--0-----0-0-0-0-|

          PM PM      PM PM         PM PM PM PM PM PM PM PM PM
   E   E  E  E  Q    E  E     Q    S  S  E  S  S  E  S  S  E
---------------------------|----------------------------------|
---------------------------|----------------------------------|
---------------------------|----------------------------------|
--10p--9--------7----------|--9-------------------------------|
---7------------5----------|--7-------------------------------|
----------0--0-------0--0--|-------0--0--0--0--0--0--0--0--0--|


  PM PM PM PM PM PM
  S  S  E  S  S  E   Q     Q       Q    S S S S E  E  S S S S
--------------------------------|-----------------------------|
--------------------------------|-----------------------------|
--------------------12----11----|--9--------------------------|
--------------------10----10----|--9--------------------------|
--------------------------------|-----------------------------|
--0--0--0--0--0--0--------------|-------0-0-0-0-0-----0-0-0-0-|

             PM PM              PM PM PM PM PM PM PM PM PM
   Q    Q    E  E  Q       Q    S  S  E  S  S  E  S  S  E
------------------------|----------------------------------|
------------------------|----------------------------------|
------------------------|----------------------------------|
--10----9----------7----|--5-------------------------------|
---7----5----------5----|--2-------------------------------|
-------------0--0-------|-------0--0--0--0--0--0--0--0--0--|


  PM PM PM PM PM PM                     PM PM PM PM PM
  S  S  E  S  S  E   Q     Q       Q    S  S  S  S  E  E  S S S S
--------------------------------|---------------------------------|
--------------------------------|---------------------------------|
--------------------12----11----|--9------------------------------|
--------------------10----10----|--9------------------------------|
--------------------------------|---------------------------------|
--0--0--0--0--0--0--------------|-------0--0--0--0--0-----0-0-0-0-|


          PM PM      PM PM          PM        PM
   E   E  E  E  Q    E  E      Q    E   E  E  E  Q       H        H
---------------------------|--------------------------|--------------------|
---------------------------|--------------------------|--------------------|
---------------------------|--------------------------|--------------------|
--10p--9--------7----------|--14-------12--L-----9----|--L-----------------|
---7------------5----------|--10--------9--L-----7----|--L--------7\-------|
----------0--0-------0--0--|--------0---------0-------|-----------7\-------|
comments
print report bad tab
5 comments total. Showing first comments.
0 reply
Duffles wrote on September 17 2009, 08:01 am

This tab looks really good, someone must've put a lot of time into it :)
One note though: The open Ds in the intro aren't straight 16ths, they're gallops, meaning two 16ths and one 8th. Everything else seems spot on though, thanks for posting it.

0 reply
Xxbl00dyVengenc wrote on September 17 2009, 06:55 pm

Yeah, I just asked one of my friends at school to email it to me cuz he had tabs for the song and this is the format it was in I didn't really mess with it. I actually didnt even check it for accuracy b4 I played besides like the first 15 seconds.

0 reply
Crimson J. wrote on September 18 2009, 01:14 pm

Well dude/dudette ide say its bout perfect the only thing missing is the guitar backing in the bridge up to the solo,but really i only need the one guitar.And one thing is you should probably label the parts Because the solo i kept skipping by XD

but yeh 5*:]

I want to post or [tab]
guest
You may want to rate the tab now too:
select rating
Please do not post tabs as comments. Select "correction" instead!