Oops, an error
Loading. Please wait.

This Darkened Heart Tab

ver1
ver1

Album

Whole song

More versions @911Tabs.com
3,565 views 9 this week
2 commentsread comments
1 2 3 4 5
excellent!
x 1
Autoscroll
+/-
esc
set tempo
stop
Difficulty
Tuning
advanced
D G C F A D
WARNING: You are trying to view
                                    content from Ultimate-Guitar.com
                                    in an unauthorized application,
                                    which is prohibited.

                                    Please use an official Ultimate
                                    Guitar Tabs application for iPhone,
                                    iPad or Android to access legitimate
                                    chords, guitar, bass, and drum tabs
                                    from Ultimate-Guitar.com database.

                                    Type "ultimate guitar tabs" in Apple
                                    App Store's or Android Market's
                                    search to find the application.
1. And Death in My Arms
2. The Deepest Gray
3. Vicious Betrayal
4. I Die in Degrees
5. Focus Shall Not Fail
6. Regret Not
7. Passion
8. For Salvation
9. Tattered on My Sleeve
10. This Darkened Heart



==============================================================================
1-And Death In My Arms
==============================================================================

                              AND DEATH IN MY ARMS
                         As recorded by All That Remains
                    (From the 2003 Album THIS DARKENED HEART)

Words by Philip Labonte

Music by All That Remains
Arranged by All That Remains and Adam Dutkiewicz
Transcribed by Josh C.

         D5/F#                 E5                   G5                  C5/G
      2 x x 2 3 x          x x 2 4 x x          x x 5 7 x x          x x 5 5 x x

         D/F#                E5open               G5open                 A5
      x x 4 7 x x          0 2 x x x x          x x x 0 3 x          x 0 2 x x x

          B5                  D5/A                 Bb5/F                G5/D
      x 2 4 x x x          x 0 0 x x x          x x 3 3 x x          x 5 5 x x x

       Bb5/FVIII              E5/B
      x 8 8 x x x          x 2 2 x x x

Gtr I (D G C F A D) - 'Acoustic Guitar'
Gtr II (D G C F A D) - 'Distorted Guitar (right channel)'
Gtr III (D G C F A D) - 'Acoustic Guitar'
Gtr IV (D G C F A D) - 'Distorted Guitar (left channel)'
Gtr V (D G C F A D) - 'Distorted Guitar'
Gtr VI (D G C F A D) - 'Distorted Guitar'

 Intro
  Q=115
  N.C.
 4/4
  Gtr I
  E E E E +E  E E E   E E E  E E E E E   E E E  E E E E E
|-----------------0-|-7---5------5-0---|-3---2------2-0----|
|-------------------|---5----3-------3-|---0----0-------0--|
|-------0-(0)---4---|------------------|----------2--------|
|-----4-------------|-5---4----4-------|-2---0-------------|
|---7---------7-----|------------------|-------------------|
|-0-----------------|------------------|-------------------|
|
| Gtr VI
| W                   Q   H.             Q   H.
|-------------------|-7---5------------|-3---2-------------|
|-------------------|------------------|-------------------|
|-------------------|------------------|-------------------|
|-------------------|------------------|-------------------|
|-------------------|------------------|-------------------|
|-------------------|------------------|-------------------|


          |-3-|
  E E E E E E E E E   E E E E +E  E E E   E E E  E E E E E
|-------------------|-0---------------0-|-7---5------5-0---|
|---------0---------|-------------------|---5----3-------3-|
|-0---0-----0-------|-------0-(0)---4---|------------------|
|---2---4-2---2-0-4-|-----4-------------|-5---4----4-------|
|-3---5-------------|---7---------7-----|------------------|
|-------------------|-0-----------------|------------------|
|
| Q   Q   Q     Q     W                   Q   H.
|---------7-----5---|-------------------|-7---5------------|
|-8---7-------------|-5-----------------|------------------|
|-------------------|-------------------|------------------|
|-------------------|-------------------|------------------|
|-------------------|-------------------|------------------|
|-------------------|-------------------|------------------|


                     |-3-| |-3-| |--3--| |-3-|
  E E E  E E E E E   E E E E E E E E S S E E E
|-3---2------2-0---|---------------------------|
|---0----0-------0-|-1p0-------------0---------|
|----------2-------|-----0-2p0---------------2-|
|-2---0------------|-----------4---2---0---0---|
|------------------|-3-----2-----0-------------|
|------------------|---------------------3-----|
|
| Q   H.             Q     Q     Q       Q
|-3---2------------|---------------------------|
|------------------|-1-----0-------------------|
|------------------|-------------2-------0-----|
|------------------|---------------------------|
|------------------|---------------------------|
|------------------|---------------------------|


  E E E E +E  E E E    E  E  E   E  E  E E  E    E E  E  E E E E E
|-0---------------0-|--7-----5---------5-0----|--3----2------2-0---|
|-------------------|-----5------3----------3-|----0-----0-------0-|
|-------0-(0)---4---|-------------------------|------------2-------|
|-----4-------------|--5-----4------4---------|--2----0------------|
|---7---------7-----|-------------------------|--------------------|
|-0-----------------|-------------------------|--------------------|
|
| Gtr III
| W                    E  E  E   E  E  E E  E    E E  E  E E E E E
|-------------------|-12----10--------10------|--7----5------5-----|
|-------------------|-------------------------|----8-----5-----5---|
|-------------------|----12-----11-------9----|------------7-----7-|
|-2-----------------|-14----12-----12-12---12-|--9----7------------|
|-------------------|-------------------------|--------------------|
|-------------------|-------------------------|--------------------|
|
| Gtr VI
| W                    Q     H.                  Q    H.
|-------------------|-------------------------|--------------------|
|-------------------|-17----15----------------|-12---10------------|
|-------------------|-------------------------|--------------------|
|-2-----------------|-------------------------|--------------------|
|-------------------|-------------------------|--------------------|
|-------------------|-------------------------|--------------------|


  E E E E E E  E E    E E E E +E  E E E    E  E  E   E  E  E E  E
|------------------|--0---------------0-|--7-----5---------5-0----|
|---------0----0---|--------------------|-----5------3----------3-|
|-0---0-----0----2-|--------0-(0)---4---|-------------------------|
|---2---4-5----0---|------4-------------|--5-----4------4---------|
|-3---5------------|----7---------7-----|-------------------------|
|------------------|--0-----------------|-------------------------|
|
| W                   W                    E  E  E   E  E  E E  E
|------------------|--------------------|-12----10--------10------|
|------------------|--------------------|-------------------------|
|------------------|--------------------|----12-----11-------9----|
|------------------|--------------------|-14----12-----12-12---12-|
|------------------|--------------------|-------------------------|
|------------------|--------------------|-------------------------|
|
| Q   Q   Q    Q      W                    Q     H.
|------------------|--------------------|-12----10----------------|
|-5---7---8---10---|-12-----------------|-------------------------|
|------------------|--------------------|-------------------------|
|------------------|--------------------|-------------------------|
|------------------|--------------------|-------------------------|
|------------------|--------------------|-------------------------|


                                               Q=218
                                           D5/F#
                                                >
                     |-3-| |-3-| |-3-| |-3-|
  E E E  E E E E E   E E E E E E E E E E E E   +W           +W
|-3---2------2-0---|-------------------------|------------|-------------|
|---0----0-------0-|-1p0-------------0-----3-|-(3)--------|-(3)---------|
|----------2-------|-----0-2p0-------------2-|-(2)--------|-(2)---------|
|-2---0------------|-----------4---2-----0---|------------|-------------|
|------------------|-3-----2-----0-----------|------------|-------------|
|------------------|-------------------3---2-|-(2)--------|-(2)---------|
|
| E E E  E E E E E   W                          W            W
|-7---5------5-----|-------------------------|------------|-------------|
|---8----5-----5---|-------------------------|------------|-------------|
|----------7-----7-|-------------------------|------------|-------------|
|-9---7------------|-------------------------|------------|-------------|
|------------------|-------------------------|------------|-------------|
|------------------|-------------------------|------------|-------------|
|
|                                               >
| Q   H.             Q     Q     Q     Q       +W           +H     H
|-7---5------------|-------------------------|------------|-------------|
|------------------|-5-----7-----8-----7-----|-(7)--------|-(7)---------|
|------------------|-------------------------|------------|-------------|
|------------------|-------------------------|------------|-------------|
|------------------|-------------------------|------------|-------------|
|------------------|-------------------------|------------|-------------|


  N.C.
  Gtrs II, IV
      PM--------|               PM--|               PM--|
  E E S S E S S E E E   E E E E S S E E E   E E E E S S E E E
|---------------------|-------------------|--------------------|
|---------------------|-------------------|--------------------|
|---------------------|-4---2-------------|--------------------|
|---------------------|---5---4-----------|-5---4--------------|
|-5h7-------------5h7-|---------------5h7-|---7---5-------5h7--|
|-----0-0-0-0-0-0-----|---------0-0-0-----|---------0-0-0------|


                        PM--------|               PM--|
  E E E E E E E E   E E S S E S S E E E   E E E E S S E E E
|-----------------|---------------------|-------------------|
|-----------------|---------------------|-------------------|
|-----------------|---------------------|-4---2-------------|
|-2---4---5---4---|---------------------|---5---4-----------|
|---3---5---7---5-|-5h7-------------5h7-|---------------5h7-|
|-----------------|-----0-0-0-0-0-0-----|---------0-0-0-----|


                                          E5               N.C.
  Gtr V
  W                   W                   W
                      |
                      x

  Gtr II
          PM--|                                            PM|
  E E E E S S E E E   E E E E E E E E     H.               E E
|-------------------|-----------------||-----------------------|
|-------------------|-----------------||o----------------------|
|-------------------|-----------------||--4--------------------|
|-5---4-------------|-2---4---5---4---||--2--------------------|
|---7---5-------5h7-|---3---5---7---5-||o----------------------|
|---------0-0-0-----|-----------------||-------------------0-0-|
|
| Gtr IV
|         PM--|                                PM--------|
| E E E E S S E E E   E E E E E E E E     E  E S S E S S E E E
|-------------------|-----------------||-----------------------|
|-------------------|-----------------||o----------------------|
|-------------------|-----------------||-----------------------|
|-5---4-------------|-2---4---5---4---||-----------------------|
|---7---5-------5h7-|---3---5---7---5-||o-5--7-------------5-7-|
|---------0-0-0-----|-----------------||-------0-0-0-0-0-0-----|


                                           1.
  G5             N.C.  C5/G           N.C.  G5      D/F#
                 PM|                  PM|
  H.             E E   H.             E E   H       H
|--------------------|--------------------|-------------------||
|--------------------|--------------------|------------------o||
|-7------------------|-5------------------|-7-------7---------||
|-5------------------|-5------------------|-5-------4---------||
|--------------------|--------------------|------------------o||
|----------------0-0-|----------------0-0-|-------------------||
|
|          PM--|                PM--|
| E  E E E S S E E E   E  E E E S S E E E   E E E E E E E E
|--------------------|--------------------|-------------------||
|--------------------|--------------------|------------------o||
|-4----2-------------|--------------------|-------------------||
|----5---4-----------|-5----4-------------|-2---4---5---4-----||
|----------------5-7-|----7---5-------5-7-|---3---5---7---5--o||
|----------0-0-0-----|----------0-0-0-----|-------------------||


  2.
  N.C.               E5N.C.
                       PM--|   PM  PM    PM  PM  PM
  E E E E E  E E E   E E E E E E E E   E E E E E E E E
|------------------|-----------------|-----------------||
|------------------|-----------------|-----------------||
|------------------|-----------------|-----------------||
|-5---7---9----7---|-----------------|-----------------||
|---7---9---10---9-|-2-------3---2---|-3---5---3---2h3-||
|------------------|-0-0-0-0---0---0-|---0---0---0-----||
|
|                      PM--|   PM  PM    PM  PM  PM
| E E E E E  E E E   E E E E E E E E   E E E E E E E E
|------------------|-----------------|-----------------||
|------------------|-----------------|-----------------||
|------------------|-----------------|-----------------||
|-2---4---5----4---|-----------------|-----------------||
|---3---5----7---5-|-2-------3---2---|-3---5---3---2h3-||
|------------------|-0-0-0-0---0---0-|---0---0---0-----||


 1st Verse
  N.C.
  Gtrs II, IV
    PM------|   PM    PM  PM  PM        PM--|   PM  PM
  E E E E E E E E   E E E E E E E E   E E E E E E E E
|-----------------|-----------------|-----------------|
|-----------------|-----------------|-----------------|
|-----------------|-----------------|-----------------|
|-----------------|-----------------|-----------------|
|-2-----------3---|-2---3---5---2-3-|-1-------3---2---|
|---0-0-0-0-0---0-|---0---0---0-----|---0-0-0---0---0-|


    PM  PM  PM        PM------|   PM    PM  PM  PM
  E E E E E E E E   E E E E E E E E   E E E E E E E E
|-----------------|-----------------|-----------------|
|-----------------|-----------------|-----------------|
|-----------------|-----------------|-----------------|
|-----------------|-----------------|-----------------|
|-3---5---3---2h3-|-2-----------3---|-2---3---5---2h3-|
|---0---0---0-----|---0-0-0-0-0---0-|---0---0---0-----|


                                             1stChorus
    E5N.C.            E5open                  N.C.
    Gtr II
      PM--|   PM  PM    PM  PM  PM            PM--|   PM|
    E E E E E E E E   E E E E E E E E  4x     E E E E E E E E
||------------------|------------------||-||-------------------|
||o-----------------|-----------------o||-||o------------------|
||------------------|------------------||-||-------------------|
||------------------|------------------||-||-------------------|
||o-2-------3---2---|-3---5---3---2h3-o||-||o-------2-----0h2--|
||----0-0-0---0---0-|---0---0---0------||-||--0-0-0---0-0------|
|
|   Gtr IV
|   PM                PM--------------------------|   PM|
|   E E Q   H         E E E E E E E E  4x     E E E E E E E E
||------------------|------------------||-||-------------------|
||o-----------------|-----------------o||-||o------------------|
||------------------|------------------||-||-------------------|
||------------------|------------------||-||-------------------|
||o-2---------------|-2-2-2-2-2-2-2-2-o||-||o-------2-----0h2--|
||--0---------------|-0-0-0-0-0-0-0-0--||-||--0-0-0---0-0------|


  Gtrs II, IV
  PM--|   PM|       PM--|   PM|       PM--|   PM|
  E E E E E E E E   E E E E E E E E   E E E E E E E E
|-----------------|-----------------|------------------||
|-----------------|-----------------|-----------------o||
|-----------------|-----------------|------------------||
|-----------------|-----------------|-------5-----4----||
|-------2-----0h2-|-------3-----2h3-|-2-2-2---2-2---5-o||
|-3-3-3---3-3-----|-5-5-5---5-5-----|------------------||


    E5open            G5open            A5
    Gtr II
    W                 W                 W
||------------------|-----------------|-----------------|
||o-----------------|-3---------------|-----------------|
||------------------|-0---------------|-----------------|
||------------------|-----------------|-2---------------|
||o-2---------------|-----------------|-0---------------|
||--0---------------|-----------------|-----------------|
|
|   Gtr IV
|   PM--|   PM|       PM--|   PM|       PM--|   PM|
|   E E E E E E E E   E E E E E E E E   E E E E E E E E
||------------------|-----------------|-----------------|
||o-----------------|-----------------|-----------------|
||------------------|-----------------|-----------------|
||------------------|-----------------|-----------------|
||o-------2-----0h2-|-------2-----0h2-|-------3-----2h3-|
||--0-0-0---0-0-----|-3-3-3---3-3-----|-5-5-5---5-5-----|


  1.                  2.
  B5                  N.C.
  W                   E E E E E E E E   E E E E E E E E
|------------------||-----------------|-----------------||
|-----------------o||-----------------|-----5-3---------||
|------------------||---2-5-4-2-------|---5-----5-4-2---||
|-4----------------||-----------5-4---|-2-------------4-||
|-2---------------o||-3-------------5-|-----------------||
|------------------||-----------------|-----------------||
|
| PM--|   PM|
| E E E E E E E E     E E E E E E E E   E E E E E E E E
|------------------||-----------------|-----------------||
|-----------------o||-----------------|-----------------||
|------------------||-----2-----------|---2-5-4-2-------||
|-------5-----4----||---4---5-4-2-----|-----------5-4---||
|-2-2-2---2-2---5-o||-0-----------5-2-|-3-------------5-||
|------------------||-----------------|-----------------||


 Interlude
  E5opN.C.     E5opN.C.     E5opN.C.     E5opN.C.
 3/4
  Q   E E Q    Q   E E Q    Q   E E Q    Q   E E  Q
|------------|------------|------------|--------------|
|------------|------------|------------|--------------|
|------------|------------|------------|--------------|
|-----4-5----|-----7-4----|-----2-4-1--|-----4-1------|
|---------7--|---------5--|------------|----------2---|
|------------|------------|------------|--------------|
|
| PM           PM           PM           PM
| E E H        E E H        E E H        E E Q    Q
|------------|------------|------------|--------------|
|------------|------------|------------|--------------|
|------------|------------|------------|--------------|
|------------|------------|------------|--------------|
|-2----------|-2----------|-2----------|-2------------|
|-0----------|-0----------|-0----------|-0-------12\--|


  D5/Bb5/FN.C.
 2/4     3/4
  Gtrs II, IV
          PM|          PM|          PM|
  Q  Q    E E E E Q    E E E E Q    E E E E Q
|-------|------------|------------|------------|
|-------|------------|------------|------------|
|-------|------------|------------|------------|
|-0--3--|-----4-5----|-----7-4----|-----2-4-1--|
|-0--3--|---------7--|---------5--|------------|
|-------|-0-0--------|-0-0--------|-0-0--------|


              2/4       3/4
  Gtr II
  PM|                    PM|          PM|
  E E E E Q    Q  Q      E E E E Q    E E E E Q
|------------|-------||-------------|------------|
|------------|-------||o------------|------------|
|------------|-------||--------4----|-----7------|
|-----4-1----|-------||------7---5--|-------7-4--|
|---------2--|-------||o------------|------------|
|-0-0--------|-5--3--||--0-0--------|-0-0--------|
|
| Gtr IV
| PM|                    PM|          PM|
| E E E E Q    Q  Q      E E E E Q    E E E E Q
|------------|-------||-------------|------------|
|------------|-------||o------------|------------|
|------------|-------||-------------|------------|
|-----4-1----|-------||------4-5----|-----7-4----|
|---------2--|-------||o---------7--|---------5--|
|-0-0--------|-5--3--||--0-0--------|-0-0--------|


                           1.         2.
                           2/4
  PM|          PM|
  E E E E Q    E E E E Q    Q  Q      Q  Q
|------------|------------|--------||-------||
|------------|------------|-------o||-------||
|-------2----|-----4------|--------||-------||
|-----5---4--|-------4-1--|--------||-------||
|------------|------------|-0--3--o||-0-----||
|-0-0--------|-0-0--------|--------||----3--||
|
| PM|          PM|
| E E E E Q    E E E E Q    Q  Q      Q  Q
|------------|------------|--------||-------||
|------------|------------|-------o||-------||
|------------|------------|--------||-------||
|-----2-4-1--|-----4-1----|--------||-------||
|------------|---------2--|-0--3--o||-0-----||
|-0-0--------|-0-0--------|--------||----3--||


 2nd Verse
  N.C.
 4/4
  Gtrs II, IV
    PM--|   PM  PM    PM  PM  PM        PM------|   PM
  E E E E E E E E   E E E E E E E E   E E E E E E E E
|-----------------|-----------------|------------------|
|-----------------|-----------------|------------------|
|-----------------|-----------------|------------------|
|-----------------|-----------------|------------------|
|-2-------3---2---|-3---5---3---2h3-|-2-----------3----|
|---0-0-0---0---0-|---0---0---0-----|---0-0-0-0-0---0--|


    PM  PM  PM        PM--|   PM  PM    PM  PM  PM
  E E E E E E E E   E E E E E E E E   E E E E E E E E
|-----------------|-----------------|-----------------|
|-----------------|-----------------|-----------------|
|-----------------|-----------------|-----------------|
|-----------------|-----------------|-----------------|
|-2---3---5---2h3-|-1-------3---2---|-3---5---3---2h3-|
|---0---0---0-----|---0-0-0---0---0-|---0---0---0-----|


                                        E5N.C.            E5
  Gtr II
    PM------|   PM    PM  PM  PM          PM--|   PM  PM    PM  PM  PM
  E E E E E E E E   E E E E E E E E     E E E E E E E E   E E E E E E E E  4x
|-----------------|-----------------||------------------|------------------||
|-----------------|-----------------||o-----------------|-----------------o||
|-----------------|-----------------||------------------|------------------||
|-----------------|-----------------||------------------|------------------||
|-2-----------3---|-2---3---5---2h3-||o-2-------3---2---|-3---5---3---2h3-o||
|---0-0-0-0-0---0-|---0---0---0-----||----0-0-0---0---0-|---0---0---0------||
|
| Gtr IV
|   PM------|   PM    PM  PM  PM        PM                PM------------|
| E E E E E E E E   E E E E E E E E     E E Q   H         E E E E E E E E  4x
|-----------------|-----------------||------------------|------------------||
|-----------------|-----------------||o-----------------|-----------------o||
|-----------------|-----------------||------------------|------------------||
|-----------------|-----------------||------------------|------------------||
|-2-----------3---|-2---3---5---2h3-||o-2---------------|-2-2-2-2-2-2-2-2-o||
|---0-0-0-0-0---0-|---0---0---0-----||--0---------------|-0-0-0-0-0-0-0-0--||


  N.C.
    PM--|   PM  PM    PM  PM  PM        PM--|   PM  PM
  E E E E E E E E   E E E E E E E E   E E E E E E E E
|-----------------|-----------------|-----------------|
|-----------------|-----------------|-----------------|
|-----------------|-----------------|-----------------|
|-----------------|-----------------|-----------------|
|-2-------3---2---|-3---5---3---2h3-|-2-------3---2---|
|---0-0-0---0---0-|---0---0---0-----|---0-0-0---0---0-|
|
|   PM--|   PM  PM    PM  PM  PM        PM--|   PM  PM
| E E E E E E E E   E E E E E E E E   E E E E E E E E
|-----------------|-----------------|-----------------|
|-----------------|-----------------|-----------------|
|-----------------|-----------------|-----------------|
|-----------------|-----------------|-----------------|
|-2-------3---2---|-3---5---3---2h3-|-2-------3---2---|
|---0-0-0---0---0-|---0---0---0-----|---0-0-0---0---0-|


  Gtrs II, IV
    PM  PM  PM        PM--|   PM  PM    PM  PM  PM
  E E E E E E E E   E E E E E E E E   E E E E E E E E
|-----------------|-----------------|-----------------|
|-----------------|-----------------|-----------------|
|-----------------|-----------------|-----------------|
|-----------------|-----------------|-----------------|
|-3---5---3---2h3-|-1-------3---2---|-3---5---3---2h3-|
|---0---0---0-----|---0-0-0---0---0-|---0---0---0-----|


                                       2nd Chorus
                                        N.C.
    PM--|   PM  PM    PM  PM  PM        PM--|   PM|
  E E E E E E E E   E E E E E E E E     E E E E E E E E
|-----------------|-----------------||------------------|
|-----------------|-----------------||o-----------------|
|-----------------|-----------------||------------------|
|-----------------|-----------------||------------------|
|-2-------3---2---|-3---5---3---2h3-||o-------2-----0h2-|
|---0-0-0---0---0-|---0---0---0-----||--0-0-0---0-0-----|


  PM--|   PM|       PM--|   PM|       PM--|   PM|
  E E E E E E E E   E E E E E E E E   E E E E E E E E
|-----------------|-----------------|------------------||
|-----------------|-----------------|-----------------o||
|-----------------|-----------------|------------------||
|-----------------|-----------------|-------5-----4----||
|-------2-----0h2-|-------3-----2h3-|-2-2-2---2-2---5-o||
|-3-3-3---3-3-----|-5-5-5---5-5-----|------------------||


    E5open            G5open            A5
    Gtr II
    W                 W                 W
||------------------|-----------------|-----------------|
||o-----------------|-3---------------|-----------------|
||------------------|-0---------------|-----------------|
||------------------|-----------------|-2---------------|
||o-2---------------|-----------------|-0---------------|
||--0---------------|-----------------|-----------------|
|
|   Gtr IV
|   PM--|   PM|       PM--|   PM|       PM--|   PM|
|   E E E E E E E E   E E E E E E E E   E E E E E E E E
||------------------|-----------------|-----------------|
||o-----------------|-----------------|-----------------|
||------------------|-----------------|-----------------|
||------------------|-----------------|-----------------|
||o-------2-----0h2-|-------2-----0h2-|-------3-----2h3-|
||--0-0-0---0-0-----|-3-3-3---3-3-----|-5-5-5---5-5-----|


  1.                  2.
  B5                          N.C.
  W                   H        H
|------------------||-------------------|
|-----------------o||-------------------|
|------------------||-------------------|
|-4----------------||-4-----------------|
|-2---------------o||-2-----------------|
|------------------||---------12\-------|
|
| PM--|   PM|         PM--|    PM-|
| E E E E E E E E     E E E E  E  E E E
|------------------||-------------------|
|-----------------o||-------------------|
|------------------||-------------------|
|-------5-----4----||-------5-------4---|
|-2-2-2---2-2---5-o||-2-2-2----2--2---5-|
|------------------||-------------------|


        PM--------|               PM--|               PM--|
    E E S S E S S E E E   E E E E S S E E E   E E E E S S E  E E
||----------------------|-------------------|--------------------|
||o---------------------|-------------------|--------------------|
||----------------------|-4---2-------------|--------------------|
||----------------------|---5---4-----------|-5---4--------------|
||o-5h7-------------5h7-|---------------5h7-|---7---5--------5h7-|
||------0-0-0-0-0-0-----|---------0-0-0-----|---------0-0-0------|
|
|       PM--------|               PM--|               PM--|
|   E E S S E S S E E E   E E E E S S E E E   E E E E S S E  E E
||----------------------|-------------------|--------------------|
||o---------------------|-------------------|--------------------|
||----------------------|-7---5-------------|-4---2--------------|
||--4h5-------------4h5-|---9---7-------4h5-|---5---4------------|
||o---------------------|-------------------|---------------/5h7-|
||------0-0-0-0-0-0-----|---------0-0-0-----|---------0-0-0------|


  E E E E E  E E E     E  E  E  E  E  E  E  E
|-------------------||------------------------||
|------------------o||------------------------||
|-------------------||------------------------||
|-2---4---5----4----||-5-----7-----9-----7----||
|---3---5----7---5-o||----7-----9----10-----9-||
|-------------------||------------------------||
|
| E E E E E  E E E     E  E  E  E  E  E  E  E
|-------------------||------------------------||
|------------------o||------------------------||
|-------------------||------------------------||
|-5---7---9----7----||-9----10----12----10----||
|---7---9---10---9-o||---10----12----14----12-||
|-------------------||------------------------||


 Interlude
  N.C.
  Gtrs II, IV
   PM                    PM--------------------------------------------|
   E  E  Q   H           E  E  E  E  E  E  E  E    E  E  E  E  E  E  E  E
|---------------------|-------------------------|-------------------------|
|---------------------|-------------------------|-------------------------|
|---------------------|-------------------------|-------------------------|
|---------------------|-------------------------|-------------------------|
|---------------------|-------------------------|--2--2--2--2-------------|
|--0------------------|--0--0--0--0--0--0--0--0-|--------------1--1--1--1-|
|
| Gtr V
|  E  E  Q   E  E  Q     E  E  E  E  E  E  E  E    E  E  E  E  E  E  E  E
|---------------------|-------15----------15----|-14----------------------|
|---------------------|-17-19----19-17-19----17-|----15-------------15----|
|---------------------|-------------------------|-------14----16-17----16-|
|-14-13-14--17-16-17--|-------------------------|----------16-------------|
|---------------------|-------------------------|-------------------------|
|---------------------|-------------------------|-------------------------|
|
| Gtr VI
|  E  E  Q   E  E  Q     E  E  E  E  E  E  E  E    E  E  E  E  E  E  E  E
|---------------------|-------------------------|-11----------------------|
|--8--7--8--12-10-12--|-12-11-12-13-12-10-12----|----12-------------------|
|---------------------|----------------------12-|-------11----10----10--9-|
|---------------------|-------------------------|----------13----10-------|
|---------------------|-------------------------|-------------------------|
|---------------------|-------------------------|-------------------------|


   PM--------------------------------------------------------------------|
   E  E  E  E  E  E  E  E    E  E  E E  E  E  E E    E  E  E  E  E  E  E  E
|-------------------------|-----------------------|-------------------------|
|-------------------------|-----------------------|-------------------------|
|-------------------------|-----------------------|-------------------------|
|-------------------------|-----------------------|-------------------------|
|-------------------------|-----------------------|-------------------------|
|--2--2--2--2--2--2--2--2-|--0--0--0-0--0--0--0-0-|--0--0--0--0--0--0--0--0-|
|
|  E  E  E  E  E  E  E  E    E  E  Q    E  E  Q      E  E  E  E  E  E  E  E
|-------------------------|-----------------------|-------15----------15----|
|-19-16-------------16-19-|-----------------------|-17-19----19-17-19----17-|
|-------16-17----17-------|-----------------------|-------------------------|
|-------------16----------|-14-13-14---17-16-17---|-------------------------|
|-------------------------|-----------------------|-------------------------|
|-------------------------|-----------------------|-------------------------|
|
|  E  E  E  E  E  E  E  E    E  E  Q    E  E  Q      E  E  E  E  E  E  E  E
|-11----------------------|-----------------------|-------------------------|
|----12----------------10-|--8--7--8---12-10-12---|-12-11-12-13-12-10-12----|
|-------11----------11----|-----------------------|----------------------12-|
|----------10-10-13-------|-----------------------|-------------------------|
|-------------------------|-----------------------|-------------------------|
|-------------------------|-----------------------|-------------------------|


   PM-----------------------------------------------------------------------|
   E  E  E  E  E  E  E  E    E  E  E  E  E  E  E  E      E  E  E E  E  E  E E
|-------------------------|-------------------------||-------------------------|
|-------------------------|-------------------------||o------------------------|

|-------------------------|-------------------------||-------------------------|
|-------------------------|-------------------------||-------------------------|
|--2--2--2--2-------------|-------------------------||o------------------------|
|--------------1--1--1--1-|--2--2--2--2--2--2--2--2-||---3--3--3-3--3--3--3-3--|
|
|  E  E  E  E  E  E  E  E    E  E  E  E  E  E  E  E      E  E  Q    E  E  Q
|-14----------------------|-11----------------------||-------------------------|
|----15-------------15----|----12----------------10-||o------------------------|
|-------14----16-17----16-|-------11----------11----||-------------------------|
|----------16-------------|----------10-10-13-------||--17-16-17---20-19-20----|
|-------------------------|-------------------------||o------------------------|
|-------------------------|-------------------------||-------------------------|
|
|  E  E  E  E  E  E  E  E    E  E  E  E  E  E  E  E      E  E  Q    E  E  Q
|-11----------------------|-------------------------||-------------------------|
|----12-------------------|-19-16-------------16-19-||o-11-10-11---15-13-15----|
|-------11----10----10--9-|-------16-17----17-------||-------------------------|
|----------13----10-------|-------------16----------||-------------------------|
|-------------------------|-------------------------||o------------------------|
|-------------------------|-------------------------||-------------------------|


   PM------------------------------------------------
   E  E  E  E  E  E  E  E    E  E  E  E  E  E  E  E
|-------------------------|-------------------------|
|-------------------------|-------------------------|
|-------------------------|-------------------------|
|-------------------------|-------------------------|
|-------------------------|--5--5--5--5-------------|
|--3--3--3--3--3--3--3--3-|--------------4--4--4--4-|
|
|  E  E  E  E  E  E  E  E    E  E  E  E  E  E  E  E
|-------18----------18----|-17----------------------|
|-20-22----22-20-22----20-|----18-------------18----|
|-------------------------|-------17----19-20----19-|
|-------------------------|----------19-------------|
|-------------------------|-------------------------|
|-------------------------|-------------------------|
|
|  E  E  E  E  E  E  E  E    E  E  E  E  E  E  E  E
|-------------------------|-14----------------------|
|-15-14-15-16-15-13-15----|----15-------------------|
|----------------------15-|-------14----13----13-12-|
|-------------------------|----------16----13-------|
|-------------------------|-------------------------|
|-------------------------|-------------------------|


 ----------------------|
   E  E  E  E  E  E  E  E
|--------------------------||
|-------------------------o||
|--------------------------||
|--------------------------||
|-------------------------o||
|--5--5--5--5--5--5--5--5--||
|
|  E  E  E  E  E  E  E  E
|-14-----------------------||
|----15----------------13-o||
|-------14----------14-----||
|----------13-13-16--------||
|-------------------------o||
|--------------------------||
|
|  E  E  E  E  E  E  E  E
|--------------------------||
|-22-19-------------19-22-o||
|-------19-20----20--------||
|-------------19-----------||
|-------------------------o||
|--------------------------||


   W           W           W           W
|-----------|-----------|-----------|-------|
|-----------|-----------|-----------|-------|
|-----------|-----------|-----------|-------|
|--5--------|--4--------|--6--------|--7----|
|-----------|-----------|-----------|-------|
|--3--------|--2--------|--4--------|--5----|
|
|  ~~~~~~~~~~~~~~~~~~~~~~~~~~~~~~~~~~~~~~
|  W           W           W           W
|-----------|-----------|-----------|-------|
|-11--------|-10--------|-13--------|-15----|
|-----------|-----------|-----------|-------|
|-----------|-----------|-----------|-------|
|-----------|-----------|-----------|-------|
|-----------|-----------|-----------|-------|
|
|  ~~~~~~~~~~~~~~~~~~~~~~~~~~~~~~~~~~~~~~
|  W           W           W           W
|-----------|-----------|-----------|-------|
|-----------|-----------|-----------|-------|
|-12--------|-11--------|-13--------|-14----|
|-----------|-----------|-----------|-------|
|-----------|-----------|-----------|-------|
|-----------|-----------|-----------|-------|


   W           W           W           H      H
|-----------|-----------|-----------|---------------|
|-----------|-----------|-----------|---------------|
|-----------|-----------|-----------|---------------|
|--5--------|--4--------|--6--------|--7------------|
|-----------|-----------|-----------|---------------|
|--3--------|--2--------|--4--------|--5----/15\----|
|
|  ~~~~~~~~~~~~~~~~~~~~~~~~~~~~~~~~~~~~~~
|  W           W           W           W
|-----------|-----------|-15--------|-10------------|
|-15--------|-16--------|-----------|---------------|
|-----------|-----------|-----------|---------------|
|-----------|-----------|-----------|---------------|
|-----------|-----------|-----------|---------------|
|-----------|-----------|-----------|---------------|
|
|  ~~~~~~~~~~~~~~~~~~~~~~~~~~~~~~~~~~~~~~
|  W           W           W           W
|-----------|-----------|-----------|---------------|
|-----------|-----------|-----------|---------------|
|-12--------|-14--------|-15--------|-14------------|
|-----------|-----------|-----------|---------------|
|-----------|-----------|-----------|---------------|
|-----------|-----------|-----------|---------------|


  E5opN.C.     E5opN.C.     E5opN.C.     E5opN.C.
 3/4
  Gtr II
  Q   E E Q    Q   E E Q    Q   E E Q    Q   E E  Q
|------------|------------|------------|--------------|
|------------|------------|------------|--------------|
|------------|------------|------------|--------------|
|-----4-5----|-----7-4----|-----2-4-1--|-----4-1------|
|---------7--|---------5--|------------|----------2---|
|------------|------------|------------|--------------|
|
| Gtr IV
| PM           PM           PM           PM
| E E H        E E H        E E H        E E Q    Q
|------------|------------|------------|--------------|
|------------|------------|------------|--------------|
|------------|------------|------------|--------------|
|------------|------------|------------|--------------|
|-2----------|-2----------|-2----------|-2------------|
|-0----------|-0----------|-0----------|-0-------12\--|


           Breakdown
            Q=200
  D5/Bb5/F  E5oN.C.             E5N.C.
 2/4       4/4
  Gtrs II, IV
               PM------|          PM------------|
  Q  Q      Q  E E S S E Q    E E E E S S E S S E
|-------||------------------|---------------------|
|-------||o-----------------|---------------------|
|-------||------------------|---------------------|
|-0--3--||------------------|---------------------|
|-0--3--||o-2---------------|---2-----------------|
|-------||--0--0-0-0-0-0----|---0-0-0-0-0-0-0-0-0-|


                       G5/Bb5/F    E5oN.C.
                      2/4         4/4
  Gtrs II, IV
  PM------------|                     PM------|
  E E S S E S S E Q    E  E +Q     Q  E E S S E Q
|--------------------|-----------|----------------|
|--------------------|-----------|----------------|
|--------------------|-----------|----------------|
|--------------------|-----------|----------------|
|--------------------|-5S=8-(8)--|-2--------------|
|-0-0-0-0-0-0-0-0----|-5S=8-(8)--|-0--0-0-0-0-0---|


    E5N.C.
      PM------------------------------|
  E E E E S S E S S E   E E S S E S S E E E
|---------------------|----------------------||
|---------------------|---------------------o||
|---------------------|----------------------||
|---------------------|----------------------||
|---2-----------------|---------------------o||
|---0-0-0-0-0-0-0-0-0-|-0-0-0-0-0-0-0-0-5p3--||


 Guitar Solo
  Q=210
  E5open         N.C.             G5   N.C.C5/N.C.
  Gtrs II, IV
                   PM-|                PM|     PM|
   H        +Q     E    E          Q   E E Q   E  E
|-------------------------------|-------------------|
|-------------------------------|-------------------|
|-------------------------------|--7-------7--------|
|-------------------------------|--5-------4--------|
|--2--------(2)-----------------|-------------------|
|--0--------(0)----0----0-------|------0-0-----0--0-|
|
| Gtr V
|                                  ~~~
|  H.             +E   +S   +S     H.          E  E
|-17b19==========(17)-(17)r(17)-|-17----------17-15-|
|-------------------------------|-------------------|
|-------------------------------|-------------------|
|-------------------------------|-------------------|
|-------------------------------|-------------------|
|-------------------------------|-------------------|


  E5/B  D5/A                N.C.
                             PM---------------------------|
   E  E  Q    +H             E  E  E     E     E  E  E     E
|-------------------------|----------------------------------|
|-------------------------|----------------------------------|
|-------------------------|----------------------------------|
|--2-----0----(0)---------|--5-----5-----------4-----4-------|
|--2-----0----(0)---------|-----3--------3--------5--------5-|
|-------------------------|----------------------------------|
|
|  E  E  E  E  E  E  E  E    E  E  S  S  S  S  E  E  S  S  E
|-12h15-14----14p12----12-|-12h14-15p14-12h14-12-------------|
|----------15-------13----|----------------------15-12h13p12-|
|-------------------------|----------------------------------|
|-------------------------|----------------------------------|
|-------------------------|----------------------------------|
|-------------------------|----------------------------------|


  E5open                              N.C.       G5    N.C.   C5/G N.C.
                                       PM---|          PM---|      PM---|
   H                    +Q             E     E    Q    E    E  Q   E    E
|----------------------------------------------|--------------------------|
|----------------------------------------------|--------------------------|
|----------------------------------------------|--7------------7----------|
|----------------------------------------------|--5------------4----------|
|--2--------------------(2)--------------------|--------------------------|
|--0--------------------(0)------------0-----0-|-------0----0------0----0-|
|
|                                                              ~~~
|  E  E  E  S  +S       +E   +S   +S   S  S  E    E  E S  S E  Q.     a E
|----------------------------------------------|--------------------------|
|-12S10-10-12-(12)b13==(12)-(12)r(12)-10h12-10-|--------------------------|
|----------------------------------------------|-12-11-9h11-9-[7]----11S9-|
|----------------------------------------------|--------------------------|
|----------------------------------------------|--------------------------|
|----------------------------------------------|--------------------------|


  E5/B  D5/A                 N.C.
                             PM-------------------|
   E  E  Q   +H              E    E  E  E E E  E  E
|--------------------------|------------------------|
|--------------------------|------------------------|
|--------------------------|------------------------|
|--2-----0---(0)-----------|-5-------5----4----4----|
|--2-----0---(0)-----------|------3-----3---5-----5-|
|--------------------------|------------------------|
|
|                                    PM---|
|             |-3--|
|  E  E  E E  E E  E  E  E   S  S E  E  E E E +Q
|--------------------------|------------------------|
|--------------------------|------------------------|
|-11h12-11-9-11p9----------|------------------------|
|-----------------10-12-10-|-9h10-9-----------------|
|--------------------------|--------10----9-7-(7)---|
|--------------------------|-----------12-----------|


  E5open                  N.C.         G5    N.C.  C5/G  N.C.
  Gtrs II, IV
                           PM---|             PM|         PM-|
   H                 +Q    E    E       Q     E  E   Q    E   E
|------------------------------------|---------------------------|
|------------------------------------|---------------------------|
|------------------------------------|--7------------7-----------|
|------------------------------------|--5------------4-----------|
|--2-----------------(2)-------------|---------------------------|
|--0-----------------(0)---0----0----|--------0--0--------0---0--|
|
| Gtr V
|  |--3--|                 |---3---|
|  E  E  E  E  a  E  +Q    E  E    E    E  E  E  E  +Q    E   E
|-------------------------12h15p==12-|---------------------------|
|-12h15p12----10S12-(12)-------------|-13S=8-10S=7--(7)--<7>-<7>-|
|----------12------------------------|---------------------------|
|------------------------------------|---------------------------|
|------------------------------------|---------------------------|
|------------------------------------|---------------------------|
|
| Gtr VI
|  |--3--|                 |---3---|
|  E  E  E  E  a  E  +Q    E  E    E    E  E  E  E  +Q    E   E
|-------------------------15h19p==15-|---------------------------|
|-15h19p15----13S15-(15)-------------|-17S12-13S10-(10)--<7>-<7>-|
|----------16------------------------|---------------------------|
|------------------------------------|---------------------------|
|------------------------------------|---------------------------|
|------------------------------------|---------------------------|


  E5/B       D5/A                    N.C.
                                     PM-----------------|
   E    E     Q       +H             E  E E  E  E  E  E  E
|----------------------------------|-----------------------|
|----------------------------------|-----------------------|
|----------------------------------|-----------------------|
|--2----------0-------(0)----------|-5----5-----4-----4----|
|--2----------0-------(0)----------|----3----3-----5-----5-|
|----------------------------------|-----------------------|
|
|                                    PM-----------------|
|  |---3---|  |--3--|
|  E  E    E  E  E  E  E   E  E  E   E  E E  E  E  E  E  E
|----------------------------------|-----------------------|
|----------------------------------|-----------------------|
|-11h12h==14-12-11-12-11-----------|-9----9----11----11----|
|-------------------------14-12-14-|---10---10----12----12-|
|----------------------------------|-----------------------|
|----------------------------------|-----------------------|


  E5open                      N.C.         G5          N.C.     C5/GN.C.
                               PM---|                   PM|         PM|
   H                +Q         E    E       Q           E  E     Q  E E
|----------------------------------------|------------------------------|
|----------------------------------------|------------------------------|
|----------------------------------------|--7--------------------7------|
|----------------------------------------|--5--------------------4------|
|--2----------------(2)------------------|------------------------------|
|--0----------------(0)--------0----0----|--------------0--0--------0-0-|
|
|                                                                ~~
|  |--3--|  |--3--|  |--3---|  |---3---|
|  E  E  E  E  E  E  E   E  E  E  E    E    S  S  S  S  E  S  S  H
|-------------------12--14-15-14-15---17-|-------19-17------------------|
|----------12-13-15----------------------|-17-19-------19-17S15-17------|
|-11-12-14-------------------------------|------------------------------|
|----------------------------------------|------------------------------|
|----------------------------------------|------------------------------|
|----------------------------------------|------------------------------|


  E5/B     D5/A                          N.C.
                                          PM------------------------|
   E     E  Q       +H                    E     E  E  E  E  E  E     E
|--------------------------------------|-------------------------------||
|--------------------------------------|-------------------------------||
|--------------------------------------|-------------------------------||
|--2--------0-------(0)----------------|--5--------5-----4-----4-------||
|--2--------0-------(0)----------------|--------3-----3-----5--------5-||
|--------------------------------------|-------------------------------||
|
|  S  S  E  S  S  E  S   S  E  S  S  E    S  S  E  E  E  E  E  S  S  E
|--------------------------------------|-------------------------------||
|--------------------------------------|-12-13-15-13-12-10-------------||
|-------------------11--12-14-11-12-14-|-------------------12-11-12-11-||
|-10-12-14-10-12-14--------------------|-------------------------------||
|--------------------------------------|-------------------------------||
|--------------------------------------|-------------------------------||


 Outro
  Q=200
  E5opN.C.             E5N.C.
  Gtrs II, IV
      PM------|          PM------------------------------|
  Q   E E S S E Q    E E E E S S E S S E   E E S S E S S E Q
|------------------|---------------------|--------------------|
|------------------|---------------------|--------------------|
|------------------|---------------------|--------------------|
|------------------|---------------------|--------------------|
|-2----------------|---2-----------------|--------------------|
|-0---0-0-0-0-0----|---0-0-0-0-0-0-0-0-0-|-0-0-0-0-0-0-0-0----|
|
| W                  W                     W
|------------------|---------------------|--------------------|
|------------------|---------------------|--------------------|
|-9\---------------|---------------------|--------------------|
|------------------|---------------------|--------------------|
|------------------|---------------------|--------------------|
|------------------|---------------------|--------------------|


  G5/Bb5/FVIIIE5oN.C.             E5N.C.
 2/4         4/4
                 PM------|          PM------------------------------|
  E  E +Q     Q  E E S S E Q    E E E E S S E S S E   E E S S E S S E E E
|-----------|-----------------|---------------------|----------------------|
|-----------|-----------------|---------------------|----------------------|
|-----------|-----------------|---------------------|----------------------|
|-----------|-----------------|---------------------|----------------------|
|-5S=8-(8)--|-2---------------|---2-----------------|----------------------|
|-5S=8-(8)--|-0--0-0-0-0-0----|---0-0-0-0-0-0-0-0-0-|-0-0-0-0-0-0-0-0-5p3--|


  E5oN.C.             E5N.C.
     PM------|          PM------------------------------|
  Q  E E S S E Q    E E E E S S E S S E   E E S S E S S E Q
|-----------------|---------------------|--------------------|
|-----------------|---------------------|--------------------|
|-----------------|---------------------|--------------------|
|-----------------|---------------------|--------------------|
|-2---------------|---2-----------------|--------------------|
|-0--0-0-0-0-0----|---0-0-0-0-0-0-0-0-0-|-0-0-0-0-0-0-0-0----|


  G5/Bb5/FVIIIE5oN.C.             E5N.C.
 2/4         4/4
                 PM------|          PM------------------------------|
  E  E +Q     Q  E E S S E Q    E E E E S S E S S E   E E S S E S S E E E
|-----------|-----------------|---------------------|----------------------|
|-----------|-----------------|---------------------|----------------------|
|-----------|-----------------|---------------------|----------------------|
|-----------|-----------------|---------------------|----------------------|
|-5S=8-(8)--|-2---------------|---2-----------------|----------------------|
|-5S=8-(8)--|-0--0-0-0-0-0----|---0-0-0-0-0-0-0-0-0-|-0-0-0-0-0-0-0-0-5p3--|


    E5opN.C.              E5N.C.
        PM------|           PM------------------------------|
    Q   E E S S E Q     E E E E S S E S S E   E E S S E S S E Q
||--------------------|---------------------|----------------------|
||o-------------------|---------------------|----------------------|
||--------------------|---------------------|----------------------|
||--------------------|---------------------|----------------------|
||o-2-----------------|---2-----------------|----------------------|
||--0---0-0-0-0-0-----|---0-0-0-0-0-0-0-0-0-|-0-0-0-0-0-0-0-0------|
|
|   Gtr V
|   E E Q   Q     E E   E E E E Q     E   E   E E E   E Q     E E
||--------------------|---------------------|----------------------|
||o-------------------|---------------------|----------------------|
||--------------------|-4---2---------------|----------------------|
||--------------------|---5---4-------------|-5---4----------------|
||o-5h7-----------5h7-|---------------5h==7-|---7-----5-------5h7--|
||--------------------|---------------------|----------------------|


             E5opN.C.              E5N.C.
 2/4        4/4
                 PM------|           PM--------------------------------|
  E E +Q     Q   E E S S E Q     E E E E S S E S S E   E E S S E S S E E E
|----------|-------------------|---------------------|----------------------||
|----------|-------------------|---------------------|---------------------o||
|----------|-------------------|---------------------|----------------------||
|----------|-------------------|---------------------|----------------------||
|----------|-2-----------------|---2-----------------|---------------------o||
|-5S8-(8)--|-0---0-0-0-0-0-----|---0-0-0-0-0-0-0-0-0-|-0-0-0-0-0-0-0-0-5p3--||
|
| E E +Q     E E Q   Q     E E   E E E E Q     E   E   E E E   E Q     E E
|----------|-------------------|---------------------|----------------------||
|----------|-------------------|---------------------|---------------------o||
|----------|-------------------|-4---2---------------|----------------------||
|----------|-------------------|---5---4-------------|-5---4----------------||
|-5S8-(8)--|-5h7-----------5h7-|---------------5h==7-|---7-----5-------7p5-o||
|----------|-------------------|---------------------|----------------------||


    E5opN.C.              E5N.C.
        PM------|           PM------------------------------|
    Q   E E S S E Q     E E E E S S E S S E   E E S S E S S E Q
||--------------------|---------------------|----------------------|
||o-------------------|---------------------|----------------------|
||--------------------|---------------------|----------------------|
||--------------------|---------------------|----------------------|
||o-2-----------------|---2-----------------|----------------------|
||--0---0-0-0-0-0-----|---0-0-0-0-0-0-0-0-0-|-0-0-0-0-0-0-0-0------|
|
|   Gtr V
|   E E Q   Q     E E   E E E E Q     E   E   E E E   E Q     E E
||--------------------|---------------------|----------------------|
||o-------------------|---------------------|----------------------|
||--------------------|-4---2---------------|----------------------|
||--------------------|---5---4-------------|-5---4----------------|
||o-5h7-----------5h7-|---------------5h==7-|---7-----5-------5h7--|
||--------------------|---------------------|----------------------|


             E5opN.C.              E5N.C.
 2/4        4/4
                 PM------|           PM--------------------------------|
  E E +Q     Q   E E S S E Q     E E E E S S E S S E   E E S S E S S E E E  4x
|----------|-------------------|---------------------|----------------------||
|----------|-------------------|---------------------|---------------------o||
|----------|-------------------|---------------------|----------------------||
|----------|-------------------|---------------------|----------------------||
|----------|-2-----------------|---2-----------------|---------------------o||
|-5S8-(8)--|-0---0-0-0-0-0-----|---0-0-0-0-0-0-0-0-0-|-0-0-0-0-0-0-0-0-5p3--||
|
| E E +Q     E E Q   Q     E E   E E E E Q     E   E   E E E   E Q     E E  4x
|----------|-------------------|---------------------|----------------------||
|----------|-------------------|---------------------|---------------------o||
|----------|-------------------|-4---2---------------|----------------------||
|----------|-------------------|---5---4-------------|-5---4----------------||
|-5S8-(8)--|-5h7-----------5h7-|---------------5h==7-|---7-----5-------7p5-o||
|----------|-------------------|---------------------|----------------------||


Duration Legend
---------------
W - whole; H - half; Q - quarter; E - 8th; S - 16th; T - 32nd; X - 64th; a - acciaccatura
+ - note tied to previous; . - note dotted; .. - note double dotted
Uncapitalized letters represent notes that are staccato (1/2 duration)
Irregular groupings are notated above the duration line
Duration letters will always appear directly above the note/fret number it represents the
duration for.  Duration letters with no fret number below them represent rests.  Multi-
bar rests are notated in the form Wxn, where n is the number of bars to rest for.  Low
melody durations appear below the staff

Tablature Legend
----------------
 h   - hammer-on
 p   - pull-off
 b   - bend
 pb  - pre-bend
 r   - bend release (if no number after the r, then release immediately)
 /\  - slide into or out of (from/to "nowhere")
 s   - legato slide
 S   - shift slide
  - natural harmonic
[n]  - artificial harmonic
n(n) - tapped harmonic
 ~   - vibrato
 tr  - trill
 T   - tap
 TP  - trem. picking
 PM  - palm muting
\n/  - tremolo bar dip; n = amount to dip
 \n  - tremolo bar down
 n/  - tremolo bar up
/n\  - tremolo bar inverted dip
 =   - hold bend; also acts as connecting device for hammers/pulls
 <>  - volume swell (louder/softer)
 x   - on rhythm slash represents muted slash
 o   - on rhythm slash represents single note slash

Misc Legend
-----------
 |  - bar
||  - double bar
||o - repeat start
o|| - repeat end
*|  - double bar (ending)
 :  - bar (freetime)
 $  - Segno
 &  - Coda
Tempo markers -  = BPM(8/16=s8/s16), where s8 = swing 8ths, s16 = swing 16ths




============================================================================
2-The Deepest Gray
============================================================================

Song: The Deepest Grey
Artist: All That Remains
Album: This Darkened Heart
Tabber: Steven Banks [squall_inside@hotmail.com]
Tuning: Dropped D [D,A,D,G,B,E]

palm mute: ..... (below the measure)
Vibrato: v (below the measure)
hammer on: h (in the measure)
Pull off: p (in the measure)
Slide up: /
Slide down: \
Bend: b

Verse:
(Starts with a small pick slide)
Guitar One
|-----------------------------------------------------|
|-----------------------------------------------------|
|-----------------------------------------------------|
|----3--------------------------3---------------------|
|3h5--5---------------------3h5--5--------------------|
|---0---0-0-0--0-0-0--0-0-0----0---0-0-0--0-0-0---3-2-|
    .   .....  .....  .....    .   .....  .....
|-----------------------------------------------------|
|-----------------------------------------------------|
|-----------------------------------------------------|
|----3--------------------------3---------------------|
|3h5--5---------------------3h5--5-----10-----8-----7-|
|---0---0-0-0--0-0-0--0-0-0----0---0-0-8--0-0-7-0-0-5-| (x8)
    .   .....  .....  .....    .   ...    ...   ...

Guitar Two (comes in after four times of the above riff^)
|-----------------------------------------------------|
|-----------------------------------------------------|
|----2--------------------------2---------------------|
|3h5--3---------------------3h5--3--------------------|
|-----------------------------------------------------|
|---0---0-0-0--0-0-0--0-0-0----0---0-0-0--0-0-0---3-2-|
    .   .....  .....  .....    .   .....  .....       

|------------------------------------------------------|
|------------------------------------------------------|
|----2--------------------------2----------------------|
|3h5--3---------------------3h5--3---------------------|
|--------------------------------------10-----8-----7--|
|---0---0-0-0--0-0-0--0-0-0----0---0-0-8--0-0-7-0-0-5--| (x4)
    .   .....  .....  .....    .   ...    ...   ...


Chorus One

Guitar One (Strum eigth notes)
|----------------------------------|
|----------------------------------|
|----------------------------------|
|----------------------------------|
|5-3-5-3-5-8-7-3--5-3-5-3-10-8-7-8-|
|----------------------------------| (x2)

Guitar Two
|----------------------------------|
|----------------------------------|
|----------------------------------|
|----------------------------------|
|0-------8--------0-------10-------|
|0-------8--------0-------10-------| (x2)

Verse
Guitar One
|-----------------------------------------------------|
|-----------------------------------------------------|
|-----------------------------------------------------|
|----3--------------------------3---------------------|
|3h5--5---------------------3h5--5--------------------|
|---0---0-0-0--0-0-0--0-0-0----0---0-0-0--0-0-0---3-2-|
    .   .....  .....  .....    .   .....  .....
|-----------------------------------------------------|
|-----------------------------------------------------|
|-----------------------------------------------------|
|----3--------------------------3---------------------|
|3h5--5---------------------3h5--5-----10-----8-----7-|
|---0---0-0-0--0-0-0--0-0-0----0---0-0-8--0-0-7-0-0-5-| (x8)
    .   .....  .....  .....    .   ...    ...   ...

Guitar Two (Again, comes in after four times of the above riff^)
|-----------------------------------------------------|
|-----------------------------------------------------|
|----2--------------------------2---------------------|
|3h5--3---------------------3h5--3--------------------|
|-----------------------------------------------------|
|---0---0-0-0--0-0-0--0-0-0----0---0-0-0--0-0-0---3-2-|
    .   .....  .....  .....    .   .....  .....       

|------------------------------------------------------|
|------------------------------------------------------|
|----2--------------------------2----------------------|
|3h5--3---------------------3h5--3---------------------|
|--------------------------------------10-----8-----7--|
|---0---0-0-0--0-0-0--0-0-0----0---0-0-8--0-0-7-0-0-5--| (x4)
    .   .....  .....  .....    .   ...    ...   ...


Chorus Two

Guitar One (remember, eigth notes)
|----------------------------------|
|----------------------------------|
|----------------------------------|
|----------------------------------|
|5-3-5-3-5-8-7-3--5-3-5-3-10-8-7-8-|
|----------------------------------| (x3)


Guitar Two
|----------------------------------|
|----------------------------------|
|----------------------------------|
|----------------------------------|
|0-------8--------0-------10-------|
|0-------8--------0-------10-------| (x2)

Guitar Two (after you play above part twice^)
|----------------------------------|
|----------------------------------|
|----------------------------------|
|3-2-3-2-3-7-5-2--3-2-3-2-8-7-5-7--|
|----------------------------------|
|----------------------------------| (x1)

Guitar One
|--------------------------------------|
|--------------------------------------|
|--------------------------------------|
|--------------------------------------|
|5-3-5-3-5-8-7-3--5-3-5-3-10p8-7p7-7p5-|
|-----------------------------0---0----|(x1)
                              .   .
Guitar Two
|--------------------------------------|
|--------------------------------------|
|--------------------------------------|
|3-2-3-2-3-7-5-2--3-2-3-2--------------|
|------------------------10p8-7p7-7p5--|
|----------------------------0---0-----|(x1)
                             .   .

Bridge

Guitar One Part A
|------------------|-------------------|
|------------------|-------------------|
|------------------|-------------------|
|----3--5--7--8----|-----3--2--5--8----|
|3h5--5--7--8--10--|-3h5--5--3--7--10--|
|---0--0--0--0---0-|----0--0--0--0---0-|
    .  .  .  .   .      .  .  .  .   .
|------------------|--------------------|
|------------------|--------------------|
|------------------|--------------------|
|----3--5--7--5----|-----3--------------|
|3h5--5--7--8--7---|-3h5--5--4--4-4-4-4-|
|---0--0--0--0---0-|----0---0----5-3-2--|(x1)
    .  .  .  .   .      .   .   ....... 
Part B

|------------------|-------------------|
|------------------|-------------------|
|------------------|-------------------|
|----3--5--7--5----|-----3--2--5--8----|
|3h5--5--7--8--7---|-3h5--5--3--7--10--|
|---0--0--0--0---0-|----0--0--0--0---0-|
    .  .  .  .   .      .  .  .  .   .
|------------------|-----------------|
|------------------|-----------------|
|------------------|-----------------|
|----3--5--7--5----|----3------------|
|3h5--5--7--8--7---|-3h5-5-4--4-4-4--|
|---0--0--0--0---0-|------0--5-3-2-0-| (x1)
    .  .  .  .   .        .  .......

Guitar Two (After you run through Part A once^)
|-----------------|-------------------|
|-----------------|-------------------|
|----2--3--5--3---|-------------------|
|-----3--5--7--5--|-----3--2--5--8----|
|3h5--------------|-3h5--5--3--7--10--|
|---0--0--0--0--0-|----0--0--0--0---0-|
    .  .  .  .  .      .  .  .  .   .
|-----------------|------------------|
|-----------------|------------------|
|----2--3--5--3---|------------------|
|-----3--5--7--5--|-----3------------|
|3h5--------------|--3h5-5-4--4-4-4--|
|---0--0--0--0--0-|-------0--5-3-2-0-|
    .  .  .  .  .         .  ........
Pro (right before solo)
Guitar One
|-------------------|-------------------|-------------------|
|-------------------|-------------------|-------------------|
|-------------------|-------------------|-------------------|
|-------------------|-------------------|-------------------|
|---------------4h5-|---------------4h5-|---------------1p0-|
|-0-0-000-0-0-0-----|-0-0-000-0-0-0-----|-0-0-000-0-0-0-----|
  ............        .............       ............ .        
|-------------------|---------------------------|
|-------------------|---------------------------|
|-------------------|---------------------------|
|-------------------|---------------------------|
|---------------4h5-|---------------1h0-4p5-8p7-|
|-0-0-000-0-0-0-----|-0-0--0-0-0--0----0---0----| (x2)
  ............        ..............   .   .
Guitar Two
|-------------------|-------------------|-------------------|
|-------------------|-------------------|-------------------|
|-------------------|-------------------|-------------------|
|---------------2h3-|---------------2h3-|---------------3p2-|
|-------------------|-------------------|-------------------|
|-0-0-000-0-0-0-----|-0-0-000-0-0-0-----|-0-0-000-0-0-0-----|
  .............       .............       .............
|-------------------|---------------------------|
|-------------------|---------------------------|
|-------------------|---------------------------|
|---------------2h3-|---------------3p2-2h3-7p5-|
|-------------------|---------------------------|
|-0-0-000-0-0-0-----|-0-0--0-0-0--0----0---0----| (x2)
  .............       ..............   .   .
Fill:
|-------|
|-------|
|-------|
|-------|
|5------|
|--8-7b-|

Solo Part One (the rhythm strumming is not exact, you'll just have to listen)
Guitar One
|--------------------------------|
|--------------------------------|
|--------------------------------|
|--------------------------------|
|0-0-0-0-0-0-0-0-3-2-1-1-1-1-1-1-|
|0-0-0-0-0-0-0-0-3-2-1-1-1-1-1-1-| (x4)
 ................................

Solo Part Two
Guitar One
|-------------------------------------------------|
|-------------------------------------------------|
|-------------------------------------------------|
|-------------------------------------------------|
|7--0-0-0--0-0-0--0-0-0-8--0-0-0--0-0-0--0-0-0-10-|
|7--0-0-0--0-0-0--0-0-0-8--0-0-0--0-0-0--0-0-0-10-|
  ...................... ......................
|---------------------------------------------|
|---------------------------------------------|
|---------------------------------------------|
|---------------------------------------------|
|-0-0-0--0-0-0--0-0-0-12--0-0-0--0-0-0--0-0-0-|
|-0-0-0--0-0-0--0-0-0-12--0-0-0--0-0-0--0-0-0-| (x2)
 ....................     ....................
(After the second time)
|-------------------|
|-------------------|
|-------------------|
|-------------------|
|----10-----8-----7-|
|0-0-8--0-0-7-0-0-5-|
 ..     ............
Chorus Three (similar to two)

Guitar One
|----------------------------------|
|----------------------------------|
|----------------------------------|
|----------------------------------|
|5-3-5-3-5-8-7-3--5-3-5-3-10-8-7-8-|
|----------------------------------| until the end


Guitar Two
|----------------------------------|
|----------------------------------|
|----------------------------------|
|----------------------------------|
|0-------8--------0-------10-------|
|0-------8--------0-------10-------| (x2)

Guitar Two (after you play above part twice^)
|----------------------------------|
|----------------------------------|
|----------------------------------|
|3-2-3-2-3-7-5-2--3-2-3-2-8-7-5-7--|
|----------------------------------|
|----------------------------------| until the end

Guitar One
|--------------------------------------|
|--------------------------------------|
|--------------------------------------|
|--------------------------------------|
|5-3-5-3-5-8-7-3--5-3-5-3-10p8-7p7-7p5-|
|-----------------------------0---0----|at the end

Guitar Two
|--------------------------------------|
|--------------------------------------|
|--------------------------------------|
|3-2-3-2-3-7-5-2--3-2-3-2--------------|
|------------------------10p8-7p7-7p5--|
|----------------------------0---0-----|at the end

Both Guitars
|------------------|
|------------------|
|------------------|
|------------2/3-0-|
|------------4/5-0-|
|0-0-00000000----0-|
..................
That's the end. I encourage you to figure the solo out on your own. It's the best way to
get better. Please Rate.



============================================================================
3-Vicious Betrayal
============================================================================

Band- All That Remains
Song- Vicious Betrayal

Tuning D-G-C-F-A-D

Riff1

0:00 (3x)
|------------------------------------------------------------|
|------------------------------------------------------------|
|-------------------------------------------------------2----|
|-5----4----5---5----3----5---5----4----5---------2-3-5---5--|
|-3----2----3---3----1----3---3----2----3---2-3-5------------|
|---00---00---0---00---00---0---00---00---0------------------|
    ..   ..   .   ..   ..   .   ..   ..   .


|------------------------------------------------------------|
|------------------------------------------------------------|Gtr.1+2
|------------------------------------------------------------|
|-8----7----8---8----6----8---8----7----8---8-7-5------------|
|---55---55---5---55---55---5---55---55---5-------8-7-5------|
|-------------------------------------------------------8-7--|
    ..   ..   .   ..   ..   .   ..   ..   .

Riff2(a)

0:27 (2x)
|----------------------------------------------------------------|
|----------------------------------------------------------------|Gtr.
|----------------------------------------------------------------|1+2
|----------------------------------------------------------------|
|----------------10-9-7---9-7-5-----------------10-9-7---12-10-9-|
|-000-8-00-7/3-0--------0--------000-8-00-7/3-0--------0---------|
  ...   ..     .        .        ...   ..     .        .

Riff2(b) (2x) Gtr.2 plays Riff2(b) over 2(a)

|-----------------------------------------------------------------|
|----------------------------------------------------------------|Gtr.2
|-----------------------------------------------------------------|
|------------------9-7-5---7-5-4-------------------9-7-5---10-9-7-|
|-----------------------------------------------------------------|
|-000-12-00-10/7-0-------0--------000-12-00-10/7-0-------0--------|
  ...    ..      .       .        ...    ..      .       .

Riff3(a)

0:46  (2x)
|-----------------------------|----------------------|
|-----------------------------|----------------------|Gtr.
|-5-5--5----------7-7--7--9-9-|----------------------|1+2
|-5-5--5--2-2--2--7-7--7--9-9-|----------------------|
|-3-3--3--2-2--2--5-5--5--7-7-|-3p2-0h2--------------|
|---------0-0--0--------------|----------------------|

Riff1 – (2x)

Riff2(a) + Riff2(b) – (2x)

Riff3(a)

1:22  (2x)
|-------------------------------|----------------------|
|-------------------------------|----------------------|Gtr.
|-5-5--5----------7-7--7--9-9---|----------------------|1+2
|-5-5--5--2-2--2--7-7--7--9-9---|----------------------|
|-3-3--3--2-2--2--5-5--5--7-7---|---3p2-0h2------------|
|---------0-0--0----------------|----------------------|

Riff3(b) – (2x)  Gtr.1 plays Riff3(b) over 3(a) (Gtr.2)

|-------------------------------|----------------------|
|-------------------------------|----------------------|Gtr.1
|-9-9--9--9-9--9-11-11-11-12-12-|----------------------|
|-x-x--x--x-x--x--x-x--x---x--x-|----------------------|
|-7-7--7--7-7--7--9-9--9--10-10-|---3p2-0h2------------|
|-------------------------------|----------------------|

Riff4

1:41 (2x)
|-------------------------------------------------------------|
|-------------------------------------------------------------|Gtr.1+2
|---------------------------------------------9-9-9--7-8-9----|
|-----------------5-5-5--5-5------------------x-x-x--x-x-x----|
|-2--2-2-2-2-2-2--3-3-3--2-2--2--2-2-2-2-2-2--7-7-7--5-6-7----|
|-0--0-0-0-0-0-0--------------0--0-0-0-0-0-0------------------|
     . . . . . .                 . . . . . .
|-------------------------------------------------------------|
|-------------------------------------------------------------|Gtr.1
|-------------------------------5-----------7-----------------|
|-----------------5-5-5--5-5----5-----------7-----------------|
|-2--2-2-2-2-2-2--3-3-3--2-2----3-----------5-----------------|
|-0--0-0-0-0-0-0----------------------------------------------|
     . . . . . .
|-------------------------------------------------------------|
|--------------------------------------3------------7-5-(5)---|Gtr.2
|-----------------------------------5----5------7-------------|
|-----------------5-5-5--4-4------5---5-------7---7-----------|
|-2--2-2-2-2-2-2--3-3-3--2-2----3-----------5-----------------|
|-0--0-0-0-0-0-0----------------------------------------------|
  .  . . . . . .

|-------------------|
|-------------------|
|-------------------|
|-9-9-9-7--4-5------|
|-7-7-7-5--2-3------|
|-------------------|

Solo 1 (Herbert)

Rhythm under solo

2:00 – (4x)
|----------------------------------------|
|----------------------------------------|
|-5-5--5----------7-7--7--9-9------------|
|-5-5--5--2-2--2--7-7--7--9-9------------|
|-3-3--3--2-2--2--5-5--5--7-7--2-2-2-2---|
|---------0-0--0---------------0-0-0-0---|
                               . . . .
2:18 - Riff2(a) (Gtr.1+2) (2x)

2:27 – Riff2(b) (Gtr.2), over Riff2(a) (Gtr.1), (2x)

2:37 – Riff3(a) (Gtr.1+2) (2x)

2:46 – Riff3(b) (Gtr.2), over Riff3(a) (Gtr.1), (2x)

2:55 – Riff4 (2x)

3:13
|---------------------------|
|---------------------------|Gtr.1
|---------------------------|
|-9-10-9h10p9---------------|
|-------------12-10-9-7-----|
|---------------------------|


|---------------------------|
|---------------------------|Gtr.2
|-7-9-7h9p7-----------------|
|-----------10-9-7----------|
|------------------10-------|
|---------------------------|

Riff5 – (2x)
|-------------------------------------------------------------|
|-------------------------------------------------------------|Gtr.1
|-------------------------------------------------------------|
|-5-------10p9--7-------10p9--2-------10p9---7---9----10p9----|
|-3-3-3-3-------5-5-5-5-------0-0-0-0------0---0---00---------|
|-------------------------------------------------------------|
    . . .         . . .         . . .      .   .   ..

Riff5 – (2x)
|-------------------------------------------------------------|
|-------------------------------------------------------------|Gtr.2
|---------9p7----------9p7------------------------------------|
|-5------------7--------------2-------10p9---7---9----10p9----|
|-3-3-3-3------5-5-5-5--------0-0-0-0------0---0---00---------|
|-------------------------------------------------------------|
    . . .        . . .          . . .      .   .   ..

Solo 2 (Martin)


Rhythm under solo

|------------------------------|
|------------------------------|
|-5---7------------------------|
|-5---7---7---5----------------|
|-3---5---7---5----------------|
|---------5---3----------------|



============================================================================
4-I Die In Degrees
============================================================================

Gtr I (D G C F A D) - 'Right Channel/Solo 1'
Gtr II (D G C F A D) - 'Left Channel/Solo 2'
Gtr III (D G C F A D) - 'Rhythm'
Gtr IV (D G C F A D) - 'Harmony Solo'
Gtr V (D G C F A D) - 'Clean 1 right'
Gtr VI (D G C F A D) - 'Clean 2 left'

 Intro
  Q=208
  N.C.
 4/4
  Gtr I
  W           +H      +Q   a  Q
|-----------|---------------------||
|-----------|---------------------||
|-----------|---------------------||
|-----------|---------------------||
|-----------|---------------------||
|-x\--------|-(x)\----(x)--2S12\--||
|
| Gtr II
| W           +H.             Q
|-----------|---------------------||
|-----------|---------------------||
|-----------|---------------------||
|-----------|---------------------||
|-x\--------|-(x)\------------9\--||
|-----------|---------------------||


   1st Verse
    N.C.
    Gtrs I, II
    PM  PM    PM--------|   PM    PM--------|   PM    PM
    E E E E E E S S E   E E E E E E S S E   E E E E E E E E
||--------------------|-------------------|-----------------|
||o-------------------|-------------------|-----------------|
||--------------------|-------------------|-----------------|
||--------------------|-------------------|-----------------|
||o---4---4h5---------|---4---4h5---------|---2---2-----1---|
||--2---2-----2-5-4-2-|-2---2-----2-5-4-3-|-0---0---3-0---2-|


  N.C.
  Gtr I
  PM  PM    PM        PM    PM
  E E E E E E E E  4x E E E E E E E E     E E E E E E E E
|------------------||-----------------||------------------|
|-----------------o||-----------------||o-----------------|
|------------------||---------4-7-6-4-||------6-----6-----|
|------------------||---3-6-3---------||----7-----7-----7-|
|---2---2-----1---o||-----------------||o-9-----9-----9---|
|-0---0---3-0---2--||-4---------------||------------------|
|
| Gtr II
|                     PM|   PM
| E E E E E E E E  4x E E E E E E E E     E E E E E E E E
|------------------||-----------------||------------------|
|-----------------o||-----------------||o-----------------|
|------------------||-----------------||------6-----6-----|
|------------------||-3---3---6-9-7-6-||----7-----7-----7-|
|---2---2-----1---o||---4---4---------||o-9-----9-----9---|
|-0---0---3-0---2--||-----------------||------------------|


                                     1.
  N.C.
  Gtrs I, II
  E E E E E E E E   E E E E E E E E   E E E E E E E E
|-----------------|-----------------|------------------||
|-----------------|-----------------|-----------------o||
|-6-----6---6-----|-----9-----9-----|-9-----9----------||
|-----7-----------|---7-----7-----7-|-----7---6-7-6----||
|---9-----9---9-7-|-5-----5-----5---|---5-----------7-o||
|-----------------|-----------------|------------------||


                     2nd Verse
  2.
  N.C.
                      PM  PM    PM--------|   PM    PM----|
  E E E E E E E E     E E E E E E S S E   E E E E E E S S E
|-----------------||--------------------|-------------------|
|-----------------||o-------------------|-------------------|
|-9-----9---------||--------------------|-------------------|
|-----7-----------||--------------------|-------------------|
|---5-----5-4-2---||o---4---4h5---------|---4---4h5---------|
|---------------5-||--2---2-----2-5-4-2-|-2---2-----2-5-3-2-|


  N.C.
  PM  PM    PM      PM  PM    PM
  E E E E E E E E   E E E E E E E E  4x
|-----------------|------------------||
|-----------------|-----------------o||
|-----------------|------------------||
|-----------------|------------------||
|---2---2-----1---|---2---2-----1---o||
|-0---0---3-0---2-|-0---0---3-0---2--||


   Chorus
    E5 N.C.B5C5N.C.
       PM|     PM    PM|   PM          PM  PM|   PM  PM
    Q  E E E E E E   E E E E E E Q     E E E E E E E E
||-----------------|-----------------|-----------------|
||o----------------|-----------------|-----------------|
||-----------------|-----------------|-----------------|
||---------4S5-----|-----2---5-4-5\--|---5-----5---5---|
||o-2------2S3-----|-----------------|-3---3-3---3---3-|
||--0--0-0-----0-3-|-0-0---0---------|-----------------|


  1.                  2.
  N.C.                                    E5 N.C.B5C5N.C.
  PM  PM|   PM        PM  PM|   PM           PM|     PM
  E E E E E E E E     E E E E E E E E     Q  E E E E E E
|------------------||-----------------||-----------------|
|-----------------o||-----------------||o----------------|
|------------------||-----------------||-----------------|
|---4-----4--------||---4-----4---4S2-||---------4S5-----|
|-5---5-5---5-5h7-o||-5---5-5---5-----||o-2------2S3-----|
|------------------||-----------------||--0--0-0-----0-3-|


                                     1.                   2.
  N.C.
  Gtr I
  PM|   PM          PM  PM|   PM  PM--|   PM|   PM        PM  PM|
  E E E E E E Q     E E E E E E E E   E E E E E E E E     E E E E E E E E
|-----------------|-----------------|------------------||-----------------||
|-----------------|-----------------|-----------------o||-----------------||
|-----------------|-----------------|------------------||-----------------||
|-----2---5-4-5\--|---5-----5---5---|---4-----4--------||---4-----6-7-6---||
|-----------------|-3---3-3---3---3-|-5---5-5---5-5h7-o||-5---5-5-------7-||
|-0-0---0---------|-----------------|------------------||-----------------||
|
| Gtr II
| PM|   PM          PM  PM|   PM  PM--|   PM|   PM        PM  PM|
| E E E E E E Q     E E E E E E E E   E E E E E E E E     E E E E E E E E
|-----------------|-----------------|------------------||-----------------||
|-----------------|-----------------|-----------------o||-----------------||
|-----------------|-----------------|------------------||-----------------||
|-----2---5-4-5\--|---5-----5---5---|---7-----7---7h9--||---7-----6-7-6---||
|-----------------|-7---7-7---7---7-|-9---9-9---9-----o||-9---9-9-------7-||
|-0-0---0---------|-----------------|------------------||-----------------||


   Interlude
                                        1.
    F#5                                  Dsus2/A
    Gtr II
    W                 +W                 W
    |                  |                 |
    /                  /                 /

    Gtr I
    E E E E E E E E    E E E E E E E E   E E E E E E E E
||------------------|------------------|-----------------|
||o-----------------|------------------|-----------------|
||------6-----6-----|--6-----6---6-----|-----9-----9-----|
||----7-----7-----7-|------7-----------|---7-----7-----7-|
||o-9-----9-----9---|----9-----9---9-7-|-5-----5-----5---|
||------------------|------------------|-----------------|


                       2.
                       Dsus2/A                    N.C.
  +W                   W                 +H       H
   |                   |                  |       |
   /                   /                  /       o

   E E E E E E E E     E E E E E E E E    E E E E E E E E
|-------------------||-----------------|------------------|
|------------------o||-----------------|------------------|
|--9-----9----------||-----9-----9-----|--9-----9---------|
|------7---6-7-6----||---7-----7-----7-|------7---6-7-6---|
|----5-----------7-o||-5-----5-----5---|----5-----------7-|
|-------------------||-----------------|------------------|


    N.C.
    Gtr I
     E  E E  E  E E  E  E   E  E  E E  E E  E  E   E  E  E E  E  E E  E
||------------------------|----------------------|----------------------|
||o-----------------------|----------------------|----------------------|
||--------6-------6-------|-6-------6----6-------|-------9-------9------|
||------7-------7-------7-|-------7--------------|----7-------7-------7-|
||o--9-------9-------9----|----9-------9----9--7-|-5-------5-------5----|
||------------------------|----------------------|----------------------|
|
|   Gtr II
|    E  E E  E  E E  E  E   E  E  E E  E E  E  E   E  E  E E  E  E E  E
||------------------------|----------------------|----------------------|
||o-----------------------|----------------------|----------------------|
||--------9-------9-------|-9-------9----9-------|------13------13------|
||-----11------11------11-|------11--------------|---11------11------11-|
||o-12------12------12----|---12------12---12-11-|-9-------9-------9----|
||------------------------|----------------------|----------------------|


  1.                       2.
  N.C.
   E E  E  E E  E E  E      E E  E  E E E  E E
|-----------------------||---------------------|
|----------------------o||---------------------|
|--9-------9------------||--9-------9----------|
|-------7----6--7-6-----||-------7-------------|
|----5---------------7-o||----5-------5-4--2---|
|-----------------------||-------------------5-|
|
|  E E  E  E E  E E  E      E E  E  E E E  E E
|-----------------------||---------------------|
|----------------------o||---------------------|
|-13------13------------||-13------13----------|
|------11----9-11-9-----||------11-------------|
|----9--------------11-o||----9-------9-7------|
|-----------------------||----------------10-9-|


  F#sus2                                Dsus2/A
  Gtr I
  E E E E Q  E E   E E Q  E E  E   E    E E E E Q  E E
|----------------|--------------------|-0-0-0-0----0-0-|
|----------------|--------------------|-3-3-3-3----3-3-|
|-1-1-1-1----1-1-|-1-1----1-1--1---1--|-2-2-2-2----2-2-|
|-4-4-4-4----4-4-|-4-4----4-4--4---4--|----------------|
|-4-4-4-4----4-4-|-4-4----4-4--4---4--|----------------|
|-2-2-2-2----2-2-|-2-2----2-2--2---2--|----------------|
|
| Gtr II
| E E E E Q  E E   E E Q  E E  E   E    E E E E Q  E E
|----------------|--------------------|-0-0-0-0----0-0-|
|----------------|--------------------|-3-3-3-3----3-3-|
|-1-1-1-1----1-1-|-1-1----1-1---------|-2-2-2-2----2-2-|
|-4-4-4-4----4-4-|-4-4----4-4-<4>-<4>-|----------------|
|-4-4-4-4----4-4-|-4-4----4-4---------|----------------|
|-2-2-2-2----2-2-|-2-2----2-2---------|----------------|


                   F#sus2
  Gtrs I, II
  E E Q  E E E E   E E E E Q  E E   E E Q  E E E E
|-0-0----0-0-0-0-|----------------|----------------|
|-3-3----3-3-3-3-|----------------|----------------|
|-2-2----2-2-2-2-|-1-1-1-1----1-1-|-1-1----1-1-1-1-|
|----------------|-4-4-4-4----4-4-|-4-4----4-4-4-4-|
|----------------|-4-4-4-4----4-4-|-4-4----4-4-4-4-|
|----------------|-2-2-2-2----2-2-|-2-2----2-2-2-2-|


  Dsus2/A
  E E E E Q  E E   E E Q  E E E E
|-0-0-0-0----0-0-|-0-0----0-0-0-0-||
|-3-3-3-3----3-3-|-3-3----3-3-3-3-||
|-2-2-2-2----2-2-|-2-2----2-2-2-2-||
|----------------|----------------||
|----------------|----------------||
|----------------|----------------||


 Guitar Solo
  F#5            F#5/C#                F#sus2(type 2)                     N.C.
 4/4
  Gtr III
   PM------|                                                              PM
   E     E   E     E             Q      Q             +H.             +E  E
|--------------------------------------------------|------------------------|
|---------------------------------------2----------|--(2)-------------(2)---|
|---------------------------------------1----------|--(1)-------------(1)---|
|------------------4--------------------4----------|--(4)-------------(4)---|
|--4-----4---4-----4-------------------------------|------------------------|
|--2-----2---2-------------------------------------|----------------------2-|
|
| Gtrs I, II
|                                                              \2/
|  Q        +E    +S       +S   +E   E  E      +E     +Q    a  H       Q
|--------------------------------------------------|------------------------|
|--------------------------------------------------|------------------------|
|-13b14====(13)r-(13)b14==(13)r(13)p11-13b14==(13)r|=(13)--13S14------16----|
|--------------------------------------------------|------------------------|
|--------------------------------------------------|------------------------|
|--------------------------------------------------|------------------------|


  D5                               A5
   PM-------------|
   E   E            E  E  Q         Q
|----------------------------------!5----|
|----------------------------------!5----|
|----------------------------------!2----|
|--7---7------------7--7-----------------|
|--5---5------------5--5-----------------|
|----------------------------------------|
|
|                         \1.5/
|  E  +S   +S      +Q     E      E  E  E
|----------------------------------------|
|----------------------------------19p17-|
|-18-(18)-(18)b19r(18)---19p====18-------|
|----------------------------------------|
|----------------------------------------|
|----------------------------------------|


                                                       N.C.
  +H.                                              +E   E
|-(5)----------------------------------------------(5)-----|
|-(5)----------------------------------------------(5)-----|
|-(2)----------------------------------------------(2)-----|
|----------------------------------------------------------|
|-------------------------------------------------------5--|
|----------------------------------------------------------|
|
|       \1___________________/3.5___________________|
|  S   +S    +S   +S   +S   +S      +E   +E.  +S   +E   E
|----------------------------------------------------------|
|-19--(19)--(19)-(19)-(19)-(19)----(19)-(19)-(19)-(19)-22\-|
|----------------------------------------------------------|
|----------------------------------------------------------|
|----------------------------------------------------------|
|----------------------------------------------------------|


  F#5                                         F#5/C#                  F#sus2(type
   PM-----------------|
   E  E                 E                       E              Q       Q
|---------------------------------------------------------------------------|
|----------------------------------------------------------------------2----|
|----------------------------------------------------------------------1----|
|-----------------------------------------------4----------------------4----|
|--4--4-----------------4-----------------------4---------------------------|
|--2--2-----------------2---------------------------------------------------|
|
|                                                                   PM---|
|  E.    +T       +T   +T   +T   +T       +T   +T   +T   +S   +E    E  E  E
|---------------------------------------------------------------------------|
|-14----(14)b15==(14)-(14)r(14)-(14)b15==(14)-(14)r(14)-(14)-(14)\----------|
|---------------------------------------------------------------------------|
|------------------------------------------------------------------------11-|
|---------------------------------------------------------------------12----|
|------------------------------------------------------------------14-------|


      2)                   N.C.
                            PM
  +H.                  +E   E
|-----------------------------|
|-(2)------------------(2)----|
|-(1)------------------(1)----|
|-(4)------------------(4)----|
|-----------------------------|
|---------------------------2-|
|
|              PM---|
|              |--3--|
|  E  E  E  E  E  E  E  E   E
|-------12--------------------|
|--------------------------12-|
|-13h14----------------14-----|
|----------------11-14--------|
|----------11-12--------------|
|-----------------------------|


  D5            A5
   PM---|
   E  E  E E Q    Q
|---------------!-5-----------|
|---------------!-5-----------|
|---------------!-2-----------|
|--7--7--7-7------------------|
|--5--5--5-5------------------|
|-----------------------------|
|
|  E  E  H       +E   +E
|-----------------------------|
|-14--------------------------|
|----14-13------(13)-(13)b14==|
|-----------------------------|
|-----------------------------|
|-----------------------------|
|
| Gtr III
|  W
|-----------------------------|
|-----------------------------|
|-----------------------------|
|-----------------------------|
|-----------------------------|
|-----------------------------|


                                                            N.C.
   +H.                                             +E         E
|--(5)---------------------------------------------(5)-----------|
|--(5)---------------------------------------------(5)-----------|
|--(2)---------------------------------------------(2)-----------|
|----------------------------------------------------------------|
|-------------------------------------------------------------5--|
|----------------------------------------------------------------|
|
|  +S   +S   +E   +E   +E       +S   +S   +E       +S   +S   +E
|----------------------------------------------------------------|
|----------------------------------------------------------------|
|-(13)r(13)-(13)-(13)-(13)b14==(13)r(13)-(13)b14==(13)r(13)-(13)-|
|----------------------------------------------------------------|
|----------------------------------------------------------------|
|----------------------------------------------------------------|
|
|   H                            Q                  E         E
|----------------------------------------------------------------|
|----------------------------------------------------------------|
|----------------------------------------------------------------|
|----------------------------------------------------------------|
|------------------------------------------------------------14--|
|----------------------------------------------------------------|


  F#5      F#5/C#     F#sus2(type 2)                    N.C.
  Gtr III
   PM---|                                                PM
   E  E  E  E  Q      Q       +H.                   +E   E
|---------------------------|-------------------------------|
|---------------------2-----|-(2)-------------------(2)-----|
|---------------------1-----|-(1)-------------------(1)-----|
|-----------4---------4-----|-(4)-------------------(4)-----|
|--4--4--4--4---------------|-------------------------------|
|--2--2--2------------------|----------------------------2--|
|
| Gtrs I, II
|              |-3--| |-3-|          |-3-|
|  E  E  E  E  E E  E E E E    E  E  E E E E +E     +E  +E
|----------14-12p9----------|-------------------------------|
|-------12---------10-------|-------------------------------|
|----13---------------9p6---|-------------------------------|
|-11----------------------7-|-------------------------------|
|---------------------------|--9--7-------------------------|
|---------------------------|-------10p9p7-9-(9)b10r(9)-(9)-|


  D5                        A5                                         N.C.
  Gtr III
  PM-------|
  E    E   E   E    Q        Q       +H.                        +E     E
|---------------------------!5-----|-(5)------------------------(5)---------|
|---------------------------!5-----|-(5)------------------------(5)---------|
|---------------------------!2-----|-(2)------------------------(2)---------|
|-7----7---7---7-------------------|----------------------------------------|
|-5----5---5---5-------------------|-----------------------------------5----|
|----------------------------------|----------------------------------------|
|
| Gtrs I, II
| |--3---|          |--3--|  |-3-|                      |--3--|  |---3----|
| E E.   S S S S S +S  E. E  E E E    E  S  S  S  S  E  E  E  E  E   E    E
|--------------------------------9-|-----9h12S16p12-------16h19p16----------|
|------------------------------7---|-10-------------14S17-----------17------|
|-------------------------6--7-----|-------------------------------------18-|
|--------6h7p4---4-(4)-7-----------|----------------------------------------|
|-4-7----------5-------------------|----------------------------------------|
|----------------------------------|----------------------------------------|


  F#5                F#5/C#                                F#sus2(type 2)
   PM--|
   E E   E             E         Q                           Q
|---------------------------------------------------------------------------------|
|------------------------------------------------------------2--------------------|
|------------------------------------------------------------1--------------------|
|----------------------4-------------------------------------4--------------------|
|--4-4---4-------------4----------------------------------------------------------|
|--2-2---2------------------------------------------------------------------------|
|
|  Q    +S   +S       +S   +S   +S       +S   +S   +S       +S   +S   +S      +S
|---------------------------------------------------------------------------------|
|-19---(19)-(19)b21==(19)r(19)-(19)b21==(19)r(19)-(19)b21==(19)r(19)-(19)b21-(19)-|
|---------------------------------------------------------------------------------|
|---------------------------------------------------------------------------------|
|---------------------------------------------------------------------------------|
|---------------------------------------------------------------------------------|


                                     N.C.
                                     PM
  +H.                         +E     E
|-----------------------------------------|
|-(2)-------------------------(2)---------|
|-(1)-------------------------(1)---------|
|-(4)-------------------------(4)---------|
|-----------------------------------------|
|------------------------------------2----|
|
|                     PM---|
|  |--3---|  |--3--|  |--3--|  |---3----|
|  E   E  E  E  E  E  E  E  E  E   E    E
|-----------------------------------------|
|-----------------------------------------|
|-11--13-14-11-13-----------------13---14-|
|-----------------14----11----14----------|
|--------------------12----12-------------|
|-----------------------------------------|


  D5               A5
  Gtr III
   PM--|
   E E   E   E Q    Q     +W
|------------------!5---|-(5)------------------------------|
|------------------!5---|-(5)------------------------------|
|------------------!2---|-(2)------------------------------|
|--7-7---7---7----------|----------------------------------|
|--5-5---5---5----------|----------------------------------|
|-----------------------|----------------------------------|
|
| Gtrs I, II
|              |--3---|                            |--3--|
|  H           Q Q    Q    H      E      +S   +S   E  E  E
|-----------------------|----------------------------------|
|-----------------------|----------------------------------|
|--------------6-7----9-|--------16b18==(16)r(16)-14h16p14-|
|-----------------------|--9-------------------------------|
|-----------------------|----------------------------------|
|-----------------------|----------------------------------|
|
| Gtr IV
|              |--3---|                            |--3--|
|  Q    +Q     Q Q    Q    H      E      +S   +S   E  E  E
|-14---(14)\------------|----------------------------------|
|----------------7----9-|--------15b17==(15)r(15)-14h15p14-|
|--------------9--------|--9-------------------------------|
|-----------------------|----------------------------------|
|-----------------------|----------------------------------|
|-----------------------|----------------------------------|


  F#5
  Gtr III
   W                                      +W
   |                                       |
   /                                       /

  Gtrs I, II
          /    |               /    |             /    |
   Q.    +S   +S   +Q    +E   +S   +S     +Q.    +S   +S   +H
|--------------------------------------|--------------------------|
|--------------------------------------|--------------------------|
|-13----(13)-(13)-(13)--(13)-(13)-(13)-|-(13)---(13)-(13)-(13)----|
|--------------------------------------|--------------------------|
|--------------------------------------|--------------------------|
|--------------------------------------|--------------------------|
|
| Gtr IV
|         /    |               /    |             /    |
|  Q.    +S   +S   +Q    +E   +S   +S     +Q.    +S   +S   +H
|--------------------------------------|--------------------------|
|-14----(14)-(14)-(14)--(14)-(14)-(14)-|-(14)---(14)-(14)-(14)----|
|--------------------------------------|--------------------------|
|--------------------------------------|--------------------------|
|--------------------------------------|--------------------------|
|--------------------------------------|--------------------------|


  Dsus2/A
  W          +W
  |           |
  /           /

  W          +Q   Q   Q   Q
|----------|-----------------|
|----------|-----------------|
|-9--------|-(9)-------------|
|----------|------9--11--12--|
|----------|-----------------|
|----------|-----------------|
|
| W          +Q   Q   Q   Q
|----------|-----------------|
|-9--------|-(9)--7---9--10--|
|----------|-----------------|
|----------|-----------------|
|----------|-----------------|
|----------|-----------------|


  F#5
   W                  +W
   |                   |
   /                   /

   H     +E   E  Q     Q  Q   Q   Q
|-------------------|----------------|
|-------------------|----------------|
|-------------------|----------------|
|-11----(11)-11-11--|-11--9----------|
|-------------------|--------12--11--|
|-------------------|----------------|
|
|  H     +E   E  Q     Q  Q   Q   Q
|-------------------|----------------|
|--9-----(9)--9--9--|----------------|
|-------------------|-11--9----------|
|-------------------|--------11---9--|
|-------------------|----------------|
|-------------------|----------------|


  Dsus2/A             N.C.
   W             +Q   Q  H
   |              |   |  |
   /              /   x  o

   H     Q  Q    +W
|--------------|--------------||
|--------------|--------------||
|--------------|--------------||
|--------------|--------------||
|-11----12--7--|-(7)----------||
|--------------|--------------||
|
|  H     Q  Q    +W
|--------------|--------------||
|--------------|--------------||
|--------------|--------------||
|--9----11--9--|-(9)----------||
|--------------|--------------||
|--------------|--------------||


  F#5                                           Dsus2/A
  W                          +W                 W
  |                           |                 |
  /                           /                 /

  Gtrs I, II
  PM|           ~~~~~~~PM|                PM------|                   PM|
  E E E    +E  +E  +E  E E    E E E E E E E E   E E E     +E  +E  +E  E E
|--------------------------|------------------|---------------------------|
|--------------------------|------------------|---------------------------|
|-----6b7==(6)r(6)-(6)-----|--9---7---6-------|-----9b11==(9)r(9)-(9)---9-|
|-4-7------------------4-7-|----7---7---7-----|---7-------------------7---|
|--------------------------|--------------9-7-|-5-------------------------|
|--------------------------|------------------|---------------------------|


                     F#5
  +W                 W                            +W
   |                 |                             |
   /                 /                             /

                     PM|             ~~~~~~~PM|                PM|
   E E E E E E E E   E E  E     +E  +E  +E  E E    E E E E E E E E
|------------------|----------------------------|------------------|
|-10---9---7-------|----------------------------|------------------|
|----9---9---9-7-6-|-----[6]b7==(6)r(6)-(6)-----|--9---7---6-------|
|------------------|-4-7--------------------4-7-|----7---7---7-----|
|------------------|----------------------------|--------------9-7-|
|------------------|----------------------------|------------------|


  Dsus2/A                                        F#5
  W                           +W                 W
  |                            |                 |
  /                            /                 /

  Gtr I
  PM|                   PM|                      PM|           ~~~~~~~PM|
  E E E     +E  +E  +E  E E    E E E E E E E E   E E E    +E  +E  +E  E E
|---------------------------|------------------|--------------------------|
|---------------------------|-10---9---7-------|--------------------------|
|-----9b11==(9)r(9)-(9)---9-|----9---9---9-7-6-|-----6b7==(6)r(6)-(6)-----|
|---7-------------------7---|------------------|-4-7------------------4-7-|
|-5-------------------------|------------------|--------------------------|
|---------------------------|------------------|--------------------------|
|
| Gtr II
| PM|                   PM|                      PM|           ~~~~~~~
| E E E     +E  +E  +E  E E    E E E E E E E E   E E E    +E  +E  +E  E E
|---------------------------|------------------|--------------------------|
|---------------------------|-10---9---7-------|--------------------------|
|-----9b11==(9)r(9)-(9)---9-|----9---9---9-7-6-|-----6b7==(6)r(6)-(6)---6-|
|---7-------------------7---|------------------|-4-7------------------7---|
|-5-------------------------|------------------|--------------------------|
|---------------------------|------------------|--------------------------|


                     Dsus2/A
  +W                 W                           +W
   |                 |                            |
   /                 /                            /

                     PM|                   PM|
   E E E E E E E E   E E E     +E  +E  +E  E E    E E E E  E E E E
|------------------|---------------------------|-------------------|
|------------------|---------------------------|-10---9----7-------|
|--9---7---6-------|-----9b11==(9)r(9)-(9)---9-|----9---9----9-7-6-|
|----7---7---7-----|---7-------------------7---|-------------------|
|--------------9-7-|-5-------------------------|-------------------|
|------------------|---------------------------|-------------------|
|
|                    PM|
|  E E E E E E E E   E E E     +E  +E  +E  E E    E E E E  E E E E
|------------------|---------------------------|-------------------|
|--9---7---5-------|---------------------------|-10---9---10-9-7---|
|----6---6---6-----|-----9b11==(9)r(9)-(9)---9-|----9---9--------9-|
|--------------7-6-|---7-------------------7---|-------------------|
|------------------|-5-------------------------|-------------------|
|------------------|---------------------------|-------------------|


  F#5                                             Dsus2/A
  W                            +W                 W
  |                             |                 |
  /                             /                 /

  PM|             ~~~~~~~PM|                PM|
  E E  E     +E  +E  +E  E E    E E E E E E E E   E E E     +E  +E  +E  E E
|----------------------------|------------------|---------------------------|
|----------------------------|------------------|---------------------------|
|-----[6]b7==(6)r(6)-(6)-----|--9---7---6-------|-----9b11==(9)r(9)-(9)---9-|
|-4-7--------------------4-7-|----7---7---7-----|---7-------------------7---|
|----------------------------|--------------9-7-|-5-------------------------|
|----------------------------|------------------|---------------------------|
|
| PM|             ~~~~~~~                         PM|
| E E  E     +E  +E  +E  E E    E E E E E E E E   E E E     +E  +E  +E  E E
|----------------------------|------------------|---------------------------|
|----------------------------|--9---7---5-------|---------------------------|
|-----[6]b7==(6)r(6)-(6)---6-|----6---6---6-----|-----9b11==(9)r(9)-(9)---9-|
|-4-7--------------------7---|--------------7-6-|---7-------------------7---|
|----------------------------|------------------|-5-------------------------|
|----------------------------|------------------|---------------------------|


                      Interlude
                       F#5
                       Gtr II
  +W                   W                 +W
   |                   |                  |
   /                   /                  /

   E E E E  E E E E    E E E E E E E E    E  E E E E E E E
|-------------------||-----------------|-------------------|
|-10---9----7-------||-----------------|-------------------|
|----9---9----9-7-6-||-----6-----6-----|--6------6---6-----|
|-------------------||---7-----7-----7-|-------7-----------|
|-------------------||-9-----9-----9---|-----9-----9---9-7-|
|-------------------||-----------------|-------------------|
|
|                      Gtr IV
|  E E E E  E E E E    W                 +W
|-------------------||-----------------|-------------------|
|-10---9---10-9-7---||-----------------|-------------------|
|----9---9--------9-||-6---------------|-(6)---------------|
|-------------------||-----------------|-------------------|
|-------------------||-----------------|-------------------|
|-------------------||-----------------|-------------------|


  Dsus2/A                                 F#5
   W                  +W                  W
   |                   |                  |
   /                   /                  /

   E  E E E E E E E    E  E E E E E E E   E E E E E E E E
|-------------------|-------------------|-----------------|
|-------------------|-------------------|-----------------|
|-------9-----9-----|--9------9---------|-----6-----6-----|
|-----7-----7-----7-|-------7---6-7-6---|---7-----7-----7-|
|--5------5-----5---|-----5-----------7-|-9-----9-----9---|
|-------------------|-------------------|-----------------|
|
| +W                  +W                  W
|-------------------|-------------------|-----------------|
|-------------------|-------------------|-----------------|
|-(6)---------------|-(6)---------------|-----------------|
|-------------------|-------------------|-----------------|
|-------------------|-------------------|-----------------|
|-------------------|-------------------|-----------------|


                     Dsus2/A                    N.C.
  +W                 W                 +H       H
   |                 |                  |       |
   /                 /                  /       o

   E E E E E E E E   E E E E E E E E    E E E E E E E E
|------------------|-----------------|------------------|
|------------------|-----------------|------------------|
|--6-----6---6-----|-----9-----9-----|--9-----9---------|
|------7-----------|---7-----7-----7-|------7---6-7-6---|
|----9-----9---9-7-|-5-----5-----5---|----5-----------7-|
|------------------|-----------------|------------------|


    N.C.
    Gtr I
     E  E E  E  E E  E  E   E  E  E E  E E  E  E   E  E  E E  E  E E  E
||------------------------|----------------------|----------------------|
||o-----------------------|----------------------|----------------------|
||--------9-------9-------|-9-------9----9-------|------13------13------|
||-----11------11------11-|------11--------------|---11------11------11-|
||o-12------12------12----|---12------12---12-11-|-9-------9-------9----|
||------------------------|----------------------|----------------------|
|
|   Gtr II
|    E  E E  E  E E  E  E   E  E  E E  E E  E  E   E  E  E E  E  E E  E
||------------------------|----------------------|----------------------|
||o-----------------------|----------------------|----------------------|
||--------6-------6-------|-6-------6----6-------|-------9-------9------|
||------7-------7-------7-|-------7--------------|----7-------7-------7-|
||o--9-------9-------9----|----9-------9----9--7-|-5-------5-------5----|
||------------------------|----------------------|----------------------|


  1.                       2.
  N.C.
   E E  E  E E  E E  E      E E  E  E   H
|-----------------------||--------------------||
|----------------------o||--------------------||
|-13------13------------||-13------13---------||
|------11----9-11-9-----||------11------------||
|----9--------------11-o||----9---------------||
|-----------------------||------------/14\----||
|
|  E E  E  E E  E E  E      E E  E  E   H
|-----------------------||--------------------||
|----------------------o||--------------------||
|--9-------9------------||--9-------9---------||
|-------7----6--7-6-----||-------7------------||
|----5---------------7-o||----5---------------||
|-----------------------||------------/17\----||


    F#5         F#sus2(type 3)        N.C.    E5II    N.C.G#m
    Gtr I
            PM                        PM              PM
    H       Q   Q       +H.           Q       H       Q   Q
||--------------------|---------------------|-----------------|
||o-------------------|---------------------|-----------------|
||--------------1-----|-(1)-----------------|-4---------------|
||--------------4-----|-(4)-----------------|-2---------------|
||o-4-------4---------|---------------------|-----------------|
||--2-------2---------|---------------0-----|---------0---4---|
|
|   Gtr III
|           PM                        PM              PM
|   H       Q   Q       +H.           Q       H       Q   Q
||--------------------|---------------------|-----------------|
||o-------------------|---------------------|-----------------|
||--------------1-----|-(1)-----------------|-4-----------4---|
||--------------4-----|-(4)-----------------|-2-----------6---|
||o-4-------4---------|---------------------|-----------------|
||--2-------2---------|---------------0-----|---------0-------|
|
|   Gtr II
|   PM  PM    PM--------|     PM    PM--------|   PM    PM
|   E E E E E E S S E    E  E E E E E S S E   E E E E E E E E
||--------------------|---------------------|-----------------|
||o-------------------|---------------------|-----------------|
||--------------------|---------------------|-----------------|
||--------------------|---------------------|-----------------|
||o---4---4h5---------|-----4---4-5---------|---2---2-----1---|
||--2---2-----2-5-4-2-|--2----2-----2-5-4-3-|-0---0---3-0---2-|


                     1.
                N.C.  F#5IV   N.C.F#m                 F#5 D5/A
                PM            PM                      PM
  +H.           Q     H       Q   Q       +Q    +Q    Q   Q
|-------------------|-------------------|-----------------------|
|-------------------|-------------------|-----------------------|
|-------------------|-6-----------------|-----------------------|
|-------------------|-4-----------------|-----------------------|
|-------------------|-------------0-----|-(0)---(0)---4---------|
|-(4)-----------0---|---------0---2-----|-(2)---(2)---2---5-----|
|
|               PM            PM                      PM
| +H.           Q     H       Q   Q       +Q     Q    Q   Q
|-------------------|-------------2-----|-(2)-------------------|
|-------------------|-------------------|--------2--------------|
|-(4)---------------|-6-----------------|-----------------------|
|-(6)---------------|-4-----------------|-----------------------|
|-------------------|-------------------|-------------4---5-----|
|---------------0---|---------0---------|-------------2---------|
|
|  PM   PM    PM      PM  PM    PM--------|      PM     PM----|
|  E  E E E E E E E   E E E E E E S S E    E  E  E  E E E S S E
|-------------------|-------------------|-----------------------|
|-------------------|-------------------|-----------------------|
|-------------------|-------------------|-----------------------|
|-------------------|-------------------|-----------------------|
|-----2---2-----1---|---4---4h5---------|-----4-----4-5---------|
|--0----0---3-0---2-|-2---2-----2-5-4-2-|--2-----2------2-5-4-3-|


                                            2.
    E5/B    N.C.G#mII                       F#5IV   N.C.F#m
            PM                                      PM
  a H       Q   Q     +W                    H       Q   Q
|-------------------|--------------------||-------------------|
|-------------------|-------------------o||-------------------|
|-------------------|--------------------||-6-----------------|
|-------------------|--------------------||-4-----------------|
|-----------2---2---|-(2)---------------o||-------------0-----|
|-5S7---------------|--------------------||---------0---2-----|
|
|           PM                                      PM
| a H       Q   Q     +W                    H       Q   Q
|-------------------|--------------------||-------------------|
|-------------------|-------------------o||-------------2-----|
|-------------------|--------------------||-6-----------------|
|-------------------|--------------------||-4-----------------|
|-5S7-------2-------|-------------------o||-------------------|
|---------------4---|-(4)----------------||---------0---------|
|
|   PM  PM    PM       PM   PM    PM        PM  PM    PM----|
|   E E E E E E E E    E  E E E E E E E     E E E E E E S S E
|-------------------|--------------------||-------------------|
|-------------------|-------------------o||-------------------|
|-------------------|--------------------||-------------------|
|-------------------|--------------------||-------------------|
|-----2---2-----1---|-----2---2-----1---o||---4---4h5---------|
|---0---0---3-0---2-|--0----0---3-0---2--||-2---2-----2-5-4-2-|


              F#5 D5/A      E5/B
              PM
  +Q    +Q    Q   Q       a W                 +W
|-----------------------|-------------------|-------------------||
|-----------------------|-------------------|-------------------||
|-----------------------|-------------------|-------------------||
|-----------------------|-------------------|-------------------||
|-(0)---(0)---4---------|-------------------|-------------------||
|-(2)---(2)---2---5-----|-5S7---------------|-(7)---------------||
|
|             PM
| +Q     Q    Q   Q       a W                 +W
|-----------------------|-------------------|-------------------||
|-(2)-------------------|-------------------|-------------------||
|--------2--------------|-------------------|-------------------||
|-----------------------|-------------------|-------------------||
|-------------4---5-----|-5S7---------------|-(7)---------------||
|-------------2---------|-------------------|-------------------||
|
|  PM    PM     PM----------|   PM    PM       PM   PM    PM
|  E  E  E  E E E S S E     E E E E E E E E    E  E E E E E E E
|-----------------------|-------------------|-------------------||
|-----------------------|-------------------|-------------------||
|-----------------------|-------------------|-------------------||
|-----------------------|-------------------|-------------------||
|-----4-----4-5---------|-----2---2-----1---|-----2---2-----1---||
|--2-----2------2-5-4-3-|---0---0---3-0---2-|--0----0---3-0---2-||


 Outro
  E5                             N.C.
  Gtr II
   W              +W             +W
   |               |
   /               /

  Gtr I
  +W              +W              W
|---------------|--------------|--------------|
|---------------|--------------|--------------|
|---------------|--------------|--------------|
|---------------|--------------|--------------|
|---------------|--------------|--------------|
|-(7)-----------|-(7)----------|--------------|
|
| Gtr III
| +W              +W              W
|---------------|--------------|--------------|
|---------------|--------------|--------------|
|---------------|--------------|--------------|
|---------------|--------------|--------------|
|-(7)-----------|-(7)----------|--------------|
|---------------|--------------|--------------|
|
| Gtrs V, VI
|  Q   Q  Q  Q    +Q   H    Q     Q  Q  Q  Q
|------------0--|-(0)----------|--------------|
|------1--------|--------------|--------3-----|
|---------4-----|------4----0--|-----------4--|
|--2------------|--------------|-----5--------|
|---------------|--------------|--3-----------|
|---------------|--------------|--------------|


  N.C.
  Gtrs V, VI
  +W           Q  Q  Q  Q    +Q   H    Q
|------------|----------0--|-(0)----------|
|------------|----1--------|--------------|
|-(4)--------|-------4-----|------4----0--|
|------------|-2-----------|--------------|
|------------|-------------|--------------|
|------------|-------------|--------------|


  N.C.
  Gtr V
  Q  Q  Q  Q    +W           Q  Q  Q  Q
|-------------|------------|----0-----0--|
|-------3-----|------------|-------3-----|
|----------4--|-(4)--------|-------------|
|----5--------|------------|-5-----------|
|-3-----------|------------|-------------|
|-------------|------------|-------------|
|
| Gtr VI
| Q  Q  Q  Q    +W           Q  Q  Q  Q
|-------------|------------|----------0--|
|-------3-----|------------|----1--------|
|----------4--|-(4)--------|-------4-----|
|----5--------|------------|-2-----------|
|-3-----------|------------|-------------|
|-------------|------------|-------------|


  N.C.
  +Q   H    Q    Q  Q  Q   Q     +W
|-(0)----------|----------10--|-(10)----|
|--------------|----7--8------|---------|
|------4-------|-9------------|---------|
|-----------5--|--------------|---------|
|--------------|--------------|---------|
|--------------|--------------|---------|
|
| +Q   H    Q    Q  Q  Q   Q     +W
|-(0)----------|----------10--|-(10)----|
|--------------|----7---------|---------|
|------4----0--|-9-----7------|---------|
|--------------|--------------|---------|
|--------------|--------------|---------|
|--------------|--------------|---------|


  N.C.                           G5/F#
  Q  Q  Q  Q    +Q     H     +S    E.    +W
|----0-----0--|-(0)--------------^10--|-(10)----|
|-------3-----|------------------^-8--|--(8)----|
|-------------|--------4-----(4)-^11--|-(11)----|
|-5-----------|-----------------------|---------|
|-------------|-----------------------|---------|
|-------------|-----------------------|---------|
|
|                                Gtr IV
|                                  <
| Q  Q  Q  Q    +Q     H     +S    E.    +W
|----------0--|-(0)---------------15--|-(15)----|
|----1--------|-----------------------|---------|
|-------4-----|------^-4-----(4)------|---------|
|-2-----------|------^(2)----(2)------|---------|
|-------------|-----------------------|---------|
|-------------|-----------------------|---------|


  Gtrs V, VI
   +W            +W            +W            +W
|-(10)--------|-(10)--------|-(10)--------|-(10)----*|
|--(8)--------|--(8)--------|--(8)--------|--(8)----*|
|-(11)--------|-(11)--------|-(11)--------|-(11)----*|
|-------------|-------------|-------------|---------*|
|-------------|-------------|-------------|---------*|
|-------------|-------------|-------------|---------*|
|
| Gtr IV
|  +W            +W            +W            +W
|-(15)--------|-(15)--------|-(15)--------|-(15)----*|
|-------------|-------------|-------------|---------*|
|-------------|-------------|-------------|---------*|
|-------------|-------------|-------------|---------*|
|-------------|-------------|-------------|---------*|
|-------------|-------------|-------------|---------*|


Duration Legend
---------------
W - whole; H - half; Q - quarter; E - 8th; S - 16th; T - 32nd; X - 64th; a - acciaccatura
+ - note tied to previous; . - note dotted; .. - note double dotted
Uncapitalized letters represent notes that are staccato (1/2 duration)
Irregular groupings are notated above the duration line
Duration letters will always appear directly above the note/fret number it represents the
duration for.  Duration letters with no fret number below them represent rests.  Multi-
bar rests are notated in the form Wxn, where n is the number of bars to rest for.  Low
melody durations appear below the staff

Tablature Legend
----------------
 h   - hammer-on
 p   - pull-off
 b   - bend
 pb  - pre-bend
 r   - bend release (if no number after the r, then release immediately)
 /\  - slide into or out of (from/to "nowhere")
 s   - legato slide
 S   - shift slide
  - natural harmonic
[n]  - artificial harmonic
n(n) - tapped harmonic
 ~   - vibrato
 tr  - trill
 T   - tap
 TP  - trem. picking
 PM  - palm muting
\n/  - tremolo bar dip; n = amount to dip
 \n  - tremolo bar down
 n/  - tremolo bar up
/n\  - tremolo bar inverted dip
 =   - hold bend; also acts as connecting device for hammers/pulls
 <>  - volume swell (louder/softer)
 x   - on rhythm slash represents muted slash
 o   - on rhythm slash represents single note slash

Misc Legend
-----------
 |  - bar
||  - double bar
||o - repeat start
o|| - repeat end
*|  - double     ( nding)
 :  - bar (freetime)
 $  - Segno
 &  - Coda
                             ((PLEASE RATE))




============================================================================
5-Focus Shall Not Fail
============================================================================

-------------------------------------------------------------------------------
	         Focus Shall Not Fail - All That Remains
-------------------------------------------------------------------------------


Revised by Jon 
Jloane@gmail.com

Into Tabbed by: metallislave	
Email: jenky_fats@hotmail.com

Tuning: D Standard

d|---------------------------------------------------------------------------|
A|---------------------------------------------------------------------------|
F|-9~----------------------------------5~------------------------------------|
G|-9~---10~---7~---2~--------------2---5~-------------------0------9-9-------| 1x
C|-7~---10~---5~---0~------------2-----3~---3-5-3-2-------0------9-----9----9|
D|-------8~---5~---0~---0000-0-0--------------------5-3-2------7---------11--|

d|---------------------------------------------------------------------------|
A|---------------------------------------------------------------------------|
F|---------------------------------------------------------------------------|
G|-----------------7---------------------------------------------------------|\
C|-----6-9-7-----9---10-----7h9-----10-7-6-----7-10-9-7-6-9-7-6--------------| \
D|-000-------000--------000-----000--------000-------------------------------|  \
										 2x
d|---------------------------------------------------------------------------|  /
A|---------------------------------------------------------------------------| /
F|---------------------------------------------------------------------------|/
G|-----------------7---------------------------------------------------------|
C|-----6-9-7-----9---10-----7h9-----10-7-6-----6-7-6-----9-7-6---------------|
D|-000-------000--------000-----000--------000-------8-7---------------------|

d|---------------------------------------------------------------------------|
A|---------------------------------------------------------------------------|
F|---------------------------------------------------------------------------|
G|---------------------------------------------------------------------------|\
C|-------------------------------------------7-10-9-7-6-9-7-6----------------| \
D|-000-000-000-0-000-000-000-0-000-000-000-0---------------------------------|  \
										 2x
d|---------------------------------------------------------------------------|  /
A|---------------------------------------------------------------------------| /
F|---------------------------------------------------------------------------|/
G|---------------------------------------------------------------------------|
C|---------------------------------------------6-7-6-----9-7-6---------------|
D|-000-000-000-0-000-000-000-000-000-000-000-0-------8-7---------------------|

d|---------------------------------------------------------------------------|
A|---------------------------------------------------------------------------|
F|---------------------------------------------------------------------------|
G|-----------------7---------------------------------------------------------|\
C|-----6-9-7-----9---10-----7h9-----10-7-6-----7-10-9-7-6-9-7-6--------------| \
D|-000-------000--------000-----000--------000-------------------------------|  \
										 2x
d|---------------------------------------------------------------------------|  /
A|---------------------------------------------------------------------------| /
F|---------------------------------------------------------------------------|/
G|-----------------7---------------------------------------------------------|
C|-----6-9-7-----9---10-----7h9-----10-7-6-----6-7-6-----9-7-6---------------|
D|-000-------000--------000-----000--------000-------8-7---------------------|

d|--------|                          e|--------|    
A|--------|                          B|--------|
F|--------|                          G|--------|
G|-2~-----| other guitar plays this: D|-9~-----|
C|-2~-----|                          A|-7~-----|
D|-0~-----|                          E|-0~-----|

d|---------------------------------------------------------------------------|
A|---------------------------------------------------------------------------|
F|---------------------------------------------------------------------------|
C|---------------------------------------------------------------------------|
C|---7p0---------3p0-2p0----2p0--7p0-6p0--------------2----2/3-2/5-----------|
D|-------0-0000----------00--------------0-0000-0000----00-------------------|

d|---------------------------------------------------------------------------|
A|---------------------------------------------------------------------------|
F|---------------------------------------------------------------------------|
C|----------------------------------------------------7-5-4-5p4--------------|
C|---7p0---------3p0-2p0----2p0--7p0-6p0------------------------5\-----------|
D|-------0-0000----------00--------------0-0000-0000-------------------------|

d|---------------------------------------------------------------------------|
A|---------------------------------------------------------------------------|
F|---------------------------------------------------------------------------|
C|--2-----5\4/5---------------------------7-5-4---5p4------------------------|
C|--2-----3\2/3------5\4/5----------------------5-----5/7--------------------|
D|--0-000-------000--3\2/3----7-77777777-------------------------------------|

d|---------------------------------------------------------------------------|
A|---------------------------------------------------------------------------|
F|---------------------------------------------------------------------------|
C|--2-----5\4/5----------------------10-9-7----------7-5-4-------------------|
C|--2-----3\2/3------5\4/5------------------9--------------5-----------------|
D|--0-000-------000--3\2/3----7-777------------5-555-------------------------|

d|---------------------------------------------------------------------------|
A|---------------------------------------------------------------------------|
F|---------------------------------------------------------------------------|x2
G|----9------9h10p9------4h5p4---0--4------4-2-4-----4h5p4--0----------------|
C|----7--------------555---------0--2--222-------000--------0----------------|
D|----0--0000----------------------------------------------------------------|

d|---------------------------------------------------------------------------|
A|---------------------------------------------------------------------------|
F|---------------------------------------------------------------------------|
C|--2-----5\4/5---------------------------7-5-4---5p4------------------------|
C|--2-----3\2/3------5\4/5----------------------5-----5/7--------------------|
D|--0-000-------000--3\2/3----7-77777777-------------------------------------|

d|---------------------------------------------------------------------------|
A|---------------------------------------------------------------------------|
F|---------------------------------------------------------------------------|
C|--2-----5\4/5----------------------10-9-7----------7-5-4-------------------|
C|--2-----3\2/3------5\4/5------------------9--------------5-----------------|
D|--0-000-------000--3\2/3----7-777------------5-555-------------------------|

d|---------------------------------------------------------------------------|
A|---------------------------------------------------------------------------|
F|---------------------------------------------------------------------------|x2
G|----9------9h10p9------4h5p4---0--4------4-2-4-----4h5p4--0----------------|
C|----7--------------555---------0--2--222-------000--------0----------------|
D|----0--0000----------------------------------------------------------------|

too lazy to figure out harmony guitar. but these last riffs are played behind it.

d|---------------------------------------------------------------------------|
A|---------------------------------------------------------------------------|
F|---------------------------------------------------------------------------|
C|---------------------------------------------------------------------------|
C|---7p0---------3p0-2p0----2p0--7p0-6p0--------------2----2/3-2/5-----------|
D|-------0-0000----------00--------------0-0000-0000----00-------------------|

d|---------------------------------------------------------------------------|
A|---------------------------------------------------------------------------|
F|---------------------------------------------------------------------------|
C|----------------------------------------------------7-5-4-5p4--------------|
C|---7p0---------3p0-2p0----2p0--7p0-6p0------------------------5\-----------|
D|-------0-0000----------00--------------0-0000-0000-------------------------|


played in background of next 3 riffs.
d|----------------------------|
A|----------------------------|
F|----------------------------|
G|----------------------------|x8 until harmony
C|----------------------------|
D|-000-000--000-000-000-------|
   --- ---      --- ---

--- = triplets



let ring throughout
d|------------------------|   d|------------------------------------|
A|-----7----~-------------|   A|-----7-------7-------7-------7------|
F|-------9--~-------------|   F|-------9---9---9---9---9---9---9----|
G|---------9~-------------|x4 G|---------9-------9-------9-------9--|
C|------------------------|   C|------------------------------------| 
D|------------------------|   D|------------------------------------|

d|---------------------------------------------------------------------------|
A|---------------------------------------------------------------------------|
F|---99999999/1111111/12121212\1111111-1111111/12121212/14141414/------------|
G|---------------------------------------------------------------------------|
C|---77777777/9-9-9-9/10101010\9-9-9-9-9-9-9-9/10101010/12121212/------------|
D|---------------------------------------------------------------------------|

4x each is not the count for all of em, listen to the song to figure out the timing.

d|-----------------------------------------------------------------------------|
A|-----------------------------------------------------------------------------|
F|--16161616/17171717\16161616-9999/1111111/12121212/14141414--5555\4444-------|
G|-----------------------------------------------------------------------------|
C|--14141414/17171717\14141414-7777/9-9-9-9/10101010/12121212--3333\2222-------|
D|-----------------------------------------------------------------------2/12\-|

Double Time.
d|---------------------------------------------------------------------------|
A|---------------------------------------------------------------------------|
F|---------------------------------------------------------------------------|
G|-----------------7---------------------------------------------------------|\
C|-----6-9-7-----9---10-----7h9-----10-7-6-----7-10-9-7-6-9-7-6--------------| \
D|-000-------000--------000-----000--------000-------------------------------|  \
										 2x
d|---------------------------------------------------------------------------|  /
A|---------------------------------------------------------------------------| /
F|---------------------------------------------------------------------------|/
G|-----------------7---------------------------------------------------------|
C|-----6-9-7-----9---10-----7h9-----10-7-6-----6-7-6-----9-7-6---------------|
D|-000-------000--------000-----000--------000-------8-7---------------------|

d|---------------------------------------------------------------------------|
A|---------------------------------------------------------------------------|
F|--4--6/7-6--7-9-11/12-11--4--6-7-------------------------------------------|
G|---------------------------------5-4---------------------------------------|
C|--2--4/5-4--5-7-9-/10-9---2--4-5-------------------------------------------|
D|---------------------------------3-2---------------------------------------|

SOLO
d|---------------------------------------------------------------------------|
A|---------------------------------------------------------------------------|
F|------------9-9FB11R9--11-12--14-14FB16R14-----7-9--9FB11-9FB11--9FB11R9---|
G|------7h9~~--------------------------------7h9-----------------------------|
C|--9\-----------------------------------------------------------------------|
D|---------------------------------------------------------------------------|

d|---------------------------------------------------------------------------|
A|---------------------------------------------------------------------------|
F|--9\7\5\4--3-3FB5R3~~------------------------------------------------------|
G|---------------------------------------------------------------------------|
C|---------------------------------------------------------------------------|
D|---------------------------------------------------------------------------|

d|---------------------------------------------------------------------------|
A|---------------------------------------------------------------------------|
F|------------9-9FB11R9--11-12--14-14FB16R14-----lol good luck idk-----------|
G|------7h9~~----------------------------------------------------------------|
C|---------------------------------------------------------------------------|
D|---------------------------------------------------------------------------|

OUTRO
d|----------------------------|
A|----------------------------|
F|----------------------------|
G|----------------------------|
C|----------------------------|
D|-000-000--000-000-000-------|
   --- ---      --- ---

--- = triplets



let ring throughout
d|------------------------|
A|-----7----~-------------|
F|-------9--~-------------|
G|---------9~-------------|
C|------------------------|
D|------------------------|



| /  slide up
| \  slide down
| h  hammer-on
| p  pull-off
| ~  vibrato
| +  harmonic
| x  Mute note
================




============================================================================
6-Regret Not
============================================================================

Gtr I (D G C F A D) - 'Untitled'
Gtr II (D G C F A D) - 'Untitled'
Gtr III (D G C F A D) - 'Untitled'
Gtr IV (D G C F A D) - 'Untitled'
Gtr V (D G C F A D) - 'Untitled'
Gtr VI (D G C F A D) - 'Untitled'


    Q=180
   3/4
    Gtr I
    Q.   E E E Q.   E E E Q.   E E E E E E E E E Q.   E E E Q.   E E E Q.   E E E E E E E E E
||-----------------------------------------------0----0-0-0-0----0-0-0-0----0-0-0-0------------||
||o-1----1-1-1-1----1-1-1-0----0-0-0-0-3-3-3-3-3-0----0-0-0-0----0-0-0-0----0-0-0-0-----------o||
||--0----0-0-0-0----0-0-0-0----0-0-0-0-0-0-0-0-0-0----0-0-0-0----0-0-0-0----0-0-0-0-2-2-2-2-2--||
||--2----2-2-2-2----2-2-2-2----2-2-2-2-2-2-2-2-2-2----2-2-2-2----2-2-2-2----2-2-2-2-2-2-2-2-2--||
||o-3----3-3-3-3----3-3-3-3----3-3-3-3-3-3-3-3-3-2----2-2-2-2----2-2-2-2----2-2-2-2-0-0-0-0-0-o||
||-----------------------------------------------0----0-0-0-0----0-0-0-0----0-0-0-0------------||


   Q.    E E E   Q.   E E E    Q.    E E E   E E  E E E E
|--------------|------------|--------------|--------------|
|--1-----1-1-1-|-1----1-1-1-|--0-----0-0-0-|-0-3--3-3-3-3-|
|--0-----0-0-0-|-0----0-0-0-|--0-----0-0-0-|-0-0--0-0-0-0-|
|--2-----2-2-2-|-2----2-2-2-|--2-----2-2-2-|-2-2--2-2-2-2-|
|--3-----3-3-3-|-3----3-3-3-|--3-----3-3-3-|-3-3--3-3-3-3-|
|--------------|------------|--------------|--------------|
|
| Gtr II
|  Q   Q   Q     H.            Q   Q   Q     Q    Q   Q
|--------------|------------|--------------|--------------|
|--------------|------------|--------------|--------------|
|--------------|------------|--------------|--------------|
|-10---9---7---|-9----------|-10---9---7---|----------7---|
|--------------|------------|--------------|-9---10-------|
|--------------|------------|--------------|--------------|


  Q.   E E  E     Q.   E E E   Q.    E E E   E E E E E E
|-0----0-0--0---|-0----0-0-0-|-0-----0-0-0-|-0--------------|
|-0----0-0--0---|-0----0-0-0-|-0-----0-0-0-|-0--------------|
|-0----0-0--0---|-0----0-0-0-|-0-----0-0-0-|-0-2-2-2-2-2----|
|-2----2-2--2---|-2----2-2-2-|-2-----2-2-2-|-2-2-2-2-2-2----|
|-2----2-2--2---|-2----2-2-2-|-2-----2-2-2-|-2-0-0-0-0-0----|
|-0----0-0--0---|-0----0-0-0-|-0-----0-0-0-|-0--------------|
|
|        |-3--|
| H      E  E E   H.           Q   Q   Q     Q   Q   Q
|---------------|------------|-------------|----------------|
|---------------|------------|-------------|----------------|
|---------------|------------|-------------|----------------|
|---------------|------------|-------------|----------------|
|-9------9-10-9-|-7----------|-------------|----------------|
|---------------|------------|-------------|----------------|


   Q.    E E E    Q.   E E E    Q.    E E E   E E  E E E E
|--------------|-------------|--------------|--------------|
|--1-----1-1-1-|--1----1-1-1-|--0-----0-0-0-|-0-3--3-3-3-3-|
|--0-----0-0-0-|--0----0-0-0-|--0-----0-0-0-|-0-0--0-0-0-0-|
|--2-----2-2-2-|--2----2-2-2-|--2-----2-2-2-|-2-2--2-2-2-2-|
|--3-----3-3-3-|--3----3-3-3-|--3-----3-3-3-|-3-3--3-3-3-3-|
|--------------|-------------|--------------|--------------|
|
|  Q   Q   Q      H.            Q   Q   Q     Q    Q   Q
|--------------|-------------|--------------|--------------|
|--------------|-------------|--------------|--------------|
|--------------|-------------|--------------|--------------|
|-10---9---7---|-10----------|-10---9---7---|----------7---|
|--------------|-------------|--------------|-9---10-------|
|--------------|-------------|--------------|--------------|


  Q.   E E E   Q.    E E E   Q.    E E E   E E E E E E
|-0----0-0-0-|-0-----0-0-0-|-0-----0-0-0-|-0--------------|
|-0----0-0-0-|-0-----0-0-0-|-0-----0-0-0-|-0--------------|
|-0----0-0-0-|-0-----0-0-0-|-0-----0-0-0-|-0-2-2-2-2-2----|
|-2----2-2-2-|-2-----2-2-2-|-2-----2-2-2-|-2-2-2-2-2-2----|
|-2----2-2-2-|-2-----2-2-2-|-2-----2-2-2-|-2-0-0-0-0-0----|
|-0----0-0-0-|-0-----0-0-0-|-0-----0-0-0-|-0--------------|
|
| H.           Q   Q   Q     Q   Q   Q     Q   Q   Q
|------------|-------------|-------------|----------------|
|------------|-------------|-------------|----------------|
|------------|-------------|-------------|----------------|
|-9----------|-------------|-------------|----------------|
|------------|-------------|-------------|----------------|
|------------|-------------|-------------|----------------|


   Q.    E E E   Q.   E E E    Q.    E E E   E E  E E E E
|--------------|------------|--------------|--------------|
|--1-----1-1-1-|-1----1-1-1-|--0-----0-0-0-|-0-3--3-3-3-3-|
|--0-----0-0-0-|-0----0-0-0-|--0-----0-0-0-|-0-0--0-0-0-0-|
|--2-----2-2-2-|-2----2-2-2-|--2-----2-2-2-|-2-2--2-2-2-2-|
|--3-----3-3-3-|-3----3-3-3-|--3-----3-3-3-|-3-3--3-3-3-3-|
|--------------|------------|--------------|--------------|
|
|  Q   Q   Q     H.            Q   Q   Q     Q    Q   Q
|--------------|------------|--------------|--------------|
|--------------|------------|--------------|--------------|
|--------------|------------|--------------|--------------|
|-10---9---7---|-9----------|-10---9---7---|----------7---|
|--------------|------------|--------------|-9---10-------|
|--------------|------------|--------------|--------------|
|
| Gtr III
|  Q   Q   Q     H.            Q   Q   Q     Q    Q   Q
|--------------|------------|--------------|--------------|
|-10---8---7---|-8----------|-10---8---7---|----------7---|
|--------------|------------|--------------|-7----9-------|
|--------------|------------|--------------|--------------|
|--------------|------------|--------------|--------------|
|--------------|------------|--------------|--------------|


  Q.   E E  E     Q.   E E E   Q.    E E E   E E E E E E
|-0----0-0--0---|-0----0-0-0-|-0-----0-0-0-|-0--------------|
|-0----0-0--0---|-0----0-0-0-|-0-----0-0-0-|-0--------------|
|-0----0-0--0---|-0----0-0-0-|-0-----0-0-0-|-0-2-2-2-2-2----|
|-2----2-2--2---|-2----2-2-2-|-2-----2-2-2-|-2-2-2-2-2-2----|
|-2----2-2--2---|-2----2-2-2-|-2-----2-2-2-|-2-0-0-0-0-0----|
|-0----0-0--0---|-0----0-0-0-|-0-----0-0-0-|-0--------------|
|
| H      E  E E   H.           Q   Q   Q     Q   Q   Q
|---------------|------------|-------------|----------------|
|---------------|------------|-------------|----------------|
|---------------|------------|-------------|----------------|
|---------------|------------|-------------|----------------|
|-9------9-10-9-|-7----------|-------------|----------------|
|---------------|------------|-------------|----------------|
|
|        |-3--|
| H      E  E E   H.           Q   Q   Q     Q   Q   Q
|---------------|------------|-------------|----------------|
|-7------7--8-7-|------------|-------------|----------------|
|---------------|-9----------|-------------|----------------|
|---------------|------------|-------------|----------------|
|---------------|------------|-------------|----------------|
|---------------|------------|-------------|----------------|


   Q.    E E E    Q.   E E E    Q.    E E E   E E  E E E E
|--------------|-------------|--------------|--------------|
|--1-----1-1-1-|--1----1-1-1-|--0-----0-0-0-|-0-3--3-3-3-3-|
|--0-----0-0-0-|--0----0-0-0-|--0-----0-0-0-|-0-0--0-0-0-0-|
|--2-----2-2-2-|--2----2-2-2-|--2-----2-2-2-|-2-2--2-2-2-2-|
|--3-----3-3-3-|--3----3-3-3-|--3-----3-3-3-|-3-3--3-3-3-3-|
|--------------|-------------|--------------|--------------|
|
|  Q   Q   Q      H.            Q   Q   Q     Q    Q   Q
|--------------|-------------|--------------|--------------|
|--------------|-------------|--------------|--------------|
|--------------|-------------|--------------|--------------|
|-10---9---7---|-10----------|-10---9---7---|----------7---|
|--------------|-------------|--------------|-9---10-------|
|--------------|-------------|--------------|--------------|
|
|  Q   Q   Q      H.            Q   Q   Q     Q    Q   Q
|--------------|-------------|--------------|--------------|
|-10---8---7---|--8----------|-10---8---7---|----------7---|
|--------------|-------------|--------------|-7----9-------|
|--------------|-------------|--------------|--------------|
|--------------|-------------|--------------|--------------|
|--------------|-------------|--------------|--------------|


  Q.   E E E   Q.    E E E   Q.    E E E   E E E E E E
|-0----0-0-0-|-0-----0-0-0-|-0-----0-0-0-|-0--------------|
|-0----0-0-0-|-0-----0-0-0-|-0-----0-0-0-|-0--------------|
|-0----0-0-0-|-0-----0-0-0-|-0-----0-0-0-|-0-2-2-2-2-2----|
|-2----2-2-2-|-2-----2-2-2-|-2-----2-2-2-|-2-2-2-2-2-2----|
|-2----2-2-2-|-2-----2-2-2-|-2-----2-2-2-|-2-0-0-0-0-0----|
|-0----0-0-0-|-0-----0-0-0-|-0-----0-0-0-|-0--------------|
|
| H.           Q   Q   Q     Q   Q   Q     Q   Q   Q
|------------|-------------|-------------|----------------|
|------------|-------------|-------------|----------------|
|------------|-------------|-------------|----------------|
|-9----------|-------------|-------------|----------------|
|------------|-------------|-------------|----------------|
|------------|-------------|-------------|----------------|
|
| H.           Q   Q   Q     Q   Q   Q     Q   Q   Q
|------------|-------------|-------------|----------------|
|-8----------|-------------|-------------|----------------|
|------------|-------------|-------------|----------------|
|------------|-------------|-------------|----------------|
|------------|-------------|-------------|----------------|
|------------|-------------|-------------|----------------|


   Q.     E  E E    Q.   E E E    Q.     E  E E    E E  E E  E E
|----------------|-------------|----------------|----------------|
|--1------1--1-1-|--1----1-1-1-|--0------0--0-0-|--0-3--3-3--3-3-|
|--0------0--0-0-|--0----0-0-0-|--0------0--0-0-|--0-0--0-0--0-0-|
|--2------2--2-2-|--2----2-2-2-|--2------2--2-2-|--2-2--2-2--2-2-|
|--3------3--3-3-|--3----3-3-3-|--3------3--3-3-|--3-3--3-3--3-3-|
|----------------|-------------|----------------|----------------|
|
|  Q    Q    Q      H.            Q    Q    Q      Q    Q    Q
|----------------|-------------|----------------|----------------|
|----------------|-------------|----------------|----------------|
|----------------|-------------|----------------|----------------|
|-10----9----7---|--9----------|-10----9----7---|------------7---|
|----------------|-------------|----------------|--9---10--------|
|----------------|-------------|----------------|----------------|
|
|  Q    Q    Q      H.            Q    Q    Q      Q    Q    Q
|----------------|-------------|----------------|----------------|
|-13---12---10---|-12----------|-13---12---10---|-----------10---|
|----------------|-------------|----------------|-11---12--------|
|----------------|-------------|----------------|----------------|
|----------------|-------------|----------------|----------------|
|----------------|-------------|----------------|----------------|


   Q.   E  E  E      Q.   E E E   Q.    E E E   E E E E E E
|--0----0--0--0----|-0----0-0-0-|-0-----0-0-0-|-0--------------|
|--0----0--0--0----|-0----0-0-0-|-0-----0-0-0-|-0--------------|
|--0----0--0--0----|-0----0-0-0-|-0-----0-0-0-|-0-2-2-2-2-2----|
|--2----2--2--2----|-2----2-2-2-|-2-----2-2-2-|-2-2-2-2-2-2----|
|--2----2--2--2----|-2----2-2-2-|-2-----2-2-2-|-2-0-0-0-0-0----|
|--0----0--0--0----|-0----0-0-0-|-0-----0-0-0-|-0--------------|
|
|          |--3--|
|  H       E  E  E   H.           Q   Q   Q     Q   Q   Q
|------------------|------------|-------------|----------------|
|------------------|------------|-------------|----------------|
|------------------|------------|-------------|----------------|
|------------------|------------|-------------|----------------|
|--9-------9-10--9-|-7----------|-------------|----------------|
|------------------|------------|-------------|----------------|
|
|          |--3--|
|  H       E  E  E   H.           Q   Q   Q     Q   Q   Q
|------------------|------------|-------------|----------------|
|------------------|------------|-------------|----------------|
|-11------11-12-11-|-9----------|-------------|----------------|
|------------------|------------|-------------|----------------|
|------------------|------------|-------------|----------------|
|------------------|------------|-------------|----------------|


   Q.    E E E    Q.   E E E    Q.    E E E   E E  E E E E
|--------------|-------------|--------------|--------------|
|--1-----1-1-1-|--1----1-1-1-|--0-----0-0-0-|-0-3--3-3-3-3-|
|--0-----0-0-0-|--0----0-0-0-|--0-----0-0-0-|-0-0--0-0-0-0-|
|--2-----2-2-2-|--2----2-2-2-|--2-----2-2-2-|-2-2--2-2-2-2-|
|--3-----3-3-3-|--3----3-3-3-|--3-----3-3-3-|-3-3--3-3-3-3-|
|--------------|-------------|--------------|--------------|
|
|  Q   Q   Q      H.            Q   Q   Q     Q    Q   Q
|--------------|-------------|--------------|--------------|
|--------------|-------------|--------------|--------------|
|--------------|-------------|--------------|--------------|
|-10---9---7---|-10----------|-10---9---7---|----------7---|
|--------------|-------------|--------------|-9---10-------|
|--------------|-------------|--------------|--------------|
|
|  Q   Q   Q      H.            Q   Q   Q     Q    Q   Q
|--------------|-------------|--------------|--------------|
|-10---8---7---|--8----------|-10---8---7---|----------7---|
|--------------|-------------|--------------|-7----9-------|
|--------------|-------------|--------------|--------------|
|--------------|-------------|--------------|--------------|
|--------------|-------------|--------------|--------------|


  Q.   E E E   Q.    E E E   Q.    E E E   E E E E E E
|-0----0-0-0-|-0-----0-0-0-|-0-----0-0-0-|-0--------------|
|-0----0-0-0-|-0-----0-0-0-|-0-----0-0-0-|-0--------------|
|-0----0-0-0-|-0-----0-0-0-|-0-----0-0-0-|-0-2-2-2-2-2----|
|-2----2-2-2-|-2-----2-2-2-|-2-----2-2-2-|-2-2-2-2-2-2----|
|-2----2-2-2-|-2-----2-2-2-|-2-----2-2-2-|-2-0-0-0-0-0----|
|-0----0-0-0-|-0-----0-0-0-|-0-----0-0-0-|-0--------------|
|
| H.           Q   Q   Q     Q   Q   Q     Q   Q   Q
|------------|-------------|-------------|----------------|
|------------|-------------|-------------|----------------|
|------------|-------------|-------------|----------------|
|-9----------|-------------|-------------|----------------|
|------------|-------------|-------------|----------------|
|------------|-------------|-------------|----------------|
|
| H.           Q   Q   Q     Q   Q   Q     Q   Q   Q
|------------|-------------|-------------|----------------|
|-8----------|-------------|-------------|----------------|
|------------|-------------|-------------|----------------|
|------------|-------------|-------------|----------------|
|------------|-------------|-------------|----------------|
|------------|-------------|-------------|----------------|


  Q.    E E E   Q.     E E E   Q.    E E E   E E E E E E
|-------------|--------------|-------------|-------------|
|-1-----1-1-1-|-1------1-1-1-|-0-----0-0-0-|-0-3-3-3-3-3-|
|-0-----0-0-0-|-0------0-0-0-|-0-----0-0-0-|-0-0-0-0-0-0-|
|-2-----2-2-2-|-2------2-2-2-|-2-----2-2-2-|-2-2-2-2-2-2-|
|-3-----3-3-3-|-3------3-3-3-|-3-----3-3-3-|-3-3-3-3-3-3-|
|-------------|--------------|-------------|-------------|
|
| Q   Q   Q     E  E E E E E   Q   Q   Q     Q   Q   Q
|-------------|------------0-|-------------|-------------|
|-------------|----------0---|-------------|-------------|
|-------------|--------0-----|-------------|-2---0-------|
|-------------|------2-------|-2---0-------|---------4---|
|-3---2---0---|-2--3---------|---------3---|-------------|
|-------------|--------------|-------------|-------------|


  Q.   E E E   Q.   E E E   Q.    E E E   E  E E E E E
|-0----0-0-0-|-0----0-0-0-|-0-----0-0-0-|-0---------------|
|-0----0-0-0-|-0----0-0-0-|-0-----0-0-0-|-0---------------|
|-0----0-0-0-|-0----0-0-0-|-0-----0-0-0-|-0--2-2-2-2-2----|
|-2----2-2-2-|-2----2-2-2-|-2-----2-2-2-|-2--2-2-2-2-2----|
|-2----2-2-2-|-2----2-2-2-|-2-----2-2-2-|-2--0-0-0-0-0----|
|-0----0-0-0-|-0----0-0-0-|-0-----0-0-0-|-0---------------|
|
| H.           H.           Q   Q   Q     H.
|-0----------|-2----------|-3---3---2---|-0---------------|
|-0----------|-0----------|-0---0---0---|-0---------------|
|-0----------|-0----------|-0---0---0---|-0---------------|
|-2----------|-2----------|-2---2---2---|-2---------------|
|------------|------------|-------------|-----------------|
|------------|------------|-------------|-----------------|


  Q.    E E E   Q.     E E E    Q.       E  E E    E  E E  E  E  E
|-------------|--------------|------------------|------------------|
|-1-----1-1-1-|-1------1-1-1-|--0--------0--0-0-|--0--3-3--3--3--3-|
|-0-----0-0-0-|-0------0-0-0-|--0--------0--0-0-|--0--0-0--0--0--0-|
|-2-----2-2-2-|-2------2-2-2-|--2--------2--2-2-|--2--2-2--2--2--2-|
|-3-----3-3-3-|-3------3-3-3-|--3--------3--3-3-|--3--3-3--3--3--3-|
|-------------|--------------|------------------|------------------|
|
| Q   Q   Q     E  E E E E E    E   E E  E  Q      E  E E  E  E  E
|-------------|------------0-|------------------|------------------|
|-------------|----------0---|------------------|---------------10-|
|-------------|--------0-----|-12--11-9-11-12---|-12-11-9-11-12----|
|-------------|------2-------|------------------|------------------|
|-3---2---0---|-2--3---------|------------------|------------------|
|-------------|--------------|------------------|------------------|


   Q.   E  E E    Q.   E  E E   Q.     E  E E   E  E E E E E
|--0----0--0-0-|--0----0--0-0-|-0------0--0-0-|-0---------------|
|--0----0--0-0-|--0----0--0-0-|-0------0--0-0-|-0---------------|
|--0----0--0-0-|--0----0--0-0-|-0------0--0-0-|-0--2-2-2-2-2----|
|--2----2--2-2-|--2----2--2-2-|-2------2--2-2-|-2--2-2-2-2-2----|
|--2----2--2-2-|--2----2--2-2-|-2------2--2-2-|-2--0-0-0-0-0----|
|--0----0--0-0-|--0----0--0-0-|-0------0--0-0-|-0---------------|
|
|  H       Q      H       Q     Q    Q    Q     H.
|---------12---|---------12---|----------10---|-0---------------|
|-12-----------|-10-----------|---------------|-0---------------|
|--------------|--------------|-9---11--------|-----------------|
|--------------|--------------|---------------|-----------------|
|--------------|--------------|---------------|-----------------|
|--------------|--------------|---------------|-----------------|


  Q.    E E E   Q.     E E E   Q.    E E E   E E E E E E
|-------------|--------------|-------------|-------------|
|-1-----1-1-1-|-1------1-1-1-|-0-----0-0-0-|-0-3-3-3-3-3-|
|-0-----0-0-0-|-0------0-0-0-|-0-----0-0-0-|-0-0-0-0-0-0-|
|-2-----2-2-2-|-2------2-2-2-|-2-----2-2-2-|-2-2-2-2-2-2-|
|-3-----3-3-3-|-3------3-3-3-|-3-----3-3-3-|-3-3-3-3-3-3-|
|-------------|--------------|-------------|-------------|
|
| Q   Q   Q     E  E E E E E   Q   Q   Q     Q   Q   Q
|-------------|------------0-|-------------|-------------|
|-------------|----------0---|-------------|-------------|
|-------------|--------0-----|-------------|-2---0-------|
|-------------|------2-------|-2---0-------|---------4---|
|-3---2---0---|-2--3---------|---------3---|-------------|
|-------------|--------------|-------------|-------------|


  Q.   E E E   Q.   E E E   Q.    E E E   E  E E E E E
|-0----0-0-0-|-0----0-0-0-|-0-----0-0-0-|-0---------------|
|-0----0-0-0-|-0----0-0-0-|-0-----0-0-0-|-0---------------|
|-0----0-0-0-|-0----0-0-0-|-0-----0-0-0-|-0--2-2-2-2-2----|
|-2----2-2-2-|-2----2-2-2-|-2-----2-2-2-|-2--2-2-2-2-2----|
|-2----2-2-2-|-2----2-2-2-|-2-----2-2-2-|-2--0-0-0-0-0----|
|-0----0-0-0-|-0----0-0-0-|-0-----0-0-0-|-0---------------|
|
| H.           H.           Q   Q   Q     H.
|-0----------|-2----------|-3---3---2---|-0---------------|
|-0----------|-0----------|-0---0---0---|-0---------------|
|-0----------|-0----------|-0---0---0---|-0---------------|
|-2----------|-2----------|-2---2---2---|-2---------------|
|------------|------------|-------------|-----------------|
|------------|------------|-------------|-----------------|


  Q.    E E E   Q.     E E E    Q.       E  E E    E  E E  E  E  E
|-------------|--------------|------------------|------------------|
|-1-----1-1-1-|-1------1-1-1-|--0--------0--0-0-|--0--3-3--3--3--3-|
|-0-----0-0-0-|-0------0-0-0-|--0--------0--0-0-|--0--0-0--0--0--0-|
|-2-----2-2-2-|-2------2-2-2-|--2--------2--2-2-|--2--2-2--2--2--2-|
|-3-----3-3-3-|-3------3-3-3-|--3--------3--3-3-|--3--3-3--3--3--3-|
|-------------|--------------|------------------|------------------|
|
| Q   Q   Q     E  E E E E E    E   E E  E  Q      E  E E  E  E  E
|-------------|------------0-|------------------|------------------|
|-------------|----------0---|------------------|---------------10-|
|-------------|--------0-----|-12--11-9-11-12---|-12-11-9-11-12----|
|-------------|------2-------|------------------|------------------|
|-3---2---0---|-2--3---------|------------------|------------------|
|-------------|--------------|------------------|------------------|


   Q.   E  E E    Q.   E  E E   Q.     E  E E   E  E E E E E
|--0----0--0-0-|--0----0--0-0-|-0------0--0-0-|-0---------------|
|--0----0--0-0-|--0----0--0-0-|-0------0--0-0-|-0---------------|
|--0----0--0-0-|--0----0--0-0-|-0------0--0-0-|-0--2-2-2-2-2----|
|--2----2--2-2-|--2----2--2-2-|-2------2--2-2-|-2--2-2-2-2-2----|
|--2----2--2-2-|--2----2--2-2-|-2------2--2-2-|-2--0-0-0-0-0----|
|--0----0--0-0-|--0----0--0-0-|-0------0--0-0-|-0---------------|
|
|  H       Q      H       Q     Q    Q    Q     H.
|---------12---|---------12---|----------10---|-0---------------|
|-12-----------|-10-----------|---------------|-0---------------|
|--------------|--------------|-9---11--------|-----------------|
|--------------|--------------|---------------|-----------------|
|--------------|--------------|---------------|-----------------|
|--------------|--------------|---------------|-----------------|



Distortion comes in:
    Gtrs IV, V
    Q  E E E E   Q  Q  Q    Q  E E E E   Q  Q  Q
||-------------|----------|------------|----------|
||o------------|----------|------------|----------|
||-------------|----------|------------|----------|
||--9----------|-9--9--7--|-9----------|-9--9--7--|
||o-7----------|-7--7--5--|-7----------|-7--7--5--|
||--7--0-0-0-0-|-7--7--5--|-7--0-0-0-0-|-7--7--5--|


  Q  E E E E   Q  Q  Q    Q  E E E E   E E E E Q
|------------|----------|------------|---------------||
|------------|----------|------------|--------------o||
|------------|----------|------------|---------------||
|-5----------|-5--5--4--|-5----------|---------------||
|-3----------|-3--3--2--|-3----------|-----9-9-9----o||
|-3--0-0-0-0-|-3--3--2--|-3--0-0-0-0-|-0-0-----------||


    Q  E E E E   Q  Q  Q    Q  E E E E   Q  Q  Q
||-------------|----------|------------|----------|
||o------------|----------|------------|----------|
||-------------|----------|------------|----------|
||--9----------|-9--9--7--|-9----------|-9--9--7--|
||o-7----------|-7--7--5--|-7----------|-7--7--5--|
||--7--0-0-0-0-|-7--7--5--|-7--0-0-0-0-|-7--7--5--|


  Q  E E E E   Q  Q  Q    Q  E E E E   E E E E Q
|------------|----------|------------|---------------||
|------------|----------|------------|--------------o||
|------------|----------|------------|---------------||
|-5----------|-5--5--4--|-5----------|---------------||
|-3----------|-3--3--2--|-3----------|-----9-9-9----o||
|-3--0-0-0-0-|-3--3--2--|-3--0-0-0-0-|-0-0-----------||


    E E E E E E   E E E E E E    E E E E E E    E E E E E E
||--------------|-------------|--------------|--------------|
||o-------------|-------------|--------------|--------------|
||--------------|-------------|--------------|--------------|
||--9---9---9---|-7---7---7---|-10---9---7---|-10---9---7---|
||o---7---7---7-|---7---7---7-|----7---7---7-|----7---7---7-|
||--------------|-------------|--------------|--------------|


  E E E E E E   E E E E E E   E E E E E E   E E E E E E
|-------------|-------------|-------------|----------------||
|-------------|-------------|-------------|---------------o||
|-------------|-------------|-------------|----------------||
|-5---5---5---|-4---4---4---|-7---7---7---|-5---5---5------||
|---3---3---3-|---3---3---3-|---3---3---3-|---3---3---3---o||
|-------------|-------------|-------------|----------------||


    Gtr IV
    E E E E E E    E E  E E  E E    E E E E E E    E E E E E E
||--------------|----------------|--------------|--------------|
||o-------------|----------------|--------------|--------------|
||--------------|----------------|--------------|--------------|
||--9---9---9---|--7----7----7---|-10---9---7---|-10---9---7---|
||o---7---7---7-|----7----7----7-|----7---7---7-|----7---7---7-|
||--------------|----------------|--------------|--------------|
|
|   Gtr V
|   E E E E E E    E E  E E  E E    E E E E E E    E E E E E E
||--------------|----------------|--------------|--------------|
||o-------------|----------------|--------------|--------------|
||--9---9---9---|-11---11---11---|--9---7-------|--9---7-------|
||--------------|----------------|----------10--|----------10--|
||o---7---7---7-|----7----7----7-|----7---7---7-|----7---7---7-|
||--------------|----------------|--------------|--------------|


  E E E E E E   E E E E E E   E E E E E E   E E E E E E
|-------------|-------------|-------------|----------------||
|-------------|-------------|-------------|---------------o||
|-------------|-------------|-------------|----------------||
|-5---5---5---|-4---4---4---|-7---7---7---|-5---5---5------||
|---3---3---3-|---3---3---3-|---3---3---3-|---3---3---3---o||
|-------------|-------------|-------------|----------------||
|
| E E E E E E   E E E E E E   E E E E E E   E E E E E E
|-------------|-------------|-------------|----------------||
|-------------|-------------|-------------|---------------o||
|-4---4---4---|-2---2---2---|-5---5---5---|-4---4---4------||
|-------------|-------------|-------------|----------------||
|---3---3---3-|---3---3---3-|---3---3---3-|---3---3---3---o||
|-------------|-------------|-------------|----------------||



Solo:
  Q  E E  E E    Q   Q  Q      Q   E E  E E     Q  Q   Q
|-------------|------------|----------------|-------------|
|-------------|------------|----------------|-------------|
|-------------|------------|----------------|-------------|
|-9-----------|--9---9--7--|---9------------|---9--9---7--|
|-7-----------|--7---7--5--|---7------------|---7--7---5--|
|-7--0-0--0-0-|--7---7--5--|---7---0-0--0-0-|---7--7---5--|
|
| Q  Q    Q      H.            Q   Q    Q       H      Q
|-------------|------------|----------------|-------------|
|-------------|------------|----------------|-/15-----13--|
|----9---11---|-12---------|-(12)--9---11---|-------------|
|-------------|------------|----------------|-------------|
|-------------|------------|----------------|-------------|
|-------------|------------|----------------|-------------|


   Q  E E   E   E    Q  Q    Q       Q  E E  E   E   E  E E E Q
|-----------------|----------------|---------------|---------------|
|-----------------|----------------|---------------|---------------|
|-----------------|----------------|---------------|---------------|
|--5--------------|--5--5----4-----|-5-------------|---------------|
|--3--------------|--3--3----2-----|-3-------------|------9-9-9----|
|--3--0-0---0---0-|--3--3----2-----|-3--0-0--0---0-|-0--0----------|
|
|  H       +E   E    H      +E   E   H      +E   E   H.
|-----------------|----------------|---------------|---------------|
|-12------(12)-13-|-10-----(10)-12-|-8------(8)-10-|-7-------------|
|-----------------|----------------|---------------|---------------|
|-----------------|----------------|---------------|---------------|
|-----------------|----------------|---------------|---------------|
|-----------------|----------------|---------------|---------------|


  Q     E  E  E  E    Q     Q     Q       Q     E  E  E  E    Q   Q  Q
|------------------|-------------------|-------------------|------------|
|------------------|-------------------|-------------------|------------|
|------------------|-------------------|-------------------|------------|
|-9----------------|--9-----9-----7----|--9----------------|--9---9--7--|
|-7----------------|--7-----7-----5----|--7----------------|--7---7--5--|
|-7-----0--0--0--0-|--7-----7-----5----|--7-----0--0--0--0-|--7---7--5--|
|
| E  E  E  E  E  E    E  E  E  E  E  E    E  E  E  E  E  E    H.
|------------10-14-|-17-14-------14-17-|-19-22-19----------|------------|
|---------10-------|-------15----------|----------20-17-12-|-17---------|
|-9-11-12----------|----------14-------|-------------------|------------|
|------------------|-------------------|-------------------|------------|
|------------------|-------------------|-------------------|------------|
|------------------|-------------------|-------------------|------------|


   Q  E E  E E    Q  Q   Q       Q   E E  E E    E  E E E Q
|--------------|--------------|---------------|----------------|
|--------------|--------------|---------------|----------------|
|--------------|--------------|---------------|----------------|
|--5-----------|--5--5---4----|--5------------|----------------|
|--3-----------|--3--3---2----|--3------------|-------9-9-9----|
|--3--0-0--0-0-|--3--3---2----|--3---0-0--0-0-|--0--0----------|
|
|  H       Q      H      E  E    Q   Q    Q      H.
|-17------19---|-15-----17-17-|-17--17---19---|-15-------------|
|-19------20---|-17-----19-19-|-19--19---20---|-17-------------|
|--------------|--------------|---------------|----------------|
|--------------|--------------|---------------|----------------|
|--------------|--------------|---------------|----------------|
|--------------|--------------|---------------|----------------|


   Q     E E E E    Q     Q  Q     Q     E E E E    Q     Q  Q
|----------------|--------------|----------------|--------------|
|----------------|--------------|----------------|--------------|
|----------------|--------------|----------------|--------------|
|--9-------------|--9-----9--7--|--9-------------|--9-----9--7--|
|--7-------------|--7-----7--5--|--7-------------|--7-----7--5--|
|--7-----0-0-0-0-|--7-----7--5--|--7-----0-0-0-0-|--7-----7--5--|
|
|  H.               H.             H.               H.
|-12-------------|-14-----------|-17-------------|-15-----------|
|-15b17----------|-17b19--------|-20b22----------|-18b20--------|
|----------------|--------------|----------------|--------------|
|----------------|--------------|----------------|--------------|
|----------------|--------------|----------------|--------------|
|----------------|--------------|----------------|--------------|


   Q     E E E E    Q     Q  Q     Q     E E E E    E    E E E Q
|----------------|--------------|----------------|------------------|
|----------------|--------------|----------------|------------------|
|----------------|--------------|----------------|------------------|
|--5-------------|--5-----5--4--|--5-------------|------------------|
|--3-------------|--3-----3--2--|--3-------------|---------9-9-9----|
|--3-----0-0-0-0-|--3-----3--2--|--3-----0-0-0-0-|--0----0----------|
|
|  H.               H.             H.               H.
|--8-------------|-10-----------|-14-------------|-12---------------|
|-11b13----------|-13b15--------|-17b19----------|-15b17------------|
|----------------|--------------|----------------|------------------|
|----------------|--------------|----------------|------------------|
|----------------|--------------|----------------|------------------|
|----------------|--------------|----------------|------------------|


   Q     E E E E    Q     Q  Q     Q     E E E E    Q     Q  Q
|----------------|--------------|----------------|--------------|
|----------------|--------------|----------------|--------------|
|----------------|--------------|----------------|--------------|
|--9-------------|--9-----9--7--|--9-------------|--9-----9--7--|
|--7-------------|--7-----7--5--|--7-------------|--7-----7--5--|
|--7-----0-0-0-0-|--7-----7--5--|--7-----0-0-0-0-|--7-----7--5--|
|
|  H.               H.             H.               H.
|-12-------------|-14-----------|-17-------------|-15-----------|
|-15b17----------|-17b19--------|-20b22----------|-18b20--------|
|----------------|--------------|----------------|--------------|
|----------------|--------------|----------------|--------------|
|----------------|--------------|----------------|--------------|
|----------------|--------------|----------------|--------------|
|
| Gtr VI
|  H.               H.             H.               H.
|----------------|--------------|----------------|--------------|
|--8-------------|-10-----------|-13-------------|-12-----------|
|-10b12----------|-12b14--------|-15b17----------|-14b16--------|
|----------------|--------------|----------------|--------------|
|----------------|--------------|----------------|--------------|
|----------------|--------------|----------------|--------------|


   Q     E E E E    Q     Q  Q     Q     E E E E    E    E E E E E
|----------------|--------------|----------------|--------------------|
|----------------|--------------|----------------|--------------------|
|----------------|--------------|----------------|--------------------|
|--5-------------|--5-----5--4--|--5-------------|--------------------|
|--3-------------|--3-----3--2--|--3-------------|---------------2----|
|--3-----0-0-0-0-|--3-----3--2--|--3-----0-0-0-0-|--0----0-0-2-3------|
|
|  H.               H.             H.               H.
|--8-------------|-10-----------|-14-------------|-12-----------------|
|-11b13----------|-13b15--------|-17b19----------|-15b17--------------|
|----------------|--------------|----------------|--------------------|
|----------------|--------------|----------------|--------------------|
|----------------|--------------|----------------|--------------------|
|----------------|--------------|----------------|--------------------|
|
|  H.               H.             H.               H.
|----------------|--------------|----------------|--------------------|
|--5-------------|--7-----------|-10-------------|--8-----------------|
|--7b9-----------|--9b11--------|-12b14----------|-10b12--------------|
|----------------|--------------|----------------|--------------------|
|----------------|--------------|----------------|--------------------|
|----------------|--------------|----------------|--------------------|


                   >
   W.              W.
|------------------------|
|------------------------|
|--5--------------(5)----|
|--5---------------5-----|
|--3---------------3-----|
|------------------------|
|
|                  >
|  W.             +W.
|-12-------------(12)----|
|------------------------|
|------------------------|
|------------------------|
|------------------------|
|------------------------|
|
|                  >
|  W.             +W.
|------------------------|
|--8--------------(8)----|
|------------------------|
|------------------------|
|------------------------|
|------------------------|


  Gtr I
  Q.   E E E   Q.   E E E   Q.   E E E   E E E E E E
|-0----0-0-0-|-0----0-0-0-|-0----0-0-0-|-0--------------|
|-0----0-0-0-|-0----0-0-0-|-0----0-0-0-|-0--------------|
|-0----0-0-0-|-0----0-0-0-|-0----0-0-0-|-0-2-2-2-2-2----|
|-2----2-2-2-|-2----2-2-2-|-2----2-2-2-|-2-2-2-2-2-2----|
|-2----2-2-2-|-2----2-2-2-|-2----2-2-2-|-2-0-0-0-0-0----|
|-0----0-0-0-|-0----0-0-0-|-0----0-0-0-|-0--------------|


  Q.   E E E   Q.   E E E   Q.   E E E   E E E E E E
|------------|------------|------------|-------------|
|-1----1-1-1-|-1----1-1-1-|-0----0-0-0-|-0-3-3-3-3-3-|
|-0----0-0-0-|-0----0-0-0-|-0----0-0-0-|-0-0-0-0-0-0-|
|-2----2-2-2-|-2----2-2-2-|-2----2-2-2-|-2-2-2-2-2-2-|
|-3----3-3-3-|-3----3-3-3-|-3----3-3-3-|-3-3-3-3-3-3-|
|------------|------------|------------|-------------|


  Q.   E E E   Q.   E E E   Q.   E E E   E E E E E E
|-0----0-0-0-|-0----0-0-0-|-0----0-0-0-|-0--------------|
|-0----0-0-0-|-0----0-0-0-|-0----0-0-0-|-0--------------|
|-0----0-0-0-|-0----0-0-0-|-0----0-0-0-|-0-2-2-2-2-2----|
|-2----2-2-2-|-2----2-2-2-|-2----2-2-2-|-2-2-2-2-2-2----|
|-2----2-2-2-|-2----2-2-2-|-2----2-2-2-|-2-0-0-0-0-0----|
|-0----0-0-0-|-0----0-0-0-|-0----0-0-0-|-0--------------|


   Q.    E E E   Q.   E E E    Q.    E E E   E E  E E E E
|--------------|------------|--------------|--------------|
|--1-----1-1-1-|-1----1-1-1-|--0-----0-0-0-|-0-3--3-3-3-3-|
|--0-----0-0-0-|-0----0-0-0-|--0-----0-0-0-|-0-0--0-0-0-0-|
|--2-----2-2-2-|-2----2-2-2-|--2-----2-2-2-|-2-2--2-2-2-2-|
|--3-----3-3-3-|-3----3-3-3-|--3-----3-3-3-|-3-3--3-3-3-3-|
|--------------|------------|--------------|--------------|
|
| Gtr II
|  Q   Q   Q     H.            Q   Q   Q     Q    Q   Q
|--------------|------------|--------------|--------------|
|--------------|------------|--------------|--------------|
|--------------|------------|--------------|--------------|
|-10---9---7---|-9----------|-10---9---7---|----------7---|
|--------------|------------|--------------|-9---10-------|
|--------------|------------|--------------|--------------|


  Q.   E E  E     Q.   E E E   Q.    E E E   E E E E E E
|-0----0-0--0---|-0----0-0-0-|-0-----0-0-0-|-0--------------|
|-0----0-0--0---|-0----0-0-0-|-0-----0-0-0-|-0--------------|
|-0----0-0--0---|-0----0-0-0-|-0-----0-0-0-|-0-2-2-2-2-2----|
|-2----2-2--2---|-2----2-2-2-|-2-----2-2-2-|-2-2-2-2-2-2----|
|-2----2-2--2---|-2----2-2-2-|-2-----2-2-2-|-2-0-0-0-0-0----|
|-0----0-0--0---|-0----0-0-0-|-0-----0-0-0-|-0--------------|
|
|        |-3--|
| H      E  E E   H.           Q   Q   Q     Q   Q   Q
|---------------|------------|-------------|----------------|
|---------------|------------|-------------|----------------|
|---------------|------------|-------------|----------------|
|---------------|------------|-------------|----------------|
|-9------9-10-9-|-7----------|-------------|----------------|
|---------------|------------|-------------|----------------|


   Q.    E E E    Q.   E E E    Q.    E E E   E E  E E E E
|--------------|-------------|--------------|--------------|
|--1-----1-1-1-|--1----1-1-1-|--0-----0-0-0-|-0-3--3-3-3-3-|
|--0-----0-0-0-|--0----0-0-0-|--0-----0-0-0-|-0-0--0-0-0-0-|
|--2-----2-2-2-|--2----2-2-2-|--2-----2-2-2-|-2-2--2-2-2-2-|
|--3-----3-3-3-|--3----3-3-3-|--3-----3-3-3-|-3-3--3-3-3-3-|
|--------------|-------------|--------------|--------------|
|
|  Q   Q   Q      H.            Q   Q   Q     Q    Q   Q
|--------------|-------------|--------------|--------------|
|--------------|-------------|--------------|--------------|
|--------------|-------------|--------------|--------------|
|-10---9---7---|-10----------|-10---9---7---|----------7---|
|--------------|-------------|--------------|-9---10-------|
|--------------|-------------|--------------|--------------|
|
| Gtr III
|  Q   Q   Q      H.            Q   Q   Q     Q    Q   Q
|--------------|-------------|--------------|--------------|
|-10---8---7---|--8----------|-10---8---7---|----------7---|
|--------------|-------------|--------------|-7----9-------|
|--------------|-------------|--------------|--------------|
|--------------|-------------|--------------|--------------|
|--------------|-------------|--------------|--------------|


  Q.   E E E   Q.    E E E   Q.    E E E   E E E E E E
|-0----0-0-0-|-0-----0-0-0-|-0-----0-0-0-|-0--------------|
|-0----0-0-0-|-0-----0-0-0-|-0-----0-0-0-|-0--------------|
|-0----0-0-0-|-0-----0-0-0-|-0-----0-0-0-|-0-2-2-2-2-2----|
|-2----2-2-2-|-2-----2-2-2-|-2-----2-2-2-|-2-2-2-2-2-2----|
|-2----2-2-2-|-2-----2-2-2-|-2-----2-2-2-|-2-0-0-0-0-0----|
|-0----0-0-0-|-0-----0-0-0-|-0-----0-0-0-|-0--------------|
|
| H.           Q   Q   Q     Q   Q   Q     Q   Q   Q
|------------|-------------|-------------|----------------|
|------------|-------------|-------------|----------------|
|------------|-------------|-------------|----------------|
|-9----------|-------------|-------------|----------------|
|------------|-------------|-------------|----------------|
|------------|-------------|-------------|----------------|
|
| H.           Q   Q   Q     Q   Q   Q     Q   Q   Q
|------------|-------------|-------------|----------------|
|-8----------|-------------|-------------|----------------|
|------------|-------------|-------------|----------------|
|------------|-------------|-------------|----------------|
|------------|-------------|-------------|----------------|
|------------|-------------|-------------|----------------|


    Q.    E E E   Q.     E E E   Q.    E E E   E E E E E E
||--------------|--------------|-------------|-------------|
||o-1-----1-1-1-|-1------1-1-1-|-0-----0-0-0-|-0-3-3-3-3-3-|
||--0-----0-0-0-|-0------0-0-0-|-0-----0-0-0-|-0-0-0-0-0-0-|
||--2-----2-2-2-|-2------2-2-2-|-2-----2-2-2-|-2-2-2-2-2-2-|
||o-3-----3-3-3-|-3------3-3-3-|-3-----3-3-3-|-3-3-3-3-3-3-|
||--------------|--------------|-------------|-------------|
|
|   Q   Q   Q     E  E E E E E   Q   Q   Q     Q   Q   Q
||--------------|------------0-|-------------|-------------|
||o-------------|----------0---|-------------|-------------|
||--------------|--------0-----|-------------|-2---0-------|
||--------------|------2-------|-2---0-------|---------4---|
||o-3---2---0---|-2--3---------|---------3---|-------------|
||--------------|--------------|-------------|-------------|


  Q.   E E E   Q.   E E E   Q.    E E E   E  E E E E E
|-0----0-0-0-|-0----0-0-0-|-0-----0-0-0-|-0--------------|
|-0----0-0-0-|-0----0-0-0-|-0-----0-0-0-|-0--------------|
|-0----0-0-0-|-0----0-0-0-|-0-----0-0-0-|-0--2-2-2-2-2---|
|-2----2-2-2-|-2----2-2-2-|-2-----2-2-2-|-2--2-2-2-2-2---|
|-2----2-2-2-|-2----2-2-2-|-2-----2-2-2-|-2--0-0-0-0-0---|
|-0----0-0-0-|-0----0-0-0-|-0-----0-0-0-|-0--------------|
|
| H.           H.           Q   Q   Q     H.
|-0----------|-2----------|-3---3---2---|-0--------------|
|-0----------|-0----------|-0---0---0---|-0--------------|
|-0----------|-0----------|-0---0---0---|-0--------------|
|-2----------|-2----------|-2---2---2---|-2--------------|
|------------|------------|-------------|----------------|
|------------|------------|-------------|----------------|


  Q.    E E E   Q.     E E E    Q.       E  E E    E  E E  E  E  E
|-------------|--------------|------------------|------------------|
|-1-----1-1-1-|-1------1-1-1-|--0--------0--0-0-|--0--3-3--3--3--3-|
|-0-----0-0-0-|-0------0-0-0-|--0--------0--0-0-|--0--0-0--0--0--0-|
|-2-----2-2-2-|-2------2-2-2-|--2--------2--2-2-|--2--2-2--2--2--2-|
|-3-----3-3-3-|-3------3-3-3-|--3--------3--3-3-|--3--3-3--3--3--3-|
|-------------|--------------|------------------|------------------|
|
| Q   Q   Q     E  E E E E E    E   E E  E  Q      E  E E  E  E  E
|-------------|------------0-|------------------|------------------|
|-------------|----------0---|------------------|---------------10-|
|-------------|--------0-----|-12--11-9-11-12---|-12-11-9-11-12----|
|-------------|------2-------|------------------|------------------|
|-3---2---0---|-2--3---------|------------------|------------------|
|-------------|--------------|------------------|------------------|


   Q.   E  E E    Q.   E  E E   Q.     E  E E   E  E E E E E
|--0----0--0-0-|--0----0--0-0-|-0------0--0-0-|-0----------------||
|--0----0--0-0-|--0----0--0-0-|-0------0--0-0-|-0---------------o||
|--0----0--0-0-|--0----0--0-0-|-0------0--0-0-|-0--2-2-2-2-2-----||
|--2----2--2-2-|--2----2--2-2-|-2------2--2-2-|-2--2-2-2-2-2-----||
|--2----2--2-2-|--2----2--2-2-|-2------2--2-2-|-2--0-0-0-0-0----o||
|--0----0--0-0-|--0----0--0-0-|-0------0--0-0-|-0----------------||
|
|  H       Q      H       Q     Q    Q    Q     H.
|---------12---|---------12---|----------10---|-0----------------||
|-12-----------|-10-----------|---------------|-0---------------o||
|--------------|--------------|-9---11--------|------------------||
|--------------|--------------|---------------|------------------||
|--------------|--------------|---------------|-----------------o||
|--------------|--------------|---------------|------------------||




============================================================================
7-Passion
============================================================================

Gtr I (D G C F A D) - 'Left Channel'
Gtr II (D G C F A D) - 'Right Channel'
Gtr III (D G C F A D) - 'Other Guitar'
Gtr IV (D G C F A D) - 'Solo Guitar'
Gtr V (D G C F A D) - 'Harmony Guitar'

 Intro
  Q=98
  N.C.                              G5V
 4/4
  Gtr I
  S S S S S S S S S S S S S S S S   S S S S S S S S S S S S S S S S
|---------------------------------|----------------------------------|
|---------------------------------|-----------5---------------5------|
|-----4-5-4-----------4-5-4-------|-----7-5-7---7-5-----7-5-7---7-5--|
|-2-5-------5-2-5-2-5-------5-2-5-|---5---------------5--------------|
|---------------------------------|-3---------------3----------------|
|---------------------------------|----------------------------------|
|
| Gtr II
| W                                 W
|---------------------------------|----------------------------------|
|---------------------------------|----------------------------------|
|---------------------------------|-7--------------------------------|
|---------------------------------|-5--------------------------------|
|---------------------------------|----------------------------------|
|---------------------------------|----------------------------------|


  E5                                G5V
  S S S S S S S S S S S S S S S S   S  S S S S S S S S S S S  S  S S S
|---------------------------------|------------------------------------|
|---------------------------------|------------5-----------------5-----|
|-----4-5-4-----------4-5-4-------|------7-5-7---7-5-----7-5--7----7-5-|
|-2-5-------5-2-5-2-5-------5-2-5-|----5---------------5---------------|
|---------------------------------|-3----------------3-----------------|
|---------------------------------|------------------------------------|
|
| PM
| E   E   H               Q         H.                        Q
|---------------------------------|------------------------------------|
|---------------------------------|------------------------------------|
|---------------------------------|-7----------------------------------|
|---------------------------------|-5----------------------------------|
|-2-------------------------------|------------------------------------|
|-0-------------------------------|--------------------------15\-------|


  E5           N.C.F#5    G5    N.C.D5    C5           N.C.G
  S  S S S S S S S S  S S S  S  S   S S   S  S S S S S S S S  S S S  S  S S S
|---------------------------------------|--------------------------------------|
|---------------------------------------|------------5------------------5------|
|------4-5-4------------4-5--4----------|------7-5-7---7-5------7-5--7----7-5--|
|-2--5-------5-2-5-2--5---------5---2-5-|----5----------------5----------------|
|---------------------------------------|-3----------------3-------------------|
|---------------------------------------|--------------------------------------|
|
|              PM|              PM                     PM|
| Q.           S S E.     S +S  S a E     Q.           S S E.     S +E    E
|---------------------------------------|---------------------------------3----|
|---------------------------------------|-------------------------3-(3)---3----|
|---------------------------------------|------------------4------4-(4)--------|
|---------------------------------5S7---|-5----------------5-------------------|
|-2----------------4------5-(5)---3S5---|-3------------------------------------|
|-0------------0-0-2------3-(3)-0-------|--------------0-0---------------------|


  E5/B         N.C.F#5    G5    N.C.D5    C5           N.C.
  S  S S S S S S S S  S S S  S  S   S S   S  S S S S S S S S S S S  S  S S S
|---------------------------------------|-------------------------------------||
|---------------------------------------|------------5-----------------5------||
|------4-5-4------------4-5--4----------|------7-5-7---7-5-----7-5--7----7-5--||
|-2--5-------5-2-5-2--5---------5---2-5-|----5---------------5----------------||
|---------------------------------------|-3----------------3------------------||
|---------------------------------------|-------------------------------------||
|
|              PM|              PM                     PM|     PM~~~~~~
| Q.           S S E.     S +S  S a E     Q.           S S S S S S +Q
|---------------------------------------|-------------------------------------||
|-5-------------------------------------|-------------------------------------||
|-4-------------------------------------|-------------------------------------||
|---------------------------------5S7---|-5----------------5p4---4-(4)--------||
|------------------4------5-(5)---3S5---|-3-----------------------------------||
|--------------0-0-2------3-(3)-0-------|--------------0-0-----0--------------||


   Pre-Verse
    E5                  G5V
    PM--------------|
    Q.   S S Q.   S S   S S S S S S S S S S S S S S S S
||--------------------|-----------------------------------||
||o-------------------|-----------5---------------5------o||
||--------------------|-----7-5-7---7-5-----7-5-7---7-5---||
||--------------------|---5---------------5---------------||
||o-2----2-2-2----2-2-|-3---------------3----------------o||
||--0----0-0-0----0-0-|-----------------------------------||
|
|   PM--------------|
|   Q.   S S Q.   S S   W
||--------------------|-----------------------------------||
||o-------------------|----------------------------------o||
||--------------------|-7---------------------------------||
||--------------------|-5---------------------------------||
||o-2----2-2-2----2-2-|----------------------------------o||
||--0----0-0-0----0-0-|-----------------------------------||


    E5                  N.C.
    PM--------------|
    Q.   S S Q.   S S   S S S S S S S S S S S S S S S S
||--------------------|-----------------------------------||
||o-------------------|-----------5---------------5------o||
||--------------------|-----7-5-7---7-5-----7-5-7---7-5---||
||--------------------|---5---------------5---------------||
||o-2----2-2-2----2-2-|-3---------------3----------------o||
||--0----0-0-0----0-0-|-----------------------------------||
|
|   PM--------------------|             PM|
|   Q.   S S Q.   S S   S S S S S S S S S S S S S S S S
||--------------------|-----------------------------------||
||o-------------------|----------------------------------o||
||--------------------|-----4---4-5-4-------4---4-5-4-----||
||--------------------|-2-5---5-------5-2-5---5-------5---||
||o-2----2-2-2----2-2-|----------------------------------o||
||--0----0-0-0----0-0-|-----------------------------------||


    E5                                  N.C.
    PM------------------------------|
    S S S S S S S S T T S S S S S S S   S S S S S S S S S S S S S S S S
||------------------------------------|----------------------------------||
||o-----------------------------------|-----------5---------------5-----o||
||------------------------------------|-----7-5-7---7-5-----7-5-7---7-5--||
||------------------------------------|---5---------------5--------------||
||o-2-2-2-2-2-2-2-2-2-2-2-2-2-2-2-2-2-|-3---------------3---------------o||
||--0-0-0-0-0-0-0-0-0-0-0-0-0-0-0-0-0-|----------------------------------||
|
|   PM------------------------------------|             PM|
|   S S S S S S S S T T S S S S S S S   S S S S S S S S S S S S S S S S
||------------------------------------|----------------------------------||
||o-----------------------------------|---------------------------------o||
||------------------------------------|-----4---4-5-4-------4---4-5-4----||
||------------------------------------|-2-5---5-------5-2-5---5-------5--||
||o-2-2-2-2-2-2-2-2-2-2-2-2-2-2-2-2-2-|---------------------------------o||
||--0-0-0-0-0-0-0-0-0-0-0-0-0-0-0-0-0-|----------------------------------||


   1st Verse
    N.C.                              N.C.
    Gtrs I, II
      PM|     PM----|       PM  PM      PM|     PM----|    PM  PM  PM
    S S S S S S S S S S S S S S S S   S S S S S S S S S  S S S S S S S
||----------------------------------|-----------------------------------|
||o---------------------------------|-----------------------------------|
||----------------------------------|-----------------------------------|
||----------------------------------|-----------------------------------|
||o---------5-----------8-7---3-----|---------5---------10---9---5---3--|
||--0-0-0-3---0-0-0-0-3-----0---0-3-|-0-0-0-3---0-0-0-0----0---0---0----|


  1.
  N.C.                              N.C.
  Gtr I
    PM|     PM----|       PM  PM      PM|     PM----|    PM  PM  PM
  S S S S S S S S S S S S S S S S   S S S S S S S S S  S S S S S S S
|---------------------------------|-----------------------------------||
|---------------------------------|----------------------------------o||
|---------------------------------|-----------------------------------||
|---------------------------------|-----------------------------------||
|---------5-----------8-7---3-----|---------5---------10---9---5---3-o||
|-0-0-0-3---0-0-0-0-3-----0---0-3-|-0-0-0-3---0-0-0-0----0---0---0----||
|
| Gtr II
|   PM|     PM----|       PM  PM      PM|     PM----|    PM  PM  PM
| S S S S S S S S S S S S S S S S   S S S S S S S S S  S S S S S S S
|---------------------------------|-----------------------------------||
|---------------------------------|----------------------------------o||
|---------------------------------|-----------------------------------||
|---------------------------------|--------------------9---7---4---2--||
|---------5-----------8-7---3-----|---------5------------------------o||
|-0-0-0-3---0-0-0-0-3-----0---0-3-|-0-0-0-3---0-0-0-0----0---0---0----||


  2.
  N.C.                              N.C.
  Gtr I
    PM|     PM----|       PM  PM      PM|     PM--|
  S S S S S S S S S S S S S S S S   S S S S S S S S H
|---------------------------------|--------------------------||
|---------------------------------|--------------------------||
|---------------------------------|--------------------------||
|---------------------------------|--------------------------||
|---------5-----------8-7---3-----|---------5-------x\-------||
|-0-0-0-3---0-0-0-0-3-----0---0-3-|-0-0-0-3---0-0-0-x\-------||
|
| Gtr II
|   PM|     PM----|       PM  PM      PM|     PM--|
| S S S S S S S S S S S S S S S S   S S S S S S S S Q    Q
|---------------------------------|--------------------------||
|---------------------------------|--------------------------||
|---------------------------------|-----------------x\-------||
|---------------------------------|--------------------------||
|---------5-----------8-7---3-----|---------5----------------||
|-0-0-0-3---0-0-0-0-3-----0---0-3-|-0-0-0-3---0-0-0-----12\--||


 D
  E5           N.C.F#5    G5    N.C.D5    C5           N.C.G
  S  S S S S S S S S  S S S  S  S   S S   S  S S S S S S S S  S S S  S  S S S
|---------------------------------------|--------------------------------------|
|---------------------------------------|------------5------------------5------|
|------4-5-4------------4-5--4----------|------7-5-7---7-5------7-5--7----7-5--|
|-2--5-------5-2-5-2--5---------5---2-5-|----5----------------5----------------|
|---------------------------------------|-3----------------3-------------------|
|---------------------------------------|--------------------------------------|
|
|              PM|              PM                     PM|
| Q.           S S E.     S +S  S a E     Q.           S S E.     S +E    E
|---------------------------------------|---------------------------------3----|
|---------------------------------------|-------------------------3-(3)---3----|
|---------------------------------------|------------------4------4-(4)--------|
|---------------------------------5S7---|-5----------------5-------------------|
|-2----------------4------5-(5)---3S5---|-3------------------------------------|
|-0------------0-0-2------3-(3)-0-------|--------------0-0---------------------|


  E5/B         N.C.F#5    G5    N.C.D5
  S  S S S S S S S S  S S S  S  S   S S
|---------------------------------------|
|---------------------------------------|
|------4-5-4------------4-5--4----------|
|-2--5-------5-2-5-2--5---------5---2-5-|
|---------------------------------------|
|---------------------------------------|
|
|              PM|              PM
| Q.           S S E.     S +S  S a E
|---------------------------------------|
|-5-------------------------------------|
|-4-------------------------------------|
|---------------------------------5S7---|
|------------------4------5-(5)---3S5---|
|--------------0-0-2------3-(3)-0-------|


  C5           N.C.G5V    F#5IV   D5open
  S  S S S S S S S S  S S S  S  S S S
|--------------------------------------||
|------------5------------------5------||
|------7-5-7---7-5------7-5--7----7-5--||
|----5----------------5----------------||
|-3----------------3-------------------||
|--------------------------------------||
|
|              PM|
| Q.           S S E.     S +E    E
|--------------------------------------||
|--------------------------------------||
|------------------7------6-(6)---2----||
|-5----------------5------4-(4)---0----||
|-3------------------------------------||
|--------------0-0---------------------||


 2nd Verse
  N.C.                              N.C.
  Gtr I
    PM|     PM----|       PM  PM      PM|     PM----|      PM    PM  PM
  S S S S S S S S S S S S S S S S   S S S S S S S S S   S  S  S  S S S S
|---------------------------------|--------------------------------------|
|---------------------------------|--------------------------------------|
|---------------------------------|--------------------------------------|
|---------------------------------|--------------------------------------|
|---------5-----------8-7---3-----|---------5---------[10]---[9]---5---3-|
|-0-0-0-3---0-0-0-0-3-----0---0-3-|-0-0-0-3---0-0-0-0------0-----0---0---|
|
| Gtr II
|   PM|     PM----|       PM  PM      PM|     PM----|      PM    PM  PM
| S S S S S S S S S S S S S S S S   S S S S S S S S S   S  S  S  S S S S
|---------------------------------|--------------------------------------|
|---------------------------------|--------------------------------------|
|---------------------------------|--------------------------------------|
|---------------------------------|--------------------------------------|
|---------5-----------8-7---3-----|---------5----------10-----9----5---3-|
|-0-0-0-3---0-0-0-0-3-----0---0-3-|-0-0-0-3---0-0-0-0------0-----0---0---|


  N.C.                              N.C.
    PM|     PM----|       PM  PM      PM|     PM----|      PM    PM ~~~~~~~
  S S S S S S S S S S S S S S S S   S S S S S S S S S   S  S  S  S  S  +E
|---------------------------------|-----------------------------------------|
|---------------------------------|-----------------------------------------|
|---------------------------------|-----------------------------------------|
|---------------------------------|-----------------------------------------|
|---------5-----------8-7---3-----|---------5---------[10]---[9]---[5]-(5)--|
|-0-0-0-3---0-0-0-0-3-----0---0-3-|-0-0-0-3---0-0-0-0------0-----0----------|
|
|   PM|     PM----|       PM  PM      PM|     PM----|      PM    PM ~~~~~~~
| S S S S S S S S S S S S S S S S   S S S S S S S S S   S  S  S  S  S  +E
|---------------------------------|-----------------------------------------|
|---------------------------------|-----------------------------------------|
|---------------------------------|-----------------------------------------|
|---------------------------------|---------------------9-----7----[9]-(9)--|
|---------5-----------8-7---3-----|---------5-------------------------------|
|-0-0-0-3---0-0-0-0-3-----0---0-3-|-0-0-0-3---0-0-0-0------0-----0----------|


  N.C.                              N.C.
    PM|     PM----|       PM  PM      PM|     PM----|      PM    PM    PM
  S S S S S S S S S S S S S S S S   S S S S S S S S S   S  S  S  S  S  S S
|---------------------------------|----------------------------------------|
|---------------------------------|----------------------------------------|
|---------------------------------|----------------------------------------|
|---------------------------------|----------------------------------------|
|---------5-----------8-7---3-----|---------5---------[10]---[9]---[5]---3-|
|-0-0-0-3---0-0-0-0-3-----0---0-3-|-0-0-0-3---0-0-0-0------0-----0-----0---|
|
|   PM|     PM----|       PM  PM      PM|     PM----|      PM    PM    PM
| S S S S S S S S S S S S S S S S   S S S S S S S S S   S  S  S  S  S  S S
|---------------------------------|----------------------------------------|
|---------------------------------|----------------------------------------|
|---------------------------------|----------------------------------------|
|---------------------------------|----------------------------------------|
|---------5-----------8-7---3-----|---------5----------10-----9-----5----3-|
|-0-0-0-3---0-0-0-0-3-----0---0-3-|-0-0-0-3---0-0-0-0------0-----0-----0---|


  N.C.                              N.C.
    PM|     PM----|       PM  PM      PM|     PM----|    PM  PM  PM
  S S S S S S S S S S S S S S S S   S S S S S S S S S  S S S S S S S
|---------------------------------|----------------------------------||
|---------------------------------|----------------------------------||
|---------------------------------|----------------------------------||
|---------------------------------|----------------------------------||
|---------5-----------8-7---3-----|---------5---------10---9---5---3-||
|-0-0-0-3---0-0-0-0-3-----0---0-3-|-0-0-0-3---0-0-0-0----0---0---0---||
|
|   PM|     PM----|       PM  PM      PM|     PM----|    PM  PM  PM
| S S S S S S S S S S S S S S S S   S S S S S S S S S  S S S S S S S
|---------------------------------|----------------------------------||
|---------------------------------|----------------------------------||
|---------------------------------|----------------------------------||
|---------------------------------|--------------------9---7---4---2-||
|---------5-----------8-7---3-----|---------5------------------------||
|-0-0-0-3---0-0-0-0-3-----0---0-3-|-0-0-0-3---0-0-0-0----0---0---0---||


   1st Chorus
    E5  N.C.    G5openN.C.  C5  A5      N.C.  A5N.C5      N.B5    N.C.
    Gtrs I, II
                      PM--|   PM        PM--|   PM        PM      PM--|
    E E S S +S  S +E  S S S S S S   +E  S S S S S S +S  S S S +S  S S S
||------2-------------------------|-------------------------------------|
||o-------5-(5)-3-(3)-------------|-------------------------------------|
||--------------0-(0)-------------|-------------------------------------|
||--------------------------5---2-|-(2)-------2---5-(5)-5---4-(4)-------|
||o-2-2---------------------3---0-|-(0)-0-0-0-0-0-3-(3)-3-0-2-(2)-2-2-2-|
||--0-0---------------0-0-0---0---|-------------------------------------|


  1.
  E5  N.C.    G5openN.C.  C5N.A5      N.C.  A5N.C.
                    PM--|   PM        PM--|   PM
  E E S S +S  S +E  S S S S S S   +E  S S S S S  S +S  S S S +S  S S S
|-----2-------------------------|---------------------------------------||
|-------5-(5)-3-(3)-------------|--------------------------------------o||
|-------------0-(0)-------------|---------------------------------------||
|-------------------------5---2-|-(2)-------2---/5-(5)-4---4-(4)--------||
|-2-2---------------------3---0-|-(0)-0-0-0-0-0----------7-------7-5h7-o||
|-0-0---------------0-0-0---0---|---------------------------------------||


  2.
  E5  N.C.    G5openN.C.  C5N.A5      N.C.  A5N.C.
  Gtr I
                    PM--|   PM        PM--|   PM
  e E S S +S  S +E  S S S S S S   +E  S S S S S  S +S  S S  S +S  S S +S
|-----2-------------------------|-----------------------------------------||
|-------5-(5)-3-(3)-------------|-----------------------------------------||
|-------------0-(0)-------------|-----------------------------------------||
|-------------------------5---2-|-(2)-------2---/5-(5)-4---/7-(7)-5-------||
|-2-2---------------------3---0-|-(0)-0-0-0-0-0----------7----------9-(9)-||
|-0-0---------------0-0-0---0---|-----------------------------------------||
|
| Gtr II
| e E S S +S  S +E  S S S S S S   +E  S S S S S  S +S  S S  S +S  S S +S
|-----2-------------------------|-----------------------------------------||
|-------5-(5)-3-(3)-------------|-----------------------------------------||
|-------------0-(0)-------------|---------------/4-(4)-2---/5-(5)-4-2-(2)-||
|-------------------------5---2-|-(2)-------2------------5----------------||
|-2-2---------------------3---0-|-(0)-0-0-0-0-0---------------------------||
|-0-0---------------0-0-0---0---|-----------------------------------------||


   Interlude
    E5
    Gtrs I, II
    PM--------------------------------------------------|
    e E E S S e E E S S   S S E E S S T T S S S T T S S S
||----------------------|-----------------------------------||
||o---------------------|----------------------------------o||
||----------------------|-----------------------------------||
||----------------------|-----------------------------------||
||o-2-----2-2-2-----2-2-|-2-2-----2-2-2-2-2-2-2-2-2-2-2-2--o||
||--0-----0-0-0-----0-0-|-0-0-----0-0-0-0-0-0-0-0-0-0-0-0---||


     PM----------------------------------------------
     e     E     E     S  S  e     E     E     S  S
||--------------------------------------------------|
||o-------------------------------------------------|
||--------------------------------------------------|
||--------------------------------------------------|
||o--2-----------------2--2--2-----------------2--2-|
||---0-----------------0--0--0-----------------0--0-|
|
|   Gtr III
|    S  S  S  S  S  S  S  S  S  S  S  S  S  S  S  S
||--------------------------------------------------|
||o----------------------------15-------------------|
||-----16----17----16----14----------17----16----16-|
||--14----14----14----14----14----14----14----14----|
||o-------------------------------------------------|
||--------------------------------------------------|


 --------------------------------------------------|
   S  S  E     E     S  S  T T  S  S  S  T T  S  S  S
|-------------------------------------------------------||
|------------------------------------------------------o||
|-------------------------------------------------------||
|-------------------------------------------------------||
|--2--2--------------2--2--2-2--2--2--2--2-2--2--2--2--o||
|--0--0--------------0--0--0-0--0--0--0--0-0--0--0--0---||
|
|  S  S  S  S  S  S  S  S  S    S  S  S  S    S  S  S
|------------------------------------12h14--------------||
|------------------------------12h13---------15--------o||
|----16----17----16----14S12--------------------14p12---||
|-14----14----14----14----------------------------------||
|------------------------------------------------------o||
|-------------------------------------------------------||


 H
  E5       N.C.B5IV               N.C.  C5         N.C.G5open        C5V
  Gtr I
   S S S S S S S  S S S S S  S  S S S     S  S S S S S S S  S  S S S  S S S S
|-------------------------------------|---------------------------------------|
|-------------------------------------|--------------5------------------5-----|
|------4-5-4------------4-5--4--------|--------7-5-7---7-5-------7-5--7---7-5-|
|--2-5-------5-2--5-2-5---------5-2-5-|------5-----------------5--------------|
|-------------------------------------|---3-----------------3-----------------|
|-------------------------------------|---------------------------------------|
|
| Gtr II
|          PM                     PM|              PM
|  Q       E   Q.           +E    S S     Q        E   E   +Q         Q
|-------------------------------------|---------------------------------------|
|--------------7------------(7)-------|----------------3---(3)-------/8-------|
|--------------4------------(4)-------|----------------0---(0)-------/5-------|
|-------------------------------------|---5-----------------------------------|
|--2----------------------------------|---3-----------------------------------|
|--0-------0----------------------0-0-|------------0--------------------------|
|
| Gtr III
|  ~~~~~~~~~~~~~~~~~~~~~~~~~~~~~~~~~~~~~~~~~~
|  W                                     +W
|-------------------------------------|---------------------------------------|
|-------------------------------------|---------------------------------------|
|-------------------------------------|---------------------------------------|
|-14----------------------------------|-(14)----------------------------------|
|-------------------------------------|---------------------------------------|
|-------------------------------------|---------------------------------------|


  E5               B5IV
    S  S S S  S  S S S  S  S S S   S  S  S S
|--------------------------------------------|
|--------------------------------------------|
|--------4-5--4--------------4-5---4---------|
|---2--5---------5-2-5--2--5----------5--2-5-|
|--------------------------------------------|
|--------------------------------------------|
|
|   Q        +E    E   +H
|--------------------------------------------|
|------------------7---(7)-------------------|
|------------------4---(4)-------------------|
|--------------------------------------------|
|---2--------(2)-----------------------------|
|---0--------(0)-----------------------------|
|
|   ~~~~
|  +H.                            +E     E
|--------------------------------------------|
|--------------------------------------------|
|--------------------------------------------|
|-(14)---------------------------(14)---14---|
|--------------------------------------------|
|--------------------------------------------|


  C5           N.C.D5
    S   S  S S S S S S  S  S S S S S S S
|----------------------------------------||
|----------------5-----------------5-----||
|----------7-5-7---7-5-------7-5-7---7-5-||
|-------5------------------5-------------||
|---3-------------------3----------------||
|----------------------------------------||
|
|              PM
|   Q          E   E   +H
|----------------------------------------||
|----------------------------------------||
|----------------------------------------||
|---5--------------7---(7)---------------||
|---3--------------5---(5)---------------||
|--------------0-------------------------||
|
|  +E      E   H                 Q
|----------------------------------------||
|----------------------------------------||
|----------------------------------------||
|-(14)\---10-----------------------------||
|----------------------------------------||
|----------------------------------------||


 I
  N.C.
  S S  S S  S S  S S  S  S S S S S  S  S
|----------------------------------------|
|----------------------------------------|
|------4-5--4--------------4-5-4---------|
|-2-5---------5--2-5--2--5-------5--2--5-|
|----------------------------------------|
|----------------------------------------|
|
| PM|    PM                PM|
| S S  S S  S S  S S +E    S S S S  S  S
|-------------------------------------10-|
|-------------8----------------7h8-10----|
|-----11---11---11-9-(9)-----7-----------|
|---9----9-----------------7-------------|
|-7--------------------------------------|
|----------------------------------------|


   S  S  S  S  S  S  S  S   S  S  S  S  S  S  S  S
|--------------------------------------------------|
|-----------------5------------------------5-------|
|--------7--5--7-----7--5---------7--5--7-----7--5-|
|-----5------------------------5-------------------|
|--3------------------------3----------------------|
|--------------------------------------------------|
|
|  PM|                            PM|
|  S  S  S  S  S  S  S  S  +E     S  S  S  S  S  S
|--------------------------------------------------|
|----------------12--------------------12h13-12----|
|-------14----14----14-12-(12)------------------14-|
|----12----12-----------------------14-------------|
|-10-----------------------------12----------------|
|--------------------------------------------------|


  N.C.
  S S  S S  S S  S S  S  S S S S S  S  S
|----------------------------------------|
|----------------------------------------|
|------4-5--4--------------4-5-4---------|
|-2-5---------5--2-5--2--5-------5--2--5-|
|----------------------------------------|
|----------------------------------------|
|
| PM|    PM        ~~~~~~  PM|
| S S  S S  S S  S S +E    S S S S  S  S
|-------------------------------------10-|
|-------------8----------------7h8-10----|
|-----11---11---11-9-(9)-----7-----------|
|---9----9-----------------7-------------|
|-7--------------------------------------|
|----------------------------------------|


   S  S  S  S  S  S  S  S   S  S  S  S  S  S  S  S
|--------------------------------------------------||
|-----------------5------------------------5-------||
|--------7--5--7-----7--5---------7--5--7-----7--5-||
|-----5------------------------5-------------------||
|--3------------------------3----------------------||
|--------------------------------------------------||
|
|  PM|                            PM|
|  S  S  S  S  S  S  S  S  +E     S  S  S  S  S  S
|--------------------------------------------------||
|----------------12--------------------12h13-12----||
|-------14----14----14-12-(12)------------------14-||
|----12----12-----------------------14-------------||
|-10-----------------------------12----------------||
|--------------------------------------------------||


 Guitar Solo
  E5    N.C.F#5         G5         D5
  Gtrs I, II
        PM|
   Q.   S S  E.          S +E    a E
|--------------------------------------|
|--------------------------------------|
|--------------------------------------|
|--------------------------------5S7---|
|--2---------4-----------5-(5)---3S5---|
|--0----0-0--2-----------3-(3)---------|
|
| Gtr IV
|  ~~~
|  H         T  T  S  S  S  S  S   S S
|--------------------------------------|
|-17-----------------------------------|
|-----------11h12p11---------------7h9-|
|--------------------14p12--9h12-------|
|--------------------------------------|
|--------------------------------------|


  C5                    N.C.B5  A5    N.C.
                        PM|
  Q.                    S S  E. S +E  S     +S
|-----------------------------------------------|
|-----------------------------------------------|
|-----------------------------------------------|
|-5--------------------------4--2-(2)-----------|
|-3--------------------------2--0-(0)-----------|
|-----------------------0-0-----------3b3.5-(3)-|
|
|        ~~~~~~~~~~~~     ~~~~~~
| S     +E.  +S     +S  S S +H
|-----------------------------------------------|
|-----------------------------------------------|
|-9b11==(9)r-(9)b11r(9)p7-----------------------|
|-------------------------9-(9)-----------------|
|-----------------------------------------------|
|-----------------------------------------------|


  E5                     N.C.      F#5             G5               D5
                         PM---|
  Q.                     S    S     E.             S    +E        a  E
|-------------------------------------------------------------------------------|
|-------------------------------------------------------------------------------|
|-------------------------------------------------------------------------------|
|-----------------------------------------------------------------5S=7----------|
|-2---------------------------------4--------------5----(5)-------3S=5----------|
|-0----------------------0----0-----2--------------3----(3)---------------------|
|
| |-----6------| |-------6-------|  |--------6--------|  |--3---|
| S  S  S S S  S S  S  S S  S    S  S   S  S  S  S    S  S   S  S    T  T  T  T
|-------------------------------------------------------------------------------|
|----------------------------------------------------------------------------15-|
|--------------------------------------------11-12---14-12--14-16---14-16-17----|
|------------------------9-10---12-10--12-14------------------------------------|
|---------7-9-10-9-10-12--------------------------------------------------------|
|-7--8-10-----------------------------------------------------------------------|


  C5                    N.C.   B5   C5     D5
                          PM-|
   Q.                     S  S   E. S  +E  E
|---------------------------------------------|
|---------------------------------------------|
|---------------------------------------------|
|--5-----------------------------4--5--(5)-7--|
|--3-----------------------------2--3--(3)-5--|
|-------------------------0--0----------------|
|
|                                ~~~~~~~~~~
|  E      +E    +E       +E     +Q     +Q
|---------------------------------------------|
|-15b17==(15)r-(15)b17==(15)r==(15)---(15)----|
|---------------------------------------------|
|---------------------------------------------|
|---------------------------------------------|
|---------------------------------------------|


  E5VII             E5       N.C.       F#5            G5              D5
                              PM---|
   e        E        E        S    S     E.            S    +E       a  E
|-------------------------------------------------------------------------------|
|-------------------------------------------------------------------------------|
|-------------------------------------------------------------------------------|
|--9-----------------------------------------------------------------5S=7-------|
|--7-----------------2-------------------4-------------5----(5)------3S=5-------|
|--------------------0--------0----0-----2-------------3----(3)-----------------|
|
|  |------6-------|  |-------6--------|  |-------6--------|  |-------6--------|
|  S  S  S  S  S  S  S  S  S  S  S    S  S  S  S  S  S    S  S  S  S    S  S  S
|-19p15----------15-17p14------------14-15p12------------12-14p10------------10-|
|-------17----17----------15----15------------13----13------------12------12----|
|----------16----------------14------------------12--------------------11-------|
|-------------------------------------------------------------------------------|
|-------------------------------------------------------------------------------|
|-------------------------------------------------------------------------------|


  C5                     N.C.    B5        A5          N.C.
                         PM--|
   Q.                    S   S   E.        S   +E      S       +S
|--------------------------------------------------------------------|
|--------------------------------------------------------------------|
|--------------------------------------------------------------------|
|--5-----------------------------4---------2---(2)-------------------|
|--3-----------------------------2---------0---(0)-------------------|
|------------------------0---0-------------------------3b3.5---(3)---|
|
|  T    T    T    T    T             PM----------------------------|
|  |-----6-----|  |-----6------| |-----6-----|  |--------6---------|
|  S S  S S  S S  S S  S S S   S S S S S S   S  S  S S S     S     S
|--------------------------------------------------------------------|
|-13p5-12p5-10p5-12p5-10p5-8p==5-7p5---5-----------------------------|
|------------------------------------7---7---5--7--5-4-5-----4-------|
|------------------------------------------------------------------7-|
|--------------------------------------------------------------------|
|--------------------------------------------------------------------|


  A5       N.C.F#5 G5       D5
           PM|
  Q.       S S  E. S  +E  a E
|-----------------------------|
|-----------------------------|
|-----------------------------|
|-------------------------5S7-|
|-2-------------4--5--(5)-3S5-|
|-0--------0-0--2--3--(3)-----|
|
|                      ~~~~
| Q   a  E E   +Q      Q
|-----------------------------|
|-----5S=7-5---(5)---/10------|
|-----------------------------|
|-2---------------------------|
|-----------------------------|
|-----------------------------|
|
| Gtr V
|                      ~~~~
| Q   a  E E   +Q      Q
|-----------------------------|
|-----8S10-8---(8)---/15------|
|-----------------------------|
|-2---------------------------|
|-----------------------------|
|-----------------------------|


  C5                          N.C.       B5              A5             N.C.
                               PM---|
   Q.                          S    S     E.             S    +E         S        +S
|----------------------------------------------------------------------------------------||
|----------------------------------------------------------------------------------------||
|----------------------------------------------------------------------------------------||
|--5--------------------------------------4--------------2----(2)------------------------||
|--3--------------------------------------2--------------0----(0)------------------------||
|------------------------------0----0------------------------------------3b3.5----(3)----||
|
|  |-------6-------|  |-------6--------|  |--------6--------|  |-----------6-----------|
|  S   S  S  S  S  S  S  S  S  S  S    S  S   S  S  S  S    S  S   S  S  S      S      S
|--------------------------------------------------14-------------------19------------19-||
|-----------12----------------17------------------------------17--15-17--------17--------||
|-12--11-12----12-11-16-14-16----16---14-14--12-14----14---12----------------------------||
|----------------------------------------------------------------------------------------||
|----------------------------------------------------------------------------------------||
|----------------------------------------------------------------------------------------||
|
|  |-------6-------|  |-------6--------|  |--------6--------|  |-----------6-----------|
|  S   S  S  S  S  S  S  S  S  S  S    S  S   S  S  S  S    S  S   S  S  S      S      S
|--------------------------------------------------17-------------------22------------22-||
|-----------15----------------20------------------------------20--19-20--------20--------||
|-16--14-16----16-14-19-17-19----19---17-17--16-17----17---16----------------------------||
|----------------------------------------------------------------------------------------||
|----------------------------------------------------------------------------------------||
|----------------------------------------------------------------------------------------||


 3rd Verse
  N.C.
  Gtrs I, II
     PM|     PM----|       PM  PM         PM|     PM----|    PM  PM  PM
   S S S S S S S S S S S S S S S S     S  S S S S S S S S  S S S S S S S
|----------------------------------|-------------------------------------|
|----------------------------------|-------------------------------------|
|----------------------------------|-------------------------------------|
|----------------------------------|-------------------------------------|
|----------5-----------8-7---3-----|------------5---------10---9---5---3-|
|--0-0-0-3---0-0-0-0-3-----0---0-3-|---0--0-0-3---0-0-0-0----0---0---0---|
|
|  >
|  ~~~~~~~~~~~~~~~~~~~~~~~~~~~~~~~~~~~~~~~
|  W                                  +W
|----------------------------------|-------------------------------------|
|-17-------------------------------|-(17)--------------------------------|
|----------------------------------|-------------------------------------|
|----------------------------------|-------------------------------------|
|----------------------------------|-------------------------------------|
|----------------------------------|-------------------------------------|
|
|  >
|  ~~~~~~~~~~~~~~~~~~~~~~~~~~~~~~~~~~~~~~~
|  W                                  +W
|----------------------------------|-------------------------------------|
|-20-------------------------------|-(20)--------------------------------|
|----------------------------------|-------------------------------------|
|----------------------------------|-------------------------------------|
|----------------------------------|-------------------------------------|
|----------------------------------|-------------------------------------|


  N.C.
  Gtr I
    PM|     PM----|       PM  PM      PM|     PM----|    PM  PM  PM
  S S S S S S S S S S S S S S S S   S S S S S S S S S  S S S S S S S
|---------------------------------|----------------------------------|
|---------------------------------|----------------------------------|
|---------------------------------|----------------------------------|
|---------------------------------|----------------------------------|
|---------5-----------8-7---3-----|---------5---------10---9---5---3-|
|-0-0-0-3---0-0-0-0-3-----0---0-3-|-0-0-0-3---0-0-0-0----0---0---0---|
|
| Gtr II
|   PM|     PM----|       PM  PM      PM|     PM----|    PM  PM  PM
| S S S S S S S S S S S S S S S S   S S S S S S S S S  S S S S S S S
|---------------------------------|----------------------------------|
|---------------------------------|----------------------------------|
|---------------------------------|----------------------------------|
|---------------------------------|--------------------9---7---4---2-|
|---------5-----------8-7---3-----|---------5------------------------|
|-0-0-0-3---0-0-0-0-3-----0---0-3-|-0-0-0-3---0-0-0-0----0---0---0---|


  N.C.
  Gtrs I, II
    PM|     PM----|       PM  PM      PM|     PM----|    PM  PM  PM
  S S S S S S S S S S S S S S S S   S S S S S S S S S  S S S S S S S
|---------------------------------|----------------------------------|
|---------------------------------|----------------------------------|
|---------------------------------|----------------------------------|
|---------------------------------|----------------------------------|
|---------5-----------8-7---3-----|---------5---------10---9---5---3-|
|-0-0-0-3---0-0-0-0-3-----0---0-3-|-0-0-0-3---0-0-0-0----0---0---0---|


  N.C.
  Gtr I
    PM|     PM----|       PM  PM      PM|     PM----|    PM  PM  PM
  S S S S S S S S S S S S S S S S   S S S S S S S S S  S S S S S S S
|---------------------------------|----------------------------------||
|---------------------------------|----------------------------------||
|---------------------------------|----------------------------------||
|---------------------------------|----------------------------------||
|---------5-----------8-7---3-----|---------5---------10---9---5---3-||
|-0-0-0-3---0-0-0-0-3-----0---0-3-|-0-0-0-3---0-0-0-0----0---0---0---||
|
| Gtr II
|   PM|     PM----|       PM  PM      PM|     PM----|    PM  PM  PM
| S S S S S S S S S S S S S S S S   S S S S S S S S S  S S S S S S S
|---------------------------------|----------------------------------||
|---------------------------------|----------------------------------||
|---------------------------------|----------------------------------||
|---------------------------------|--------------------9---7---4---2-||
|---------5-----------8-7---3-----|---------5------------------------||
|-0-0-0-3---0-0-0-0-3-----0---0-3-|-0-0-0-3---0-0-0-0----0---0---0---||


 Outro Chorus
  E5  N.C.    G5openN.C.  C5  A5      N.C.  A5N.C5      N.B5    N.C.
  Gtrs I, II
                    PM--|   PM        PM--|   PM        PM      PM--|
  E E S S +S  S +E  S S S S S S   +E  S S S S S S +S  S S S +S  S S S
|-----2-------------------------|-------------------------------------|
|-------5-(5)-3-(3)-------------|-------------------------------------|
|-------------0-(0)-------------|-------------------------------------|
|-------------------------5---2-|-(2)-------2---5-(5)-5---4-(4)-------|
|-2-2---------------------3---0-|-(0)-0-0-0-0-0-3-(3)-3-0-2-(2)-2-2-2-|
|-0-0---------------0-0-0---0---|-------------------------------------|


  E5  N.C.    G5openN.C.  C5N.A5      N.C.  A5N.C.
                    PM--|   PM        PM--|   PM
  E E S S +S  S +E  S S S S S S   +E  S S S S S  S +S  S S S +S  S S S
|-----2-------------------------|--------------------------------------|
|-------5-(5)-3-(3)-------------|--------------------------------------|
|-------------0-(0)-------------|--------------------------------------|
|-------------------------5---2-|-(2)-------2---/5-(5)-4---4-(4)-------|
|-2-2---------------------3---0-|-(0)-0-0-0-0-0----------7-------7-5h7-|
|-0-0---------------0-0-0---0---|--------------------------------------|


  E5  N.C.    G5openN.C.  C5N.A5      N.C.  A5N.C5      N.B5    N.C.
                    PM--|   PM        PM--|   PM        PM      PM--|
  E E S S +S  S +E  S S S S S S   +E  S S S S S S +S  S S S +S  S S S
|-----2-------------------------|-------------------------------------|
|-------5-(5)-3-(3)-------------|-------------------------------------|
|-------------0-(0)-------------|-------------------------------------|
|-------------------------5---2-|-(2)-------2---5-(5)-5---4-(4)-------|
|-2-2---------------------3---0-|-(0)-0-0-0-0-0-3-(3)-3-0-2-(2)-2-2-2-|
|-0-0---------------0-0-0---0---|-------------------------------------|


  E5  N.C.    G5openN.C.  C5N.A5      N.C.  A5N.C.
  Gtr I
                    PM--|   PM        PM--|   PM
  E E S S +S  S +E  S S S S S S   +E  S S S S S  S +S  S S  S +S  S E
|-----2-------------------------|--------------------------------------*|
|-------5-(5)-3-(3)-------------|--------------------------------------*|
|-------------0-(0)-------------|--------------------------------------*|
|-------------------------5---2-|-(2)-------2---/5-(5)-4---/7-(7)-5----*|
|-2-2---------------------3---0-|-(0)-0-0-0-0-0----------7----------9--*|
|-0-0---------------0-0-0---0---|--------------------------------------*|
|
| Gtr II
|                   PM--|   PM        PM--|   PM
| E E S S +S  S +E  S S S S S S   +E  S S S S S  S +S  S S  S +S  S E
|-----2-------------------------|--------------------------------------*|
|-------5-(5)-3-(3)-------------|--------------------------------------*|
|-------------0-(0)-------------|---------------/4-(4)-2---/5-(5)-4-2--*|
|-------------------------5---2-|-(2)-------2------------5-------------*|
|-2-2---------------------3---0-|-(0)-0-0-0-0-0------------------------*|
|-0-0---------------0-0-0---0---|--------------------------------------*|




============================================================================
8-For Salvation
============================================================================

-------------------------------------------------------------------------------
			     For Salvation - All That Remains
-------------------------------------------------------------------------------
Tabbed by: metallislave
Email: jenky_fats@hotmail.com

This is just one of the guitars.  I didn't tab the solo because I'm not God.
I saw Oli perform the solo live and it was insane. This is my first tab ever
so go easy when you rate it.

Tuning: D Standard

e|---------------------------------------------------------------------------|
B|---------------------------------------------------------------------------|
G|---------------------------------------------------------------------------|
D|--------9---------10-------------------------------------------------------|\
A|-------7-7-------8--8-8-10-8-5-5/7-----------------------------------------| \
E|-000-0-----000-0-------------------0-0-0-0-7-8-10-0-0-0-000-3-7------------|  \
									         2x
e|---------------------------------------------------------------------------|  / 
B|---------------------------------------------------------------------------| /
G|---------------------------------------------------------------------------|/
D|--------9---------10-------------------------------------------------------|
A|-------7-7-------8--8-8-10-8-5-5/7--------------------------5--------------|
E|-000-0-----000-0-------------------0-0-0-0-7-8-10-0-0-0-000-3--------------|

e|---------------------------------------------------------------------------|
B|---------------------------------------------------------------------------|
G|---------------------------------------------------------------------------|
D|---------------------------------------------------------------------------| 1x
A|---------------------------------------------------------------------------|
E|-0-0-0--0-0-0--0-0-0-0-0-0-0--0-0-0--/12\----------------------------------|

e|---------------------------------------------------------------------------|
B|---------------------------------------------------------------------------|
G|---------------------------------------------------------------------------|
D|--------9---------10------------------5---------4----4-5/7-----------------| 4x
A|-------7-7-------8--8----------------3-3-------2-2---2-3/5-----------------|
E|-000-0-----000-0------0-0-0-0-0-0-0------0-0-0-----0-----------------------|
                                  
e|---------------------------------------------------------------------------|
B|---------------------------------------------------------------------------|
G|--------------------------------------------4------------------------------|
D|--------5-4--4---------5-4---4---------5-4-5-5------5555544444-------------| 2x
A|-7-7-7-7----5--7-7-7-7----5-7--7-7-7-7---------33333----------55555--------|
E|--0-0-0----7----0-0-0-----------0-0-0--------------------------------------|
 
e|---------------------------------------------------------------------------|
B|---------------------------------------------------------------------------|
G|---------------------------------------------------------------------------|
D|-5-5-5-5-5-5---4-4-4-4-4-4-------------------------5-4---4-----------------| 2x
A|--7-7-7-7-7-7---5-5-5-5-5-5--5-5-5-5-5-5---7-7-7------7-5------------------|
E|------------------------------7-7-7-7-7-7---8-8-8------7-------------------|
                                                
e|---------------------------------------------------------------------------|
B|---------------------------------------------------------------------------|
G|---------------------------------------------------------------------------|
D|--------9---------10-------------------------------------------------------|\
A|-------7-7-------8--8-8-10-8-5-5/7-----------------------------------------| \
E|-000-0-----000-0-------------------0-0-0-0-7-8-10-0-0-0-000-3-7------------|  \
           								         2x
e|---------------------------------------------------------------------------|  /
B|---------------------------------------------------------------------------| /
G|---------------------------------------------------------------------------|/
D|--------9---------10-------------------------------------------------------|
A|-------7-7-------8--8-8-10-8-5-5/7--------------------------5--------------|
E|-000-0-----000-0-------------------0-0-0-0-7-8-10-0-0-0-000-3--------------|

e|---------------------------------------------------------------------------|
B|---------------------------------------------------------------------------|
G|---------------------------------------------------------------------------|
D|--------9---------10------------------5---------4----4-5/7-----------------| 4x
A|-------7-7-------8--8----------------3-3-------2-2---2-3/5-----------------|
E|-000-0-----000-0------0-0-0-0-0-0-0------0-0-0-----0-----------------------|

e|---------------------------------------------------------------------------|
B|---------------------------------------------------------------------------|
G|--------------------------------------------4------------------------------|
D|--------5-4--4---------5-4---4---------5-4-5-5------5555544444-------------| 2x
A|-7-7-7-7----5--7-7-7-7----5-7--7-7-7-7---------33333----------55555--------|
E|--0-0-0----7----0-0-0-----------0-0-0--------------------------------------|
 
e|---------------------------------------------------------------------------|
B|---------------------------------------------------------------------------|
G|---------------------------------------------------------------------------|
D|-5-5-5-5-5-5---4-4-4-4-4-4-------------------------5-4---4-----------------| 4x
A|--7-7-7-7-7-7---5-5-5-5-5-5--5-5-5-5-5-5---7-7-7------7-5------------------|
E|------------------------------7-7-7-7-7-7---8-8-8------7-------------------|

e|---------------------------------------------------------------------------|
B|---------------------------------------------------------------------------|
G|---------------------------------------------------------------------------|
D|-----5-5------4-4-----------------------------5-4--------------------------| 2x
A|------7-7------5-5-------------5-5------7-7------7-5-----------------------|
E|-000------000------000-000-000--7-7-000--8-8-------------------------------|

e|---------------------------------------------------------------------------|
B|---------------------------------------------------------------------------|
G|-------4-------------------------------------------------------------------|
D|-----5--5-----4-7-4---------------4--------5---5-4-------------------------| 2x
A|------7--------5----------------5--5-----7--7-----7-5----------------------|
E|-000------000-------000-000-000--7---000--8--------------------------------|

e|---------------------------------------------------------------------------|
B|---------------------------------------------------------------------------|
G|---------------------------------------------------------------------------|
D|---------------------------------------------------------------------------| 1x
A|---------------------------------------------------------------------------|
E|-0-0-0--0-0-0--0-0-0-0-0-0-0--0-0-0--0-0-0--0-0-0--0-0-0-0-0-0-0--0-0-0-/12\-|

e|---------------------------------------------------------------------------|
B|---------------------------------------------------------------------------|
G|---------------------------------------------------------------------------|
D|--------9---------10------------------5---------4----4-5/7-----------------| 1x
A|-------7-7-------8--8----------------3-3-------2-2---2-3/5-----------------|
E|-000-0-----000-0------0-0-0-0-0-0-0------0-0-0-----0-----------------------|

e|---------------------------------------------------------------------------|
B|---------------------------------------------------------------------------|
G|---------------------------------------------------------------------------|
D|--------9---------10------------------5------------------------------------|
A|-------7-7-------8--8----------------3-3-----------------------------------|
E|-000-0-----000-0------0-0-0-0-0-0-0------0-0-0-----------------------------|

| /  slide up
| \  slide down
| h  hammer-on
| p  pull-off
| ~  vibrato
| +  harmonic
| x  Mute note





================================================================================================
9-Tattered On My Sleeve
=============================================================================
All That Remains - Tattered On My Sleeve
By : I3irthDefect (A.K.A. \m/ Ed \m/)

Tuning : DADGBE

| / slide up
| \ slide down
| h hammer-on
| p pull-off
| ~ vibrato
| + harmonic
| x Mute note  


 Intro (x1)
e|------------------------------|
B|------------------------------|
G|---------------8-8----8-8-----|
D|---------------6-6----6-6-----| 
A|-6-6----6-6----6-6----6-6-----| 
D|-6-6-xx-6-6-xx-6-6-xx-6-6-xxx-| 

 Riff A - Not Exact Strumming - (x4)
e|-----------------------------------------------------------------------|
B|-----------------------------------------------------------------------|
G|-----------------------------------------------------------------------|
D|00000-111111------00000-33333-11111-00000-11111------------------------| 
A|------------333333-----------------------------333333-11111-33333-11100|
D|-----------------------------------------------------------------------|
 Riff B - (x1)
e|----------------------------------||-------------------------------|
B|----------------------------------||-------------------------------|
G|----------------------------------||-------------------------------|
D|----------------------------------||-------------------------------|
A|667---------0~0000007---------066-||7---------0~0000007---------0\\|
D|667-7h8p7p6-0~0000007-7h8p7p6-066-||7-7h8p7p6-0~0000007-7h8p7p6-0\\|
PM---           -------         ---   -           -------      
(Pickslide then go to Riff C) 

 Riff C - (x2)                                               
e|-------------------------------||----------------------------------|
B|-------------------------------||----------------------------------|
G|-------------------------------||----------------------------------|
D|-------------------------------||----------------------------------| 
A|7---------0~0000007---------066||-7---------0~0000007---------06666|
D|7-7h8p7p6-0~0000007-7h8p7p6-066||-7-7h8p7p6-0~0000007-7h8p7p6-06666|
PM-           -------         ---   -           -------         -----
 Riff D - (x1)
e|--------------------------------------------------------------------|
B|--------------------------------------------------------------------|
G|--------------------------------------------------------------------|
D|--------------------------------------------------------------------|
A|-0000-0-0-0-0000-0000-0-0-0-0000-0000-0-0-0-0000-0000-0-0-0-00-0-\--|
D|-0000-0-0-0-0000-0000-0-0-0-0000-0000-0-0-0-0000-0000-0-0-0-00-0-8\-| (Pickslide)
PM ---- - - - ---- ---- - - - ---- ---- - - - ---- ---- - - - -- -
 Riff C - (x2)  
e|-------------------------------||----------------------------------|
B|-------------------------------||----------------------------------|
G|-------------------------------||----------------------------------|
D|-------------------------------||----------------------------------| 
A|7---------0~0000007---------066||-7---------0~0000007---------06666|
D|7-7h8p7p6-0~0000007-7h8p7p6-066||-7-7h8p7p6-0~0000007-7h8p7p6-06666|
PM-           -------         ---   -           -------         -----
 Riff A - (x4)
e|-----------------------------------------------------------------------|
B|-----------------------------------------------------------------------|
G|-----------------------------------------------------------------------|
D|00000-111111------00000-33333-11111-00000-11111------------------------| 
A|------------333333-----------------------------333333-11111-33333-11100|
D|-----------------------------------------------------------------------|
 Riff D - (x1)
e|------------------------------------------------------------|
B|------------------------------------------------------------|
G|------------------------------------------------------------|
D|------------------------------------------------------------|
A|-0000-0-0-0-0000-0000-0-0-0-0000-0000-0-0-0-0000-0000-0-0-0-|
D|-0000-0-0-0-0000-0000-0-0-0-0000-0000-0-0-0-0000-0000-0-0-0-| 
PM ---- - - - ---- ---- - - - ---- ---- - - - ---- ---- - - - 
Strum This Chord Progession (Clean):
(Not Exact Strumming)
e|-0-1-3-3-0-1-|
B|-3-3-3-1-1-1-|
G|-2-2-2---0-0-|
D|---------2-2-|
A|-------------|
D|-------------|
 Riff E - (x6)
e|-------------------------------------------------------------------------|
B|-------------------------------------------------------------------------|
G|-------7-7-------7-7-------9-9-------1010------7-7-7-7-7-7-5-5-5-5-5-5-5-|
D|-------------------------------------------------------------------------|
A|-0-0-0-5-5-0-0-0-5-5-0-0-0-7-7-0-0-0-8-8-0-0-0-5-5-5-5-5-5-3-3-3-3-3-3-3-|
D|-0-0-0-----0-0-0-----0-0-0-----0-0-0-----0-0-0---------------------------|
PM - - -     - - -     - - -     - - -     - - -
 Riff F - (x2)
e|---------------------------------|
B|---------------------------------|
G|---------------------------------|
D|---------------------------------| 
A|-0000-2-2-2-3333-2222-3-3-3-2222-|
D|-0000-2-2-2-3333-2222-3-3-3-2222-|
PM ---- - - - ---- ---- - - - ----
 Riff G - (x1)
e|-------------------------------||------------------------------------|
B|-------------------------------||------------------------------------|
G|-------------------------------||----------------------------------88|
D|-------------------------------||----------------------------------66| 
A|7---------0~0000007---------066||-7---------0~0000007---------0666666|
D|7-7h8p7p6-0~0000007-7h8p7p6-066||-7-7h8p7p6-0~0000007-7h8p7p6-0666666|
PM-           -------         ---   -           -------         -----
 Riff F - (x2)
e|---------------------------------|
B|---------------------------------|
G|---------------------------------|
D|---------------------------------| (x2)
A|-0000-2-2-2-3333-2222-3-3-3-2222-|
D|-0000-2-2-2-3333-2222-3-3-3-2222-|
PM ---- - - - ---- ---- - - - ----
 Riff G - (x1)
e|-------------------------------||------------------------------------|
B|-------------------------------||------------------------------------|
G|-------------------------------||----------------------------------88|
D|-------------------------------||----------------------------------66| 
A|7---------0~0000007---------066||-7---------0~0000007---------0666666|
D|7-7h8p7p6-0~0000007-7h8p7p6-066||-7-7h8p7p6-0~0000007-7h8p7p6-0666666|
PM-           -------         ---   -           -------         -----
 Riff F - (x2)
e|---------------------------------|
B|---------------------------------|
G|---------------------------------|
D|---------------------------------| (x2)
A|-0000-2-2-2-3333-2222-3-3-3-2222-|
D|-0000-2-2-2-3333-2222-3-3-3-2222-|
PM ---- - - - ---- ---- - - - ----
(Repeat Until End Of Song...)
e|----------------------------------------------------|
B|----------------------------------------------------|
G|----------------------------------------------------|
D|----------------------------------------------------| 
A|-0000-0~~-2-2-2-3333-3~~-2222-2~~-3-3-3-3~-2222-2~~-|
D|-0000-0~~-2-2-2-3333-3~~-2222-2~~-3-3-3-3~-2222-2~~-|
PM ----     - - - ----     ----     - - -    ----





============================================================================
10- This Darkened Heart
============================================================================

All That Remains
This Darkened Heart
From the album "This Darkened Heart"

      p - pull off 
      b - bend string up
      r - release bend
      / - slide up
       - slide down
      v - vibrato (sometimes written as ~)
      t - right hand tap
      x - play \'note\' with heavy damping
~   = Vibrato (Or With Your Finger)
^   = Bend (Push The Strings Up Or Down)
/   = Slide Up
\\   = Slide Down
H   = Hammer On
P   = Pull Off
_   = Let Ring
>   = Pick Slide 
P.M.= Palm Muted
#   = Harmonics


Tuning - D G C F A D

All That Remains are masters of right hand (picking) technique.
Some parts require lots of practice to get up to speed.

Intro
Gtrs I, II 
||-------------------------------|-------------------------------|
||o------------------------------|-------------------------------|
||-------------------------------|-------------------------------|
||-------------------------------|-------------------------------|
||o-----7-6-------10-9-----6h7---|------7-6-------10-9-----6h7---|
||--0-0------0-0-------0-0-------|--0-0------0-0-------0-0-------|
PM  - -      - -       - -          - -      - -       - -
                                                                  x2
|--------------------------------|--------------------------------||
|--------------------------------|-------------------------------o||
|--------------------------------|--------------------------------||
|------------------------------5-|--------------------------------||
|------5---4---2---4---5---4---5-|-----5---4---2---4---5--3/5\3--o||
|--2-2---2---2---2---2---2---2-3-|-2-2---2---2---2---2----1/3\1---||
PM - -   -   -   -   -   -   -     - -   -   -   -   -
 
Verse
Gtrs I, II                                                                       
||---------------------------------|
||o--------------------------------|
||---------------------------------|
||---------9-8-5-4--------4-5/10---|
||o-2------7-6-3-2--------2-3/8--2-|
||--0-0-0--7-6-3-2---0-0--2-3/8--0-|
PM    - -            - -             
                                              x2
|----------------------------------------------||
|---------------------------------------------o||
|----------------------------------------------||
|-------9-8-5----------------------------------||
|-------7-6-3--7-----5-----7---8-----5----5h7-o||
|--0-0--7-6-3----0-0---0-0---0---0-0---0-0-----||
   - -           - -   - -   -   - -   - -

Pre-Chorus
Gtr I                                                                   x2
||----------------------------------------------------------------------||
||o--------------------------------------------------------------------o||
||----------------------------------------------------------------------||
||----------------------------------------------------------------------||
||o-7--6--7-7--6--7-7--6--7-7--6--7-7--6--7-7--6--7-7--6--7-10-9-7-6---o||
||---00-00-0-00-00-0-33-33-3-33-33-3-55-55-5-55-55-5-77-77-7--7-7-7-7---|| 
||PM -- -- - -- -- - -- -- - -- -- - -- -- - -- -- - -- -- -  - - - -
||
||Gtr II (let ring)
||----------------------------------------------------------------------||
||o--------------------------------------------------------------------o||
||----------------------------------------------------------------------||
||--2------(2)------5------(5)------7------(7)------9------(9)----------||
||o-2------(2)------5------(5)------7------(7)------9------(9)---------o||
||--0------(0)------3------(3)------5------(5)------7------(7)----------||


Chorus
Gtr I                                                                   x2
||----------------------------------------------------------------------||
||o--------------------------------------------------------------------o||
||----------------------------------------------------------------------||
||----------------------------------------------------------------------||
||o-7--6--7-7--6--7-7--6--7-7--6--7-7--6--7-7--6--7-7--6--7-10-9-7-6---o||
||---00-00-0-00-00-0-33-33-3-33-33-3-55-55-5-55-55-5-77-77-7--7-7-7-7---|| 
||PM -- -- - -- -- - -- -- - -- -- - -- -- - -- -- - -- -- -  - - - -
||
||Gtr II
||----------------------------------------------------------------------||
||o--------------------------------------------------------------------o||
||----------------------------------------------------------------------||
||--5--4--5-5--4--5-5--4--5-5--4--5-5--4--5-5--4--5-5--4--5--9-7-6-7----||
||o--------------------------------------------------------------------o||
||---00-00-0-00-00-0-33-33-3-33-33-3-55-55-5-55-55-5-77-77-7--7-7-7-7---|| 
|PM  -- -- - -- -- - -- -- - -- -- - -- -- - -- -- - -- -- -  - - - -



Gtrs I, II 
||-------------------------------|-------------------------------|
||o------------------------------|-------------------------------|
||-------------------------------|-------------------------------|
||-------------------------------|-------------------------------|
||o-----7-6-------10-9-----6h7---|------7-6-------10-9-----6h7---|
||--0-0------0-0-------0-0-------|--0-0------0-0-------0-0-------|
PM  - -      - -       - -          - -      - -       - -
                                                                  x2
|--------------------------------|--------------------------------||
|--------------------------------|-------------------------------o||
|--------------------------------|--------------------------------||
|------------------------------5-|--------------------------------||
|------5---4---2---4---5---4---5-|-----5---4---2---4---5--3/5\3--o||
|--2-2---2---2---2---2---2---2-3-|-2-2---2---2---2---2----1/3\1---||
PM - -   -   -   -   -   -   -     - -   -   -   -   -
 
Verse
Gtrs I, II                                                                       
||---------------------------------|
||o--------------------------------|
||---------------------------------|
||---------9-8-5-4--------4-5/10---|
||o-2------7-6-3-2--------2-3/8--2-|
||--0-0-0--7-6-3-2---0-0--2-3/8--0-|
PM    - -            - -             
                                              x2
|----------------------------------------------||
|---------------------------------------------o||
|----------------------------------------------||
|-------9-8-5----------------------------------||
|-------7-6-3--7-----5-----7---8-----5----5h7-o||
|--0-0--7-6-3----0-0---0-0---0---0-0---0-0-----||
   - -           - -   - -   -   - -   - -

Pre-Chorus
Gtr I                                                                   x2
||----------------------------------------------------------------------||
||o--------------------------------------------------------------------o||
||----------------------------------------------------------------------||
||----------------------------------------------------------------------||
||o-7--6--7-7--6--7-7--6--7-7--6--7-7--6--7-7--6--7-7--6--7-10-9-7-6---o||
||---00-00-0-00-00-0-33-33-3-33-33-3-55-55-5-55-55-5-77-77-7--7-7-7-7---|| 
||PM -- -- - -- -- - -- -- - -- -- - -- -- - -- -- - -- -- -  - - - -
||
||Gtr II (let ring)
||----------------------------------------------------------------------||
||o--------------------------------------------------------------------o||
||----------------------------------------------------------------------||
||--2------(2)------5------(5)------7------(7)------9------(9)----------||
||o-2------(2)------5------(5)------7------(7)------9------(9)---------o||
||--0------(0)------3------(3)------5------(5)------7------(7)----------||


Chorus
Gtr I                                                                   x2
||----------------------------------------------------------------------||
||o--------------------------------------------------------------------o||
||----------------------------------------------------------------------||
||----------------------------------------------------------------------||
||o-7--6--7-7--6--7-7--6--7-7--6--7-7--6--7-7--6--7-7--6--7-10-9-7-6---o||
||---00-00-0-00-00-0-33-33-3-33-33-3-55-55-5-55-55-5-77-77-7--7-7-7-7---|| 
||PM -- -- - -- -- - -- -- - -- -- - -- -- - -- -- - -- -- -  - - - -
||
||Gtr II
||----------------------------------------------------------------------||
||o--------------------------------------------------------------------o||
||----------------------------------------------------------------------||
||--5--4--5-5--4--5-5--4--5-5--4--5-5--4--5-5--4--5-5--4--5--9-7-6-7----||
||o--------------------------------------------------------------------o||
||---00-00-0-00-00-0-33-33-3-33-33-3-55-55-5-55-55-5-77-77-7--7-7-7-7---|| 
|PM  -- -- - -- -- - -- -- - -- -- - -- -- - -- -- - -- -- -  - - - -

Bridge 
Gtrs I, II                                Repeat          1,3           2,4
||------------------------------------------------|----------|-----------||
||o-----------------------------------------------|---------o|----------o||
||------------------------------------------------|----------|-----------||
||------------------------------------------------|--9-8-5---|--4-5/10---||
||o-----------------------------------------------|--7-6-3--o|--2-3/8---o||
||--000-000-000-000---000-000-000-000-000-000-000-|--7-6-3---|--2-3/8----||
PM  --- --- --- ---   --- --- --- --- --- --- ---


Breakdown
Gtr I 
||---------------------------|--------------------------------------||
||---------------------------|--------------------------------------||
||---------------------------|--------------------------------------||
||---------------------------|--------------------------------------||
||--------2---------------2--|--------2---------------2-------------||
||-000000-0--000000000000-0--|-000000-0--000000000000-0---5/(12)\1--||
PM ------    ------------      ------    ------------

Gtrs I, II
||--------------------------------------------------------------------|
||--------------------------------------------------------------------|
||--------------------------------------------------------------------|
||--------------------------------------------------------------------|
||--------2---------------2---------------2---------------2-----------|
||-000000-0--000000000000-0--------000000-0--000000000000-0--55-33-11-| 
PM ------    ------------          ------    ------------    -- -- --

|---------------------------------------------------------------------|
|---------------------------------------------------------------------|
|---------------------------------------------------------------------|
|---------------------------------------------------------------------|
|---------2---------------2---------------2---------------2-----------|
|--000000-0--000000000000-0--000000000000-0--000000000000-0--55-33-11-| 
PM ------    ------------    ------------    ------------    -- -- --

|---------------------------------------------------------------------|
|---------------------------------------------------------------------|
|---------------------------------------------------------------------|
|---------------------------------------------------------------------|
|---------2---------------2---------------2---------------2-----------|
|--000000-0--000000000000-0--------000000-0--000000000000-0--55-33-11-| 
PM ------    ------------          ------    ------------    -- -- --

|--------------------------------------------------------------------||
|--------------------------------------------------------------------||
|--------------------------------------------------------------------||
|--------------------------------------------------------------------||
|---------2---------------2---------------2---------------2----------||
|--000000-0--000000000000-0--000000000000-0--000000000000-0----------|| 
PM ------    ------------    ------------    ------------        

End.
comments
We did not receive enough feedback on this tab! Please rate:
1 2 3 4 5
2 comments total.
0 reply
fenne50 wrote on February 8 2010, 03:59 pm

same as i said on the fall of ideal album, you guys are doing great jobs on these tabs just here and there little mistakes but overall great job guys

0 reply
surgikal wrote on June 24 2010, 12:03 pm

your missing quite a few solos

I want to post or [tab]
guest
You may want to rate the tab now too:
select rating
Please do not post tabs as comments. Select "correction" instead!