Oops, an error
Loading. Please wait.

This Darkened Heart Tab

ver5
ver5

Album

Whole song

More versions @911Tabs.com
646 views 1 this week
1 commentread comment
1 2 3 4 5
not so good
x 1
Autoscroll
+/-
esc
set tempo
stop
Contributor
Difficulty
Tuning
intermediate
D A D G B E
WARNING: You are trying to view
                                    content from Ultimate-Guitar.com
                                    in an unauthorized application,
                                    which is prohibited.

                                    Please use an official Ultimate
                                    Guitar Tabs application for iPhone,
                                    iPad or Android to access legitimate
                                    chords, guitar, bass, and drum tabs
                                    from Ultimate-Guitar.com database.

                                    Type "ultimate guitar tabs" in Apple
                                    App Store's or Android Market's
                                    search to find the application.
Band: All That Remains
Song: This Darkened Heart
Album: This Darkened Heart
Transcriber: Saxon Hale
Tuning: (Low to High) All Guitars - D A D G B e

Notations:  h  = Hammer On
           / \ = Slide Up/Down
            .  = Palm Mute
            ~  = Hold Note
           : : = Repeat Bar(s)

[Guitars 1 & 2]
e|------------------------------------------------------||
B|------------------------------------------------------||
G|:-----------------------------------------------------||
D|:-----------------------------------------------------||
A|------5-4------8-7------4h5-----5-4------8-7------4h5-||
D|--0-0------0-0------0-0-----0-0------0-0------0-0-----||
    . .      . .      . .     . .      . .      . .

[Guitars 1 & 2]
e|-------------------------------------------------------------------||
B|-------------------------------------------------------------------||
G|------------------------------------------------------------------:||
D|------------------------------------------------------------------:||
A|-------------------------------3---------------------------4-3-1---||
D|-0-0-10-0-9-0-7-0-9-0-10-0-9-0-3--0-0-10-0-9-0-7-0-9-0-10--4-3-1---||
   . .    .   .   .   .    .   .    . .    .   .   .   .

[Guitars 1 & 2]
e|-----------------------------------------------------------------||
B|-----------------------------------------------------------------||
G|-----------------------------------------------------------------||
D|--------7-6-3-2------2-3/8-7------7-6-3-2------------------------||
A|-0------5-4-1-0------0-1/6-5------5-4-1-0-5---3---5-6---3---4h5--||
D|-0--0-0----------0-0----------0-0-----------0---0-----0---0------||
      . .          . .          . .           .   .     .   .

[Guitars 1 & 2]
e|-----------------------------------------------------------------||
B|-----------------------------------------------------------------||
G|-----------------------------------------------------------------||
D|-7------7-6-3-2------2-3/8-7------7-6-3-2------------------------||
A|-5------5-4-1-0------0-1/6-5------5-4-1-0-5---3---5-6---3---4h5--||
D|----0-0----------0-0----------0-0-----------0---0-----0---0------||
      . .          . .          . .           .   .     .   .

[Guitar 1]
e|------------------------------------------||
B|------------------------------------------||
G|:-----------------------------------------||
D|:-----------------------------------------||
A|--5---4---5-5---4---5-5---4---5-5---4---5-||
D|----0---0-----0---0-----0---0-----0---0---||
      .   .     .   .     .   .     .   .
[Guitar 2]
e|------------------------------------------||
B|------------------------------------------||
G|:-----------------------------------------||
D|:-----------------------------------------||
A|--0~~-----------------3~~-----------------||
D|--0~~-----------------3~~-----------------||

[Guitar 1]
e|-----------------------------------------||
B|-----------------------------------------||
G|----------------------------------------:||
D|----------------------------------------:||
A|-5---4---5-5---4---5-5---4---5-8-7-5-4---||
D|---0---0-----0---0-----0---0-------------||
     .   .     .   .     .   .
[Guitar 2]                     __    __
                              |1    |2
e|---------------------------||----||---------||
B|---------------------------||----||---------||
G|--------------------------:||----||---------||
D|--------------------------:||----||---------||
A|-5~~-----------------7~~---||-5~-||---------||
D|-5~~-----------------7~~---||-5~-||-1/12\1--||

[Guitar 1]
e|------------------------------------------||
B|------------------------------------------||
G|:-----------------------------------------||
D|:-----------------------------------------||
A|--8---7---8-8---7---8-8---7---8-8---7---8-||
D|----0---0-----0---0-----0---0-----0---0---||
      .   .     .   .     .   .     .   .
[Guitar 2]
e|------------------------------------------||
B|------------------------------------------||
G|:-----------------------------------------||
D|:-----------------------------------------||
A|--5---4---5-5---4---5-5---4---5-5---4---5-||
D|----0---0-----0---0-----0---0-----0---0---||
      .   .     .   .     .   .     .   .
[Guitar 3]
e|------------------------------------------||
B|------------------------------------------||
G|:-----------------------------------------||
D|:-----------------------------------------||
A|------------------------------------------||
D|--0-0-0-0-0-0-0-0-0-0-3-3-3-3-3-3-3-3-3-3-||
    . . . . . . . . . . . . . . . . . . . .

[Guitar 1]
e|------------------------------------------||
B|------------------------------------------||
G|-----------------------------------------:||
D|-----------------------------------------:||
A|-8---7---8-8---7---8-8---7---8-12-10-8-7--||
D|---0---0-----0---0-----0---0--------------||
     .   .     .   .     .   .
[Guitar 2]
e|-----------------------------------------||
B|-----------------------------------------||
G|----------------------------------------:||
D|----------------------------------------:||
A|-5---4---5-5---4---5-5---4---5-8-7-5-4---||
D|---0---0-----0---0-----0---0-------------||
     .   .     .   .     .   .
[Guitar 3]
e|------------------------------------------||
B|------------------------------------------||
G|:-----------------------------------------||
D|:-----------------------------------------||
A|------------------------------------------||
D|--5-5-5-5-5-5-5-5-5-5-7-7-7-7-7-7-7-7-7-7-||
    . . . . . . . . . . . . . . . . . . . .

[Guitars 1 & 2]
e|------------------------------------------------------||
B|------------------------------------------------------||
G|:-----------------------------------------------------||
D|:-----------------------------------------------------||
A|------5-4------8-7------4h5-----5-4------8-7------4h5-||
D|--0-0------0-0------0-0-----0-0------0-0------0-0-----||
    . .      . .      . .     . .      . .      . .

[Guitars 1 & 2]
e|-------------------------------------------------------------------||
B|-------------------------------------------------------------------||
G|------------------------------------------------------------------:||
D|------------------------------------------------------------------:||
A|-------------------------------3---------------------------4-3-1---||
D|-0-0-10-0-9-0-7-0-9-0-10-0-9-0-3--0-0-10-0-9-0-7-0-9-0-10--4-3-1---||
   . .    .   .   .   .    .   .    . .    .   .   .   .

[Guitars 1 & 2]
e|-----------------------------------------------------------------||
B|-----------------------------------------------------------------||
G|-----------------------------------------------------------------||
D|--------7-6-3-2------2-3/8-7------7-6-3-2------------------------||
A|-0------5-4-1-0------0-1/6-5------5-4-1-0-5---3---5-6---3---4h5--||
D|-0--0-0----------0-0----------0-0-----------0---0-----0---0------||
      . .          . .          . .           .   .     .   .

[Guitars 1 & 2]
e|-----------------------------------------------------------------||
B|-----------------------------------------------------------------||
G|-----------------------------------------------------------------||
D|-7------7-6-3-2------2-3/8-7------7-6-3-2------------------------||
A|-5------5-4-1-0------0-1/6-5------5-4-1-0-5---3---5-6---3---4h5--||
D|----0-0----------0-0----------0-0-----------0---0-----0---0------||
      . .          . .          . .           .   .     .   .

[Guitar 1]
e|------------------------------------------||
B|------------------------------------------||
G|:-----------------------------------------||
D|:-----------------------------------------||
A|--5---4---5-5---4---5-5---4---5-5---4---5-||
D|----0---0-----0---0-----0---0-----0---0---||
      .   .     .   .     .   .     .   .
[Guitar 2]
e|------------------------------------------||
B|------------------------------------------||
G|:-----------------------------------------||
D|:-----------------------------------------||
A|--0~~-----------------3~~-----------------||
D|--0~~-----------------3~~-----------------||

[Guitar 1]
e|-----------------------------------------||
B|-----------------------------------------||
G|----------------------------------------:||
D|----------------------------------------:||
A|-5---4---5-5---4---5-5---4---5-8-7-5-4---||
D|---0---0-----0---0-----0---0-------------||
     .   .     .   .     .   .
[Guitar 2]                     __    __
                              |1    |2
e|---------------------------||----||---------||
B|---------------------------||----||---------||
G|--------------------------:||----||---------||
D|--------------------------:||----||---------||
A|-5~~-----------------7~~---||-5~-||---------||
D|-5~~-----------------7~~---||-5~-||-1/12\1--||

[Guitar 1]
e|------------------------------------------||
B|------------------------------------------||
G|:-----------------------------------------||
D|:-----------------------------------------||
A|--8---7---8-8---7---8-8---7---8-8---7---8-||
D|----0---0-----0---0-----0---0-----0---0---||
      .   .     .   .     .   .     .   .
[Guitar 2]
e|------------------------------------------||
B|------------------------------------------||
G|:-----------------------------------------||
D|:-----------------------------------------||
A|--5---4---5-5---4---5-5---4---5-5---4---5-||
D|----0---0-----0---0-----0---0-----0---0---||
      .   .     .   .     .   .     .   .
[Guitar 3]
e|------------------------------------------||
B|------------------------------------------||
G|:-----------------------------------------||
D|:-----------------------------------------||
A|------------------------------------------||
D|--0-0-0-0-0-0-0-0-0-0-3-3-3-3-3-3-3-3-3-3-||
    . . . . . . . . . . . . . . . . . . . .

[Guitar 1]
e|------------------------------------------||
B|------------------------------------------||
G|-----------------------------------------:||
D|-----------------------------------------:||
A|-8---7---8-8---7---8-8---7---8-12-10-8-7--||
D|---0---0-----0---0-----0---0--------------||
     .   .     .   .     .   .
[Guitar 2]
e|-----------------------------------------||
B|-----------------------------------------||
G|----------------------------------------:||
D|----------------------------------------:||
A|-5---4---5-5---4---5-5---4---5-8-7-5-4---||
D|---0---0-----0---0-----0---0-------------||
     .   .     .   .     .   .
[Guitar 3]
e|------------------------------------------||
B|------------------------------------------||
G|:-----------------------------------------||
D|:-----------------------------------------||
A|------------------------------------------||
D|--5-5-5-5-5-5-5-5-5-5-7-7-7-7-7-7-7-7-7-7-||
    . . . . . . . . . . . . . . . . . . . .

[Guitars 1 & 2]
e|-------------------------------------------------------||
B|-------------------------------------------------------||
G|:------------------------------------------------------||
D|:------------------------------------------------7-6-3-||
A|--0-0-0-0-0-0-0---0-0-0-0-0-0-0-0-0-0-0-0-0-0-0--5-4-1-||
D|--0-0-0-0-0-0-0---0-0-0-0-0-0-0-0-0-0-0-0-0-0-0--------||
    . . . . . .     . . . . . . . . . . . . . .

[Guitars 1 & 2]
e|-------------------------------------------------------||
B|-------------------------------------------------------||
G|------------------------------------------------------:||
D|------------------------------------------------2-3/8-:||
A|-0-0-0-0-0-0-0---0-0-0-0-0-0-0-0-0-0-0-0-0-0-0--0-1/6--||
D|-0-0-0-0-0-0-0---0-0-0-0-0-0-0-0-0-0-0-0-0-0-0---------||
   . . . . . .     . . . . . . . . . . . . . .

[Guitar 1]
e|---------------------------------||----------------------------------------||
B|---------------------------------||----------------------------------------||
G|---------------------------------||----------------------------------------||
D|---------------------------------||----------------------------------------||
A|-0~~-----------------------------||----------------------------------------||
D|-0~~-----------------------------||-----------------------{Pick Scrape}----||
[Guitar 2]
e|---------------------------------||----------------------------------------||
B|---------------------------------||----------------------------------------||
G|---------------------------------||----------------------------------------||
D|---------------------------------||----------------------------------------||
A|---------------------------------||----------------------------------------||
D|-0-0-0-0-0-0-0--0-0-0-0-0-0-0-0--||-0-0-0-0-0-0-0--0-0-0-0-0-0-0-0--1/12\1-||
   . . . . . .    . . . . . . .       . . . . . .    . . . . . . .

[Guitar 1]
e|----------------------------------------||
B|----------------------------------------||
G|----------------------------------------||
D|----------------------------------------||
A|----------------------------------------||
D|-----------------------{Pick Scrape}----||
[Guitar 2]
e|----------------------------------------||
B|----------------------------------------||
G|----------------------------------------||
D|----------------------------------------||
A|----------------------------------------||
D|-0-0-0-0-0-0-0--0-0-0-0-0-0-0-0--1/12\1-||
   . . . . . .    . . . . . . .

[Guitars 1 & 2]
e|---------------------------------||
B|---------------------------------||
G|---------------------------------||
D|---------------------------------||
A|-0-0-0-0-0-0-0--0-0-0-0-0-0-0-0--||
D|-0-0-0-0-0-0-0--0-0-0-0-0-0-0-0--||
   . . . . . .    . . . . . . .

[Guitars 1 & 2]
e|---------------------------------------------||
B|---------------------------------------------||
G|---------------------------------------------||
D|---------------------------------------------||
A|-0-0-0-0-0-0-0--0-0-0-0-0-0-0-0--4-4-3-3-1-1-||
D|-0-0-0-0-0-0-0--0-0-0-0-0-0-0-0--4-4-3-3-1-1-||
   . . . . . .    . . . . . . .    . . . . . .

[Guitars 1 & 2]
e|---------------------------------||
B|---------------------------------||
G|---------------------------------||
D|---------------------------------||
A|-0-0-0-0-0-0-0--0-0-0-0-0-0-0-0--||
D|-0-0-0-0-0-0-0--0-0-0-0-0-0-0-0--||
   . . . . . .    . . . . . . .

[Guitars 1 & 2]
e|---------------------------------------------||
B|---------------------------------------------||
G|---------------------------------------------||
D|---------------------------------------------||
A|-0-0-0-0-0-0-0--0-0-0-0-0-0-0-0--4-4-3-3-1-1-||
D|-0-0-0-0-0-0-0--0-0-0-0-0-0-0-0--4-4-3-3-1-1-||
   . . . . . .    . . . . . . .    . . . . . .

[Guitars 1 & 2]
e|---------------------------------||
B|---------------------------------||
G|---------------------------------||
D|---------------------------------||
A|-0-0-0-0-0-0-0--0-0-0-0-0-0-0-0--||
D|-0-0-0-0-0-0-0--0-0-0-0-0-0-0-0--||
   . . . . . .    . . . . . . .

[Guitars 1 & 2]
e|---------------------------------------------||
B|---------------------------------------------||
G|---------------------------------------------||
D|---------------------------------------------||
A|-0-0-0-0-0-0-0--0-0-0-0-0-0-0-0--4-4-3-3-1-1-||
D|-0-0-0-0-0-0-0--0-0-0-0-0-0-0-0--4-4-3-3-1-1-||
   . . . . . .    . . . . . . .    . . . . . .

[Guitars 1 & 2]
e|-----------------------------------------------------------------||
B|-----------------------------------------------------------------||
G|-----------------------------------------------------------------||
D|-----------------------------------------------------------------||
A|-0-0-0-0-0-0-0--0-0-0-0-0-0-0-0--0-0-0-0-0-0-0--0-0-0-0-0-0-0-0--||
D|-0-0-0-0-0-0-0--0-0-0-0-0-0-0-0--0-0-0-0-0-0-0--0-0-0-0-0-0-0-0--||
   . . . . . .    . . . . . . .    . . . . . .    . . . . . . .
comments
We did not receive enough feedback on this tab! Please rate:
1 2 3 4 5
1 comment total.
0 reply
p3rry_uk wrote on March 18 2007, 10:52 am

really inaccurate

I want to post or [tab]
guest
You may want to rate the tab now too:
select rating
Please do not post tabs as comments. Select "correction" instead!