Oops, an error
Loading. Please wait.

Two Weeks Tab

ver2
ver2

Intro

Whole song

More versions @911Tabs.com
287,551 views 378 this week
45 commentsread comments
1 2 3 4 5
excellent!
x 47
Autoscroll
+/-
esc
set tempo
stop
Contributor
Difficulty
intermediate
WARNING: You are trying to view
                                    content from Ultimate-Guitar.com
                                    in an unauthorized application,
                                    which is prohibited.

                                    Please use an official Ultimate
                                    Guitar Tabs application for iPhone,
                                    iPad or Android to access legitimate
                                    chords, guitar, bass, and drum tabs
                                    from Ultimate-Guitar.com database.

                                    Type "ultimate guitar tabs" in Apple
                                    App Store's or Android Market's
                                    search to find the application.
#----------------------------------PLEASE NOTE---------------------------------#
#This file is the author's own work and represents their interpretation of the #
#song. You may only use this file for private study, scholarship, or research. #
#------------------------------------------------------------------------------##


Gtr I (C# F# B E G# C#) - 'Untitled'
Gtr II (C# F# B E G# C#) - 'Untitled'
Gtr III (C# F# B E G# C#) - 'Untitled'

  Q=224
||||INTRO||||

 4/4
  Gtr I
  E E   E E  E E E E   E E   E E  E  E E  E
|------------------|--------------------|
|------------------|--------------------|
|------------------|--------------------|
|------------------|--------------------|
|-7-------10-9-7-9-|-5-------12-10-9-10-|
|---0-0-0----------|---0-0-0------------|
|
| Gtr II
| E H..              E H..
|------------------|----------------------|
|------------------|----------------------|
|------------------|----------------------|
|-9----------------|-7--------------------|
|-7----------------|-5--------------------|
|-7----------------|-5--------------------|


  E E  E E E  E  E  E   E  E E  E E  E  E E
|--------------------|----------------------|
|--------------------|----------------------|
|--------------------|----------------------|
|---------9----------|-9-10-9----9----------|
|-7---------12-10-12-|--------12---12-10-9--|
|---0-0-0------------|----------------------|
|
| E Q.    E  E  E  E   E  E E  E E  E  E E
|--------------------|----------------------|
|--------------------|----------------------|
|--------------------|----2-----------------|
|-5-------5--4--2--4-|-5----5--4-5--4--2----|
|-3------------------|-------------------5--|
|-3------------------|----------------------|


    E E E E E E E E   E E E E SSE E E
|-------------------|-----------------|
|-------------------|-----------------|
|-------------------|-----------------|
|-------------------|-----------------|
|---5S7---7-----7---|---7---------7---|
|-------0---0-0---0-|-0---0-0-000---0-|
|
| W                   W
|-------------------|------------------|
|-------------------|------------------|
|-------------------|------------------|
|-------------------|------------------|
|-------------------|------------------|
|-------------------|------------------|


  E E E E E E E E   E E E E SSE SSE
|-----------------|-----------------|
|-----------------|-----------------|
|-----------------|-----------------|
|-----------------|-----------------|
|-7S9---9-----9---|---9-------------|
|-----0---0-0---0-|-0---0-0-000-000-|
|
| W                 W
|-----------------|-----------------|
|-----------------|-----------------|
|-----------------|-----------------|
|-----------------|-----------------|
|-----------------|-----------------|
|-----------------|-----------------|


  E  E E  E E E  E E   E  E E E SSE  E E
|--------------------|-------------------|
|--------------------|-------------------|
|--------------------|-------------------|
|--------------------|-------------------|
|-9S10---10-----10---|---10---------10---|
|------0----0-0----0-|-0----0-0-000----0-|
|
| W                    W
|--------------------|-------------------|
|--------------------|-------------------|
|--------------------|-------------------|
|--------------------|-------------------|
|--------------------|-------------------|
|--------------------|-------------------|


   E E E E E E E E   E E E E E  E  E E
|------------------|--------------------|
|------------------|--------------------|
|------------------|--------------------|
|------------------|---------9----------|
|-10S7---7-----7---|---7-------12-10-9--|
|------0---0-0---0-|-0---0-0------------|
|
|  W                 H       E  E  E E
|------------------|--------------------|
|------------------|--------------------|
|------------------|--------------------|
|------------------|---------5--4--2----|
|------------------|-----------------5--|
|------------------|--------------------|


  E E E E E E E E   E E E E SSE E E   E E E E E E E E   E E E E SSE SSE
|-----------------|-----------------|-----------------|------------------|
|-----------------|-----------------|-----------------|------------------|
|-----------------|-----------------|-----------------|------------------|
|-----------------|-----------------|-----------------|------------------|
|-5S7---7-----7---|---7---------7---|-7S9---9-----9---|---9--------------|
|-----0---0-0---0-|-0---0-0-000---0-|-----0---0-0---0-|-0---0-0-000-000--|
|
| W                 H       SSE Q     W                 H       SSE SSE
|-----------------|-----------------|-----------------|------------------|
|-----------------|-----------------|-----------------|------------------|
|-----------------|-----------------|-----------------|------------------|
|-----------------|-----------------|-----------------|------------------|
|-----------------|---------222-----|-----------------|---------222-222--|
|-----------------|---------000-----|-----------------|---------000-000--|


  E  E E  E E E  E E   E  E E E SSE  E E
|--------------------|-------------------|
|--------------------|-------------------|
|--------------------|-------------------|
|--------------------|-------------------|
|-9S10---10-----10---|---10---------10---|
|------0----0-0----0-|-0----0-0-000----0-|
|
| W                    H        SSE  Q
|--------------------|-------------------|
|--------------------|-------------------|
|--------------------|-------------------|
|--------------------|-------------------|
|--------------------|----------222------|
|--------------------|----------000------|


   E E E E E E E E   E E E E E  E  E E
|------------------|--------------------|
|------------------|--------------------|
|------------------|--------------------|
|------------------|---------9----------|
|-10S7---7-----7---|---7-------12-10-9--|
|------0---0-0---0-|-0---0-0------------|
|
|  W                 H       E  E  E E
|------------------|--------------------|
|------------------|--------------------|
|------------------|--------------------|
|------------------|---------5--4--2----|
|------------------|-----------------5--|
|------------------|--------------------|

||||VERSE||||

    E E E E E E E E   E E E E SSE E E
||------------------|-----------------|
||o-----------------|-----------------|
||------------------|-----------------|
||------------------|-----------------|
||o-5S7---7-----7---|---7---------7---|
||------0---0-0---0-|-0---0-0-000---0-|
|
|   E E E E E E E E   E E E E SSE E E
||------------------|-----------------|
||o-----------------|-----------------|
||------------------|-----------------|
||------------------|-----------------|
||o-0h2---2-----2---|---2---------2---|
||------0---0-0---0-|-0---0-0-000---0-|


  E E E E E E E E   E E E E SSE SSE
|-----------------|-----------------|
|-----------------|-----------------|
|-----------------|-----------------|
|-----------------|-----------------|
|-7S9---9-----9---|---9-------------|
|-----0---0-0---0-|-0---0-0-000-000-|
|
| E E E E E E E E   E E E E SSE SSE
|-----------------|-----------------|
|-----------------|-----------------|
|-----------------|-----------------|
|-----------------|-----------------|
|-2p0---0-----0---|---0-------------|
|-----0---0-0---0-|-0---0-0-000-000-|


  E  E E  E E E  E E   E  E E E SSE  E E
|--------------------|-------------------|
|--------------------|-------------------|
|--------------------|-------------------|
|--------------------|-------------------|
|-9S10---10-----10---|---10---------10---|
|------0----0-0----0-|-0----0-0-000----0-|
|
| E  E E  E E E  E E   E  E E E SSE  E E
|--------------------|-------------------|
|--------------------|-------------------|
|--------------------|-------------------|
|--------------------|-------------------|
|-0h=3----3------3---|----3----------3---|
|------0----0-0----0-|-0----0-0-000----0-|


   E E E E E E E E   E E E E E  E  E E
|------------------|---------------------||
|------------------|--------------------o||
|------------------|---------------------||
|------------------|---------9-----------||
|-10S7---7-----7---|---7-------12-10-9--o||
|------0---0-0---0-|-0---0-0-------------||
|
|  E E E E E E E E   E E E E E  E  E E
|------------------|---------------------||
|------------------|--------------------o||
|------------------|---------------------||
|------------------|---------5--4--2-----||
|--3S2---2-----2---|---2-------------5--o||
|------0---0-0---0-|-0---0-0-------------||


    E E E E E E  E E   E E E E SSE E E
||-------------------|-----------------|
||o------------------|-----------------|
||-------------------|-----------------|
||-------------------|-----------------|
||o-5S7---7------7---|---7---------7---|
||------0---0-0----0-|-0---0-0-000---0-|
|
|   E E E E E Q.       E SSE E SSQ.
||-------------------|-----------------|
||o------------------|-----------------|
||-------------------|-----------------|
||-------------------|-----------------|
||o-2-2-2-2-2--------|---222-2-222-----|
||--0-0-0-0-0--------|---000-0-000-----|


  E E E E E E  E E   E E E E SSE SSE
|------------------|--------------------|
|------------------|--------------------|
|------------------|--------------------|
|------------------|--------------------|
|-7S9---9------9---|---9----------------|
|-----0---0-0----0-|-0---0-0-000--000---|
|
| E E E E E Q.       E S S E E S S Q.
|------------------|--------------------|
|------------------|--------------------|
|------------------|--------------------|
|------------------|--------------------|
|-4-4-4-4-4--------|---444-4-444--------|
|-2-2-2-2-2--------|---222-2-222--------|


  E  E E  E E E   E E   E  E E E SSE  E  E
|---------------------|--------------------|
|---------------------|--------------------|
|---------------------|--------------------|
|---------------------|--------------------|
|-9S10---10------10---|---10---------10----|
|------0----0-0-----0-|-0----0-0-000-----0-|
|
| E  E E  E E Q.        E  SSE E SSQ.
|---------------------|--------------------|
|---------------------|--------------------|
|---------------------|--------------------|
|---------------------|--------------------|
|-5--5-5--5-5---------|----555-5-555-------|
|-3--3-3--3-3---------|----333-3-333-------|


   E E E E E E  E E   E E E E E  E  E E
|-------------------|--------------------||
|-------------------|-------------------o||
|-------------------|--------------------||
|-------------------|---------9----------||
|-10S7---7------7---|---7-------12-10-9-o||
|------0---0-0----0-|-0---0-0------------||
|
|  E E E E E Q.       E SSE E E  E  E E
|-------------------|--------------------||
|-------------------|-------------------o||
|-------------------|--------------------||
|-------------------|---------5--4--2----||
|--2-2-2-2-2--------|---222-2---------5-o||
|--0-0-0-0-0--------|---000-0------------||


||||CHORUS||||

   PM-----------------------------------------------
   E  E E E  E  E  E  E    E   E  E  E  E  E  E  E
|-----------------------|--------------------------|
|-----------------------|--------------------------|
|-----------------12-12-|-11--11-------------------|
|-14-14-9-9-14-14-------|--------12-12-14-14-12-12-|
|-----------------------|--------------------------|
|-----------------------|--------------------------|
|
|                                             PM
|  W                       H.                 Q
|-----------------------|--------------------------|
|-----------------------|--------------------------|
|-----------------------|--7-----------------------|
|--2--------------------|--7-----------------------|
|--2--------------------|--5------------------0----|
|--0--------------------|---------------------0----|


 ---------------------------------------------|
   E  E E E  E  E E E    E   E  E  E  E  E  E  E
|---------------------|--------------------------|
|---------------------|--------------------------|
|---------------------|--------------------------|
|-14-14-9-9-14-14-9-9-|-12--12-------12-12-------|
|---------------------|--------10-10-------10-10-|
|---------------------|--------------------------|
|
|  W                    +W
|---------------------|--------------------------|
|---------------------|--------------------------|
|--5------------------|-(5)----------------------|
|--5------------------|-(5)----------------------|
|--3------------------|-(3)----------------------|
|---------------------|--------------------------|


   PM-----------------------------------------------
   E  E E E  E  E  E  E    E   E  E  E  E  E  E  E
|-----------------------|--------------------------|
|-----------------------|--------------------------|
|-----------------12-12-|-11--11-------------------|
|-14-14-9-9-14-14-------|--------12-12-14-14-12-12-|
|-----------------------|--------------------------|
|-----------------------|--------------------------|
|
|                                             PM
|  W                       H.                 Q
|-----------------------|--------------------------|
|-----------------------|--------------------------|
|-----------------------|--7-----------------------|
|--2--------------------|--7-----------------------|
|--2--------------------|--5------------------0----|
|--0--------------------|---------------------0----|


 ---------------------------------------------|
   E  E E E  E  E E E    E   E  E  E  E  E  E  E
|---------------------|--------------------------|
|---------------------|--------------------------|
|---------------------|--------------------------|
|-14-14-9-9-14-14-9-9-|-12--12-------12-12-------|
|---------------------|--------10-10-------10-10-|
|---------------------|--------------------------|
|
|  W                    +H            H
|---------------------|--------------------------|
|---------------------|--------------------------|
|--5------------------|-(5)-----------7----------|
|--5------------------|-(5)-----------7----------|
|--3------------------|-(3)-----------5----------|
|---------------------|--------------------------|


   PM-----------------------------------------------
   E  E E E  E  E  E  E    E   E  E  E  E  E  E  E
|-----------------------|--------------------------|
|-----------------------|--------------------------|
|-----------------12-12-|-11--11-------------------|
|-14-14-9-9-14-14-------|--------12-12-14-14-12-12-|
|-----------------------|--------------------------|
|-----------------------|--------------------------|
|
|                                             PM
|  W                       H.                 Q
|-----------------------|--------------------------|
|-----------------------|--------------------------|
|-----------------------|--7-----------------------|
|--2--------------------|--7-----------------------|
|--2--------------------|--5------------------0----|
|--0--------------------|---------------------0----|
|
| Gtr III
|  W                       H.                 Q
|-----------------------|--------------------------|
|-----------------------|--------------------------|
|-12--------------------|-11-----------------------|
|-----------------------|--------------------------|
|-10--------------------|--9------------------0----|
|-----------------------|---------------------0----|


 ---------------------------------------------|
   E  E E E  E  E E E    E   E  E  E  E  E  E  E
|---------------------|--------------------------|
|---------------------|--------------------------|
|---------------------|--------------------------|
|-14-14-9-9-14-14-9-9-|-12--12-------12-12-------|
|---------------------|--------10-10-------10-10-|
|---------------------|--------------------------|
|
|                               PM---------|
|  W                    +Q      Q     Q     Q
|---------------------|--------------------------|
|---------------------|--------------------------|
|--5------------------|-(5)----------------------|
|--5------------------|-(5)-----4-----5-----7----|
|--3------------------|-(3)-----2-----3-----5----|
|---------------------|---------2-----3-----5----|
|
|  H         H           H            H
|---------------------|--------------------------|
|------------8--------|--7-----------------------|
|--9------------------|---------------7----------|
|---------------------|--------------------------|
|--7------------------|--------------------------|
|---------------------|--------------------------|


   PM-----------------------------------------------
   E  E E E  E  E  E  E    E   E  E  E  E  E  E  E
|-----------------------|--------------------------|
|-----------------------|--------------------------|
|-----------------12-12-|-11--11-------------------|
|-14-14-9-9-14-14-------|--------12-12-14-14-12-12-|
|-----------------------|--------------------------|
|-----------------------|--------------------------|
|
|                                             PM
|  W                       H.                 Q
|-----------------------|--------------------------|
|-----------------------|--------------------------|
|-----------------------|--------------------------|
|--2--------------------|--4-----------------------|
|--2--------------------|--5------------------0----|
|--0--------------------|--2------------------0----|
|
|                                             PM
|  W                       H.                 Q
|-----------------------|--------------------------|
|-----------------------|--------------------------|
|--4--------------------|-11-----------------------|
|-----------------------|--9-----------------------|
|-----------------------|--9------------------0----|
|-----------------------|---------------------0----|

   E  E E E  E  E E E    E   E  E  E  E  E  E  E
|---------------------|--------------------------|
|---------------------|--------------------------|
|---------------------|--------------------------|
|-14-14-9-9-14-14-9-9-|-12--12-------12-12-------|
|---------------------|--------10-10-------10-10-|
|---------------------|--------------------------|
|
|                               PM---------|
|  W                    +Q      Q     Q     Q
|---------------------|--------------------------|
|---------------------|--------------------------|
|--5------------------|-(5)----------------------|
|--5------------------|-(5)-----4-----5-----7----|
|--3------------------|-(3)-----2-----3-----5----|
|--3------------------|-(3)-----2-----3-----5----|
|
|
|  H         H           H            H
|---------------------|--------------------------|
|---------------------|--------------------------|
|--9--------12--------|-11------------7----------|
|--9------------------|--------------------------|
|--7--------10--------|--9------------5----------|
|---------------------|--------------------------|


||||VERSE 2||||

    E E E E E E E E   E E E E SSE E E
||------------------|-----------------|
||o-----------------|-----------------|
||------------------|-----------------|
||------------------|-----------------|
||o-5S7---7-----7---|---7---------7---|
||------0---0-0---0-|-0---0-0-000---0-|
|
|   E E E E E E E E   E E E E SSE E E
||------------------|-----------------|
||o-----------------|-----------------|
||------------------|-----------------|
||------------------|-----------------|
||o-0h2---2-----2---|---2---------2---|
||------0---0-0---0-|-0---0-0-000---0-|


  E E E E E E E E   E E E E SSE SSE
|-----------------|-----------------|
|-----------------|-----------------|
|-----------------|-----------------|
|-----------------|-----------------|
|-7S9---9-----9---|---9-------------|
|-----0---0-0---0-|-0---0-0-000-000-|
|
| E E E E E E E E   E E E E SSE SSE
|-----------------|-----------------|
|-----------------|-----------------|
|-----------------|-----------------|
|-----------------|-----------------|
|-2p0---0-----0---|---0-------------|
|-----0---0-0---0-|-0---0-0-000-000-|


  E  E E  E E E  E E   E  E E E SSE  E E
|--------------------|-------------------|
|--------------------|-------------------|
|--------------------|-------------------|
|--------------------|-------------------|
|-9S10---10-----10---|---10---------10---|
|------0----0-0----0-|-0----0-0-000----0-|
|
| E  E E  E E E  E E   E  E E E SSE  E E
|--------------------|-------------------|
|--------------------|-------------------|
|--------------------|-------------------|
|--------------------|-------------------|
|-0h=3----3------3---|----3----------3---|
|------0----0-0----0-|-0----0-0-000----0-|



   E E E E E E E E   E E E E E  E  E E
|------------------|---------------------||
|------------------|--------------------o||
|------------------|---------------------||
|------------------|---------9-----------||
|-10S7---7-----7---|---7-------12-10-9--o||
|------0---0-0---0-|-0---0-0-------------||
|
|  E E E E E E E E   E E E E E  E  E E
|------------------|---------------------||
|------------------|--------------------o||
|------------------|---------------------||
|------------------|---------5--4--2-----||
|--3S2---2-----2---|---2-------------5--o||
|------0---0-0---0-|-0---0-0-------------||


    E E E E E E  E E   E E E E SSE E E
||-------------------|-----------------|
||o------------------|-----------------|
||-------------------|-----------------|
||-------------------|-----------------|
||o-5S7---7------7---|---7---------7---|
||------0---0-0----0-|-0---0-0-000---0-|
|
|   E E E E E Q.       E SSE E SSQ.
||-------------------|-----------------|
||o------------------|-----------------|
||-------------------|-----------------|
||-------------------|-----------------|
||o-2-2-2-2-2--------|---222-2-222-----|
||--0-0-0-0-0--------|---000-0-000-----|


  E E E E E E  E E   E E E E SSE SSE
|------------------|--------------------|
|------------------|--------------------|
|------------------|--------------------|
|------------------|--------------------|
|-7S9---9------9---|---9----------------|
|-----0---0-0----0-|-0---0-0-000--000---|
|
| E E E E E Q.       E S S E E S S Q.
|------------------|--------------------|
|------------------|--------------------|
|------------------|--------------------|
|------------------|--------------------|
|-4-4-4-4-4--------|---444-4-444--------|
|-2-2-2-2-2--------|---222-2-222--------|


  E  E E  E E E   E E   E  E E E SSE  E  E
|---------------------|--------------------|
|---------------------|--------------------|
|---------------------|--------------------|
|---------------------|--------------------|
|-9S10---10------10---|---10---------10----|
|------0----0-0-----0-|-0----0-0-000-----0-|
|
| E  E E  E E Q.        E  SSE E SSQ.
|---------------------|--------------------|
|---------------------|--------------------|
|---------------------|--------------------|
|---------------------|--------------------|
|-5--5-5--5-5---------|----555-5-555-------|
|-3--3-3--3-3---------|----333-3-333-------|


   E E E E E E  E E   E E E E E  E  E E
|-------------------|--------------------||
|-------------------|-------------------o||
|-------------------|--------------------||
|-------------------|---------9----------||
|-10S7---7------7---|---7-------12-10-9-o||
|------0---0-0----0-|-0---0-0------------||
|
|  E E E E E Q.       E SSE E E  E  E E
|-------------------|--------------------||
|-------------------|-------------------o||
|-------------------|--------------------||
|-------------------|---------5--4--2----||
|--2-2-2-2-2--------|---222-2---------5-o||
|--0-0-0-0-0--------|---000-0------------||


||||CHORUS||||

   PM-----------------------------------------------
   E  E E E  E  E  E  E    E   E  E  E  E  E  E  E
|-----------------------|--------------------------|
|-----------------------|--------------------------|
|-----------------12-12-|-11--11-------------------|
|-14-14-9-9-14-14-------|--------12-12-14-14-12-12-|
|-----------------------|--------------------------|
|-----------------------|--------------------------|
|
|                                             PM
|  W                       H.                 Q
|-----------------------|--------------------------|
|-----------------------|--------------------------|
|-----------------------|--7-----------------------|
|--2--------------------|--7-----------------------|
|--2--------------------|--5------------------0----|
|--0--------------------|---------------------0----|


 ---------------------------------------------|
   E  E E E  E  E E E    E   E  E  E  E  E  E  E
|---------------------|--------------------------|
|---------------------|--------------------------|
|---------------------|--------------------------|
|-14-14-9-9-14-14-9-9-|-12--12-------12-12-------|
|---------------------|--------10-10-------10-10-|
|---------------------|--------------------------|
|
|  W                    +W
|---------------------|--------------------------|
|---------------------|--------------------------|
|--5------------------|-(5)----------------------|
|--5------------------|-(5)----------------------|
|--3------------------|-(3)----------------------|
|---------------------|--------------------------|


   PM-----------------------------------------------
   E  E E E  E  E  E  E    E   E  E  E  E  E  E  E
|-----------------------|--------------------------|
|-----------------------|--------------------------|
|-----------------12-12-|-11--11-------------------|
|-14-14-9-9-14-14-------|--------12-12-14-14-12-12-|
|-----------------------|--------------------------|
|-----------------------|--------------------------|
|
|                                             PM
|  W                       H.                 Q
|-----------------------|--------------------------|
|-----------------------|--------------------------|
|-----------------------|--7-----------------------|
|--2--------------------|--7-----------------------|
|--2--------------------|--5------------------0----|
|--0--------------------|---------------------0----|


 ---------------------------------------------|
   E  E E E  E  E E E    E   E  E  E  E  E  E  E
|---------------------|--------------------------|
|---------------------|--------------------------|
|---------------------|--------------------------|
|-14-14-9-9-14-14-9-9-|-12--12-------12-12-------|
|---------------------|--------10-10-------10-10-|
|---------------------|--------------------------|
|
|  W                    +H            H
|---------------------|--------------------------|
|---------------------|--------------------------|
|--5------------------|-(5)-----------7----------|
|--5------------------|-(5)-----------7----------|
|--3------------------|-(3)-----------5----------|
|---------------------|--------------------------|


   PM-------------------------------------------------
   E  E E E  E  E  E  E    E   E  E  E  E  E  E  E
|-----------------------|----------------------------|
|-----------------------|----------------------------|
|-----------------12-12-|-11--11---------------------|
|-14-14-9-9-14-14-------|--------12-12-14-14-12-12---|
|-----------------------|----------------------------|
|-----------------------|----------------------------|
|
|                                             PM
|  W                       H.                 Q
|-----------------------|----------------------------|
|-----------------------|----------------------------|
|-----------------------|--7-------------------------|
|--2--------------------|--7-------------------------|
|--2--------------------|--5------------------0------|
|--0--------------------|---------------------0------|
|
| Gtr III
|  W                       H.                 Q
|-----------------------|----------------------------|
|-----------------------|----------------------------|
|-12--------------------|-11-------------------------|
|-----------------------|----------------------------|
|-10--------------------|--9------------------0------|
|-----------------------|---------------------0------|


 ---------------------------------------------|
   E  E E E  E  E E E    E   E  E  E  E  E  E  E
|---------------------|--------------------------|
|---------------------|--------------------------|
|---------------------|--------------------------|
|-14-14-9-9-14-14-9-9-|-12--12-------12-12-------|
|---------------------|--------10-10-------10-10-|
|---------------------|--------------------------|
|
|                               PM---------|
|  W                    +Q      Q     Q     Q
|---------------------|--------------------------|
|---------------------|--------------------------|
|--5------------------|-(5)----------------------|
|--5------------------|-(5)-----4-----5-----7----|
|--3------------------|-(3)-----2-----3-----5----|
|---------------------|---------2-----3-----5----|
|
|  H         H           H            H
|---------------------|--------------------------|
|------------8--------|--7-----------------------|
|--9------------------|---------------7----------|
|---------------------|--------------------------|
|--7------------------|--------------------------|
|---------------------|--------------------------|


   PM-----------------------------------------------
   E  E E E  E  E  E  E    E   E  E  E  E  E  E  E
|-----------------------|--------------------------|
|-----------------------|--------------------------|
|-----------------12-12-|-11--11-------------------|
|-14-14-9-9-14-14-------|--------12-12-14-14-12-12-|
|-----------------------|--------------------------|
|-----------------------|--------------------------|
|
|                                             PM
|  W                       H.                 Q
|-----------------------|--------------------------|
|-----------------------|--------------------------|
|-----------------------|--------------------------|
|--2--------------------|--4-----------------------|
|--2--------------------|--5------------------0----|
|--0--------------------|--2------------------0----|
|
|                                             PM
|  W                       H.                 Q
|-----------------------|--------------------------|
|-----------------------|--------------------------|
|--4--------------------|-11-----------------------|
|-----------------------|--9-----------------------|
|-----------------------|--9------------------0----|
|-----------------------|---------------------0----|

   E  E E E  E  E E E    E   E  E  E  E  E  E  E
|---------------------|--------------------------|
|---------------------|--------------------------|
|---------------------|--------------------------|
|-14-14-9-9-14-14-9-9-|-12--12-------12-12-------|
|---------------------|--------10-10-------10-10-|
|---------------------|--------------------------|
|
|                               PM---------|
|  W                    +Q      Q     Q     Q
|---------------------|--------------------------|
|---------------------|--------------------------|
|--5------------------|-(5)----------------------|
|--5------------------|-(5)-----4-----5-----7----|
|--3------------------|-(3)-----2-----3-----5----|
|--3------------------|-(3)-----2-----3-----5----|
|
|
|  H         H           H            H
|---------------------|--------------------------|
|---------------------|--------------------------|
|--9--------12--------|-11------------7----------|
|--9------------------|--------------------------|
|--7--------10--------|--9------------5----------|
|---------------------|--------------------------|


||||INTERLUDE (Intro Riff)||||

    E E E E  E E E E   E E E E  E  E E  E
||-------------------|--------------------|
||o------------------|--------------------|
||-------------------|--------------------|
||-------------------|--------------------|
||o-7-------10-9-7-9-|-5-------12-10-9-10-|
||----0-0-0----------|---0-0-0------------|
|
|   E E E E  E E E E   E E E E  E  E E  E
||-------------------|--------------------|
||o------------------|--------------------|
||-------------------|--------------------|
||-------------------|--------------------|
||o-2--------2-0-2-5-|-0--------0--2-5--2-|
||----0-0-0----------|---0-0-0------------|


  E E E E E  E  E  E   E  E E  E E  E  E E
|--------------------|--------------------|
|--------------------|--------------------|
|--------------------|--------------------|
|---------9----------|-9-10-9----9--------|
|-7---------12-10-12-|--------12---12-10-9|
|---0-0-0------------|--------------------|
|
| E E E E E  E  E  E   E  E E  E E  E  E E
|--------------------|--------------------|
|--------------------|--------------------|
|--------------------|----2---------------|
|---------5--4--2--4-|-5----5--4-5--4--2--|
|-3------------------|-------------------5|
|---0-0-0------------|--------------------|


  E E E E E E E E    E E E E  E E  E E    E E E E  E E  E E   Q  Q  Q  Q
|-----------------|--------------------|--------------------|--------------||
|-----------------|--------------------|--------------------|-------------o||
|-9-------9---9---|-11-------11---11---|-12-------12---12---|--------------||
|-9-------9---9---|--9--------9----9---|-12-------12---12---|-9--7--4--7---||
|-7-------7---7---|--9--------9----9---|-10-------10---10---|-7--5--2--5--o||
|---0-0-0---0---0-|----0-0-0----0----0-|----0-0-0----0----0-|--------------||
|
| E E E E E E E E    E E E E  E E  E E    E E E E  E E  E E   Q  Q  Q  Q
|-----------------|--------------------|--------------------|--------------||
|-----------------|--------------------|--------------------|-------------o||
|-----------------|--7--------7----7---|--9--------9----9---|--------------||
|-2-------2---2---|--7--------7----7---|--9--------9----9---|-9--7---------||
|-2-------2---2---|--5--------5----5---|--7--------7----7---|-7--5--5--7--o||
|-0-0-0-0-0-0-0-0-|----0-0-0----0----0-|----0-0-0----0----0-|-------3--5---||


||||SOLO||||

  H         Q     Q       H           Q     Q
|----------------------|----------------------------|
|----------------------|----------------------------|
|----------------------|----------------------------|
|-2---------4-----5----|--7-----------5S====4-------|
|-2---------2-----3----|--7-----------5S====4-------|
|-0--------------------|--5-----------3S====2-------|
|
| H         Q     Q       H           Q     Q
|----------------------|----------------------------|
|----------------------|----------------------------|
|----------------------|----------------------------|
|-2---------4-----5----|--7-----------5S====4-------|
|-2---------2-----3----|--7-----------5S====4-------|
|-0--------------------|--5-----------3S====2-------|
|
| Gtr III
| E  E E  E E  E  E  E    E  E  E  E  E  S  S  E  E
|----------------------|----------------------14-15-|
|----------------------|----------------15s17-------|
|----------------11-12-|-------16-17-14-------------|
|------9-10-9-14-------|----17----------------------|
|-7-10-----------------|-15-------------------------|
|----------------------|----------------------------|


   H           H             H           H
|-------------------------|----------------------------|
|-------------------------|----------------------------|
|-------------------------|----------------------------|
|--2-----------7----------|--5-----------7-------------|
|--2-----------7----------|--5-----------7-------------|
|--0-----------5----------|--3-----------5-------------|
|
|  H           H             H           H
|-------------------------|----------------------------|
|-------------------------|----------------------------|
|-------------------------|----------------------------|
|--2-----------7----------|--5-----------7-------------|
|--2-----------7----------|--5-----------7-------------|
|--0-----------5----------|--3-----------5-------------|
|
|  E  E  E  E  E  E  E  E    E  E  E  E  E  E  Q
|-12----12----14----10----|-15----19----17-------------|
|----12----12----10----10-|----15----15----17-19b20r===|
|-------------------------|----------------------------|
|-------------------------|----------------------------|
|-------------------------|----------------------------|
|-------------------------|----------------------------|


  H         Q     Q       H           Q        Q
|----------------------|----------------------------|
|----------------------|----------------------------|
|----------------------|----------------------------|
|-2---------4-----5----|--7-----------5S=======4----|
|-2---------2-----3----|--7-----------5S=======4----|
|-0--------------------|--5-----------3S=======2----|
|
| H         Q     Q       H           Q        Q
|----------------------|----------------------------|
|----------------------|----------------------------|
|----------------------|----------------------------|
|-2---------4-----5----|--7-----------5S=======4----|
|-2---------2-----3----|--7-----------5S=======4----|
|-0--------------------|--5-----------3S=======2----|
|
| E  E E  E E  E  E  E    E  E  E  E  E  S  S  E  E
|----------------------|----------------------14-15-|
|----------------------|----------------15s17-------|
|----------------11-12-|-------16-17-14-------------|
|------9-10-9-14-------|----17----------------------|
|-7-10-----------------|-15-------------------------|
|----------------------|----------------------------|


   H           H             H           H
|-------------------------|----------------------------|
|-------------------------|----------------------------|
|-------------------------|----------------------------|
|--2-----------7----------|--5-----------7-------------|
|--2-----------7----------|--5-----------7-------------|
|--0-----------5----------|--3-----------5-------------|
|
|  H           H             H           H
|-------------------------|----------------------------|
|-------------------------|----------------------------|
|-------------------------|----------------------------|
|--2-----------7----------|--5-----------7-------------|
|--2-----------7----------|--5-----------7-------------|
|--0-----------5----------|--3-----------5-------------|
|
|  E  E  E  E  E  E  E  E    E  E  E  E  E  E  Q
|-12----12----14----10----|-15----19----17----20b22r===|
|----12----12----10----10-|----15----15----17----------|
|-------------------------|----------------------------|
|-------------------------|----------------------------|
|-------------------------|----------------------------|
|-------------------------|----------------------------|


   H                 Q        Q          H                 Q     Q
|-------------------------------------|-------------------------------------|
|-------------------------------------|-------------------------------------|
|-------------------------------------|-------------------------------------|
|--2-----------------4--------5-------|--7-----------------5S====4----------|
|--2-----------------2--------3-------|--7-----------------5S====4----------|
|--0----------------------------------|--5-----------------3S====2----------|
|
|  H                 Q        Q          H                 Q     Q
|-------------------------------------|-------------------------------------|
|-------------------------------------|-------------------------------------|
|-------------------------------------|-------------------------------------|
|--2-----------------4--------5-------|--7-----------------5S====4----------|
|--2-----------------2--------3-------|--7-----------------5S====4----------|
|--0----------------------------------|--5-----------------3S====2----------|
|
|  |--3--|  |--3--|  |--3--|  |--3--|    |--3--|  |--3--|  |--3--|  |--3--|
|  E  E  E  E  E  E  E  E  E  E  E  E    E  E  E  E  E  E  E  E  E  E  E  E
|-15-14----------14-19-15----------15-|-17-12----------12-15-14----------14-|
|-------17----17----------17----17----|-------15----15----------15----15----|
|----------16----------------16-------|----------14----------------14-------|
|-------------------------------------|-------------------------------------|
|-------------------------------------|-------------------------------------|
|-------------------------------------|-------------------------------------|


   H           H                         H           H
|-------------------------------------|----------------------------------|
|-------------------------------------|----------------------------------|
|-------------------------------------|----------------------------------|
|--2-----------7----------------------|--5-----------7-------------------|
|--2-----------7----------------------|--5-----------7-------------------|
|--0-----------5----------------------|--3-----------5-------------------|
|
|  H           H                         H           H
|-------------------------------------|----------------------------------|
|-------------------------------------|----------------------------------|
|-------------------------------------|----------------------------------|
|--2-----------7----------------------|--5-----------7-------------------|
|--2-----------7----------------------|--5-----------7-------------------|
|--0-----------5----------------------|--3-----------5-------------------|
|
|                                                                   ~~
|  |--3--|  |--3--|  |--3--|  |--3--|    |--3--|  |--3--|  |--3--|
|  E  E  E  E  E  E  E  E  E  E  E  E    E  E  E  E  E  E  E  E  E  Q
|-19-15----------15-17-15----------15-|-19-15----20-15----19-15----17----|
|-------17----17----------17----17----|-------17-------17-------17-------|
|----------16----------------16-------|----------------------------------|
|-------------------------------------|----------------------------------|
|-------------------------------------|----------------------------------|
|-------------------------------------|----------------------------------|


   H                 Q        Q          H                 Q        Q
|-------------------------------------|-------------------------------------|
|-------------------------------------|-------------------------------------|
|-------------------------------------|-------------------------------------|
|--2-----------------4--------5-------|--7-----------------5S=======4-------|
|--2-----------------2--------3-------|--7-----------------5S=======4-------|
|--0----------------------------------|--5-----------------3S=======2-------|
|
|  H                 Q        Q          H                 Q        Q
|-------------------------------------|-------------------------------------|
|-------------------------------------|-------------------------------------|
|-------------------------------------|-------------------------------------|
|--2-----------------4--------5-------|--7-----------------5S=======4-------|
|--2-----------------2--------3-------|--7-----------------5S=======4-------|
|--0----------------------------------|--5-----------------3S=======2-------|
|
|  |--3--|  |--3--|  |--3--|  |--3--|    |--3--|  |--3--|  |--3--|  |--3--|
|  E  E  E  E  E  E  E  E  E  E  E  E    E  E  E  E  E  E  E  E  E  E  E  E
|-15-14----------14-19-15----------15-|-17-12----------12-15-14----------14-|
|-------17----17----------17----17----|-------15----15----------15----15----|
|----------16----------------16-------|----------14----------------14-------|
|-------------------------------------|-------------------------------------|
|-------------------------------------|-------------------------------------|
|-------------------------------------|-------------------------------------|


   H                 H                   H                 H
|-------------------------------------|--------------------------------|
|-------------------------------------|--------------------------------|
|-------------------------------------|--------------------------------|
|--2-----------------7----------------|--5-----------------7-----------|
|--2-----------------7----------------|--5-----------------7-----------|
|--0-----------------5----------------|--3-----------------5-----------|
|
|  H                 H                   H                 H
|-------------------------------------|--------------------------------|
|-------------------------------------|--------------------------------|
|-------------------------------------|--------------------------------|
|--2-----------------7----------------|--5-----------------7-----------|
|--2-----------------7----------------|--5-----------------7-----------|
|--0-----------------5----------------|--3-----------------5-----------|
|
|                                                                   ~~
|  |--3--|  |--3--|  |--3--|  |--3--|    |--3--|  |--3--|  |--3--|
|  E  E  E  E  E  E  E  E  E  E  E  E    E  E  E  E  E  E  E  E  E  Q
|-19-15----------15-17-15----------15-|-19-15----20-15----19-15----17--|
|-------17----17----------17----17----|-------17-------17-------17-----|
|----------16----------------16-------|--------------------------------|
|-------------------------------------|--------------------------------|
|-------------------------------------|--------------------------------|
|-------------------------------------|--------------------------------|


   Q        Q     Q        Q
|-------------------------------|
|-------------------------------|
|-------------------------------|
|--5--------------7-------------|
|--5--------------7-------------|
|--3--------------5-------------|
|
|  Q        Q     Q        Q
|-------------------------------|
|-------------------------------|
|-------------------------------|
|--5--------------7-------------|
|--5--------------7-------------|
|--3--------------5-------------|
|
|  S  S  E  E  E  S  S  E  E  E
|-------------------------------|
|-------------------------------|
|-11-12-11-------16-17-16-------|
|----------14-12----------17-16-|
|-------------------------------|
|-------------------------------|
|
|  S  S  E  E  E  S  S  E  E  E
|-------------------------------|
|-------------------------------|
|-------------------------------|
|-12-14-12-------17-19-17-------|
|----------15-14----------19-17-|
|-------------------------------|

                                         PM
   W                  H.                 Q
|------------------|--------------------------|
|------------------|--------------------------|
|------------------|--7-----------------------|
|--2---------------|--7-----------------------|
|--2---------------|--5------------------0----|
|--0---------------|---------------------0----|
|
|                                        PM
|  W                  H.                 Q
|------------------|--------------------------|
|------------------|--------------------------|
|------------------|--7-----------------------|
|--2---------------|--7-----------------------|
|--2---------------|--5------------------0----|
|--0---------------|---------------------0----|
|
|  ~~~                ~~~~~~~~~
|  H.      S  S  E    H    +E.  S  S  S  S  S
|------------------|--------------------------|
|------------------|-15---(15)----------12-15-|
|-16------14-12-14-|-----------11-12S14-------|
|------------------|--------------------------|
|------------------|--------------------------|
|------------------|--------------------------|


   W                     +W
|----------------------|----------------------------|
|----------------------|----------------------------|
|--5-------------------|-(5)------------------------|
|--5-------------------|-(5)------------------------|
|--3-------------------|-(3)------------------------|
|----------------------|----------------------------|
|
|  W                     +W
|----------------------|----------------------------|
|----------------------|----------------------------|
|--5-------------------|-(5)------------------------|
|--5-------------------|-(5)------------------------|
|--3-------------------|-(3)------------------------|
|----------------------|----------------------------|
|
|                             |--3--|
|  H     +Q       E  E    Q   E  E  E  Q   +Q
|-14----(14)b15r=======|============================|
|----------------15-17-|----------------------------|
|----------------------|-16--16S14-12-14--(14)b16r==|
|----------------------|----------------------------|
|----------------------|----------------------------|
|----------------------|----------------------------|


                                                  PM
   W                            H.                Q
|----------------------------|-------------------------|
|----------------------------|-------------------------|
|----------------------------|--7----------------------|
|--2-------------------------|--7----------------------|
|--2-------------------------|--5-----------------0----|
|--0-------------------------|--------------------0----|
|
|                                                 PM
|  W                            H.                Q
|----------------------------|-------------------------|
|----------------------------|-------------------------|
|----------------------------|--7----------------------|
|--2-------------------------|--7----------------------|
|--2-------------------------|--5-----------------0----|
|--0-------------------------|--------------------0----|
|
|  |--3--|                                   |---3---|
|  Q  Q  Q  E  +Q       S  S    E   E  E  E  Q  Q    Q
|----------------------------|--------------14-15---17-|
|----------------------------|--------12-15------------|
|-16-------------------------|-12--14------------------|
|----17-16-17-(17)b19r=12-14-|-------------------------|
|----------------------------|-------------------------|
|----------------------------|-------------------------|


   W                   +H        H
|--------------------|----------------------------------|
|--------------------|----------------------------------|
|--5-----------------|-(5)-------7----------------------|
|--5-----------------|-(5)-------7----------------------|
|--3-----------------|-(3)-------5----------------------|
|--------------------|----------------------------------|
|
|  W                   +H        H
|--------------------|----------------------------------|
|--------------------|----------------------------------|
|--5-----------------|-(5)-------7----------------------|
|--5-----------------|-(5)-------7----------------------|
|--3-----------------|-(3)-------5----------------------|
|--------------------|----------------------------------|
|
|           |--3--|
|  H        Q  Q  Q     H        S  S  S  S  S  S  S  S
|-12b14----14-15-17--|-12b14r===10h12p10h12p10h12p10h12-|
|--------------------|----------------------------------|
|--------------------|----------------------------------|
|--------------------|----------------------------------|
|--------------------|----------------------------------|
|--------------------|----------------------------------|


                                                            PM
  W                             H.                          Q
|-----------------------------|-------------------------------------|
|-----------------------------|-------------------------------------|
|-----------------------------|-7-----------------------------------|
|-2---------------------------|-7-----------------------------------|
|-2---------------------------|-5---------------------------0-------|
|-0---------------------------|-----------------------------0-------|
|
|                                                           PM
  W                             H.                          Q
|-----------------------------|-------------------------------------|
|-----------------------------|-------------------------------------|
|-----------------------------|-7-----------------------------------|
|-2---------------------------|-7-----------------------------------|
|-2---------------------------|-5---------------------------0-------|
|-0---------------------------|-----------------------------0-------|
|
| |-3--| |-3--| |-3--| |-3--|   |--3---|  |--3--|  |--3--|  |--3--|
| E E  E E E  E E E  E E E  E   E   E  E  E  E  E  E  E  E  E  E  E
|-----------------------------|----------------------------10-12-14-|
|-----------------------------|----------10-12-13-10-12-13----------|
|----------------------7-9-11-|-9--11-12----------------------------|
|--------7-9-10-7-9-10--------|-------------------------------------|
|-7-9-10----------------------|-------------------------------------|
|-----------------------------|-------------------------------------|


                                               PM---------------|
   W                                    +Q     Q     Q           Q
|-------------------------------------|----------------------------------------|
|-------------------------------------|----------------------------------------|
|--5----------------------------------|-(5)------------------------------------|
|--5----------------------------------|-(5)----4-----5-----------7-------------|
|--3----------------------------------|-(3)----2-----3-----------5-------------|
|-------------------------------------|--------2-----3-----------5-------------|
|
|                                              PM---------------|
|  W                                    +Q     Q     Q           Q
|-------------------------------------|----------------------------------------|
|-------------------------------------|----------------------------------------|
|--5----------------------------------|-(5)------------------------------------|
|--5----------------------------------|-(5)----4-----5-----------7-------------|
|--3----------------------------------|-(3)----2-----3-----------5-------------|
|-------------------------------------|--------2-----3-----------5-------------|
|
|  |--3--|  |--3--|  |--3--|  |--3--|
|  E  E  E  E  E  E  E  E  E  E  E  E    Q.       E  S  S  S  S  S  S  S  S
|-12----12-14-12----15-12----17-12-19-|-17b19----20-17h19p17h19p17h19p17h19----|
|----12----------12-------12----------|----------------------------------------|
|-------------------------------------|----------------------------------------|
|-------------------------------------|----------------------------------------|
|-------------------------------------|----------------------------------------|
|-------------------------------------|----------------------------------------|


                                                PM
   W                         H.                 Q
|-------------------------|--------------------------|
|-------------------------|--------------------------|
|-------------------------|--------------------------|
|--2----------------------|--4-----------------------|
|--2----------------------|--5------------------0----|
|--0----------------------|--2------------------0----|
|
|  W                         H.                 Q
|-------------------------|--------------------------|
|-------------------------|--------------------------|
|-------------------------|--------------------------|
|--2----------------------|--4-----------------------|
|--2----------------------|--5------------------0----|
|--0----------------------|--2------------------0----|
|
|  E  E  E  E  E  E  E  E    E   E  E  E  E  E  E  E
|-19----------15----12----|-17-----------14----------|
|-------17----------------|--------15----------15----|
|----16----16----12----12-|-----14----14----11----11-|
|-------------------------|--------------------------|
|-------------------------|--------------------------|
|-------------------------|--------------------------|


                                    PM---------|
   W                        +Q      Q     Q     Q
|-------------------------|---------------------------|
|-------------------------|---------------------------|
|--5----------------------|-(5)-----------------------|
|--5----------------------|-(5)-----4-----5-----7-----|
|--3----------------------|-(3)-----2-----3-----5-----|
|--3----------------------|-(3)-----2-----3-----5-----|
|
|                                   PM---------|
|  W                        +Q      Q     Q     Q
|-------------------------|---------------------------|
|-------------------------|---------------------------|
|--5----------------------|-(5)-----------------------|
|--5----------------------|-(5)-----4-----5-----7-----|
|--3----------------------|-(3)-----2-----3-----5-----|
|--3----------------------|-(3)-----2-----3-----5-----|
|
|                                               ~~~~~
|  E  E  E  E  E  E  E  E    E   E  E  E  E  E  Q
|-15----12----14----------|-----------12-------14b15--|
|-------------------15----|--------13----15-----------|
|----12----12----11----11-|-----12----------14--------|
|-------------------------|-14------------------------|
|-------------------------|---------------------------|
|-------------------------|---------------------------|


||||VERSE 3||||

   E E E E E E E E    E E E E SSE E E
||------------------|-----------------|
||o-----------------|-----------------|
||------------------|-----------------|
||------------------|-----------------|
||o-5S7---7-----7---|---7---------7---|
||------0---0-0---0-|-0---0-0-000---0-|
|
|   E E E E E E E E   E E E E SSE E E
||------------------|-----------------|
||o-----------------|-----------------|
||------------------|-----------------|
||------------------|-----------------|
||o-0h2---2-----2---|---2---------2---|
||------0---0-0---0-|-0---0-0-000---0-|
|
|    +W                 +W
||--(14)-------------|-(14)--------------|
||-------------------|-------------------|
||-------------------|-------------------|
||-------------------|-------------------|
||-------------------|-------------------|
||-------------------|-------------------|


  E E E E E E E E   E E E E SSE SSE
|-----------------|-----------------|
|-----------------|-----------------|
|-----------------|-----------------|
|-----------------|-----------------|
|-7S9---9-----9---|---9-------------|
|-----0---0-0---0-|-0---0-0-000-000-|
|
| E E E E E E E E   E E E E SSE SSE
|-----------------|-----------------|
|-----------------|-----------------|
|-----------------|-----------------|
|-----------------|-----------------|
|-2p0---0-----0---|---0-------------|
|-----0---0-0---0-|-0---0-0-000-000-|


  E  E E  E E E  E E   E  E E E SSE  E E
|--------------------|-------------------|
|--------------------|-------------------|
|--------------------|-------------------|
|--------------------|-------------------|
|-9S10---10-----10---|---10---------10---|
|------0----0-0----0-|-0----0-0-000----0-|
|
| E  E E  E E E  E E   E  E E E SSE  E E
|--------------------|-------------------|
|--------------------|-------------------|
|--------------------|-------------------|
|--------------------|-------------------|
|-0h=3----3------3---|----3----------3---|
|------0----0-0----0-|-0----0-0-000----0-|


   E E E E E E E E   E E E E E  E  E E
|------------------|---------------------||
|------------------|--------------------o||
|------------------|---------------------||
|------------------|---------9-----------||
|-10S7---7-----7---|---7-------12-10-9--o||
|------0---0-0---0-|-0---0-0-------------||
|
|  E E E E E E E E   E E E E E  E  E E
|------------------|---------------------||
|------------------|--------------------o||
|------------------|---------------------||
|------------------|---------5--4--2-----||
|--3S2---2-----2---|---2-------------5--o||
|------0---0-0---0-|-0---0-0-------------||


    E E E E E E  E E   E E E E SSE E E
|-------------------|-----------------|
|-------------------|-----------------|
|-------------------|-----------------|
|-------------------|-----------------|
|--5S7---7------7---|---7---------7---|
|------0---0-0----0-|-0---0-0-000---0-|
|
|   E E E E E Q.       E SSE E SSQ.
|-------------------|-----------------|
|-------------------|-----------------|
|-------------------|-----------------|
|-------------------|-----------------|
|--2-2-2-2-2--------|---222-2-222-----|
|--0-0-0-0-0--------|---000-0-000-----|


  E E E E E E  E E   E E E E SSE SSE
|------------------|--------------------|
|------------------|--------------------|
|------------------|--------------------|
|------------------|--------------------|
|-7S9---9------9---|---9----------------|
|-----0---0-0----0-|-0---0-0-000--000---|
|
| E E E E E Q.       E S S E E S S Q.
|------------------|--------------------|
|------------------|--------------------|
|------------------|--------------------|
|------------------|--------------------|
|-4-4-4-4-4--------|---444-4-444--------|
|-2-2-2-2-2--------|---222-2-222--------|


  E  E E  E E E   E E   E  E E E SSE  E  E
|---------------------|--------------------|
|---------------------|--------------------|
|---------------------|--------------------|
|---------------------|--------------------|
|-9S10---10------10---|---10---------10----|
|------0----0-0-----0-|-0----0-0-000-----0-|
|
| E  E E  E E Q.        E  SSE E SSQ.
|---------------------|--------------------|
|---------------------|--------------------|
|---------------------|--------------------|
|---------------------|--------------------|
|-5--5-5--5-5---------|----555-5-555-------|
|-3--3-3--3-3---------|----333-3-333-------|


   E E E E E E  E E   E E E E E  E  E E
|-------------------|--------------------|
|-------------------|--------------------|
|-------------------|--------------------|
|-------------------|---------9----------|
|-10S7---7------7---|---7-------12-10-9--|
|------0---0-0----0-|-0---0-0------------|
|
|  E E E E E Q.       E SSE E E  E  E E
|-------------------|--------------------|
|-------------------|--------------------|
|-------------------|--------------------|
|-------------------|---------5--4--2----|
|--2-2-2-2-2--------|---222-2---------5--|
|--0-0-0-0-0--------|---000-0------------|


||||CHORUS||||

     PM----------------------------------------------
     E  E E E  E  E  E  E    E  E  E  E  E  E  E  E
||------------------------|-------------------------|
||o-----------------------|-------------------------|
||------------------12-12-|-11-11-------------------|
||--14-14-9-9-14-14-------|-------12-12-14-14-12-12-|
||o-----------------------|-------------------------|
||------------------------|-------------------------|
|
|    PM----------------------------------------------
|    E  E E E  E  E  E  E    E  E  E  E  E  E  E  E
||------------------------|-------------------------|
||o-----------------------|-------------------------|
||------------------12-12-|-11-11-------------------|
||--14-14-9-9-14-14-------|-------12-12-14-14-12-12-|
||o-----------------------|-------------------------|
||------------------------|-------------------------|


 --------------------------------------------|
   E  E E E  E  E E E    E  E  E  E  E  E  E  E
|---------------------|---------------------------||
|---------------------|--------------------------o||
|---------------------|---------------------------||
|-14-14-9-9-14-14-9-9-|-12-12-------12-12---------||
|---------------------|-------10-10-------10-10--o||
|---------------------|---------------------------||
|
|--------------------------------------------|
|  E  E E E  E  E E E    E  E  E  E  E  E  E  E
|---------------------|---------------------------||
|---------------------|--------------------------o||
|---------------------|---------------------------||
|-14-14-9-9-14-14-9-9-|-12-12-------12-12---------||
|---------------------|-------10-10-------10-10--o||
|---------------------|---------------------------||


   PM----------------------------------------------
   E  E E E  E  E  E  E    E  E  E  E  E  E  E  E
|-----------------------|-------------------------|
|-----------------------|-------------------------|
|-----------------12-12-|-11-11-------------------|
|-14-14-9-9-14-14-------|-------12-12-14-14-12-12-|
|-----------------------|-------------------------|
|-----------------------|---------
45 comments total. Showing first comments.
+2 reply
SG RocKeR4485 wrote on October 10 2008, 10:38 pm

i think i will run out of ink if i print this

+4 reply
AsianPirate wrote on October 13 2008, 07:42 pm

hey man- awesome tab, but can i make a request...

can you put in labels for chorus, verse, etc? it's a little tough to just jump to a part.

thanks!

+2 reply
surgikal wrote on October 15 2008, 08:33 pm

awesome tab dude..5 stars ez..

I want to post or [tab]
guest
You may want to rate the tab now too:
select rating
Please do not post tabs as comments. Select "correction" instead!