Oops, an error
Loading. Please wait.

Two Weeks Tab

ver3
ver3
More versions @911Tabs.com
24,886 views 21 this week
7 commentsread comments
1 2 3 4 5
excellent!
x 4
Autoscroll
+/-
esc
set tempo
stop
Hey! There's an official Ultimate Guitar app which is ideal
for learning songs when you're away from computer. Get the app
WARNING: You are trying to view
                                    content from Ultimate-Guitar.com
                                    in an unauthorized application,
                                    which is prohibited.

                                    Please use an official Ultimate
                                    Guitar Tabs application for iPhone,
                                    iPad or Android to access legitimate
                                    chords, guitar, bass, and drum tabs
                                    from Ultimate-Guitar.com database.

                                    Type "ultimate guitar tabs" in Apple
                                    App Store's or Android Market's
                                    search to find the application.
Two Weeks- All That Remains (C# F# B E G# C#)Q=224 4/4
This all 1 guitar, basically the part i play in my band

|------------------|--------------------|
|------------------|--------------------|
|------------------|--------------------|
|------------------|--------------------|
|-7-------10-9-7-9-|-5-------12-10-9-10-|
|---0-0-0----------|---0-0-0------------|

|--------------------|----------------------|
|--------------------|----------------------|
|--------------------|----------------------|
|---------9----------|-9-10-9----9----------|
|-7---------12-10-12-|--------12---12-10-9--|
|---0-0-0------------|----------------------|

|-------------------|-----------------|
|-------------------|-----------------|
|-------------------|-----------------|
|-------------------|-----------------|
|---5S7---7-----7---|---7---------7---|
|-------0---0-0---0-|-0---0-0-000---0-|

|-----------------|-----------------|
|-----------------|-----------------|
|-----------------|-----------------|
|-----------------|-----------------|
|-7S9---9-----9---|---9-------------|
|-----0---0-0---0-|-0---0-0-000-000-|


|--------------------|-------------------|
|--------------------|-------------------|
|--------------------|-------------------|
|--------------------|-------------------|
|-9S10---10-----10---|---10---------10---|
|------0----0-0----0-|-0----0-0-000----0-|

|------------------|--------------------|
|------------------|--------------------|
|------------------|--------------------|
|------------------|---------9----------|
|-10S7---7-----7---|---7-------12-10-9--|
|------0---0-0---0-|-0---0-0------------|

|-----------------|-----------------|-----------------|------------------|
|-----------------|-----------------|-----------------|------------------|
|-----------------|-----------------|-----------------|------------------|
|-----------------|-----------------|-----------------|------------------|
|-5S7---7-----7---|---7---------7---|-7S9---9-----9---|---9--------------|
|-----0---0-0---0-|-0---0-0-000---0-|-----0---0-0---0-|-0---0-0-000-000--|

|--------------------|-------------------|
|--------------------|-------------------|
|--------------------|-------------------|
|--------------------|-------------------|
|-9S10---10-----10---|---10---------10---|
|------0----0-0----0-|-0----0-0-000----0-|

|------------------|--------------------|
|------------------|--------------------|
|------------------|--------------------|
|------------------|---------9----------|
|-10S7---7-----7---|---7-------12-10-9--|
|------0---0-0---0-|-0---0-0------------|

VERSE & $
||------------------|-----------------|
||o-----------------|-----------------|
||------------------|-----------------|
||------------------|-----------------|
||o-5S7---7-----7---|---7---------7---|
||------0---0-0---0-|-0---0-0-000---0-|

|-----------------|-----------------|
|-----------------|-----------------|
|-----------------|-----------------|
|-----------------|-----------------|
|-7S9---9-----9---|---9-------------|
|-----0---0-0---0-|-0---0-0-000-000-|

|--------------------|-------------------|
|--------------------|-------------------|
|--------------------|-------------------|
|--------------------|-------------------|
|-9S10---10-----10---|---10---------10---|
|------0----0-0----0-|-0----0-0-000----0-|

|------------------|---------------------||
|------------------|--------------------o||
|------------------|---------------------||
|------------------|---------9-----------||
|-10S7---7-----7---|---7-------12-10-9--o||
|------0---0-0---0-|-0---0-0-------------||


Pre-chorus 3rd time no repeat
||-------------------|-----------------|
||o------------------|-----------------|
||-------------------|-----------------|
||-------------------|-----------------|
||o-5S7---7------7---|---7---------7---|
||------0---0-0----0-|-0---0-0-000---0-|

|------------------|--------------------|
|------------------|--------------------|
|------------------|--------------------|
|------------------|--------------------|
|-7S9---9------9---|---9----------------|
|-----0---0-0----0-|-0---0-0-000--000---|

|---------------------|--------------------|
|---------------------|--------------------|
|---------------------|--------------------|
|---------------------|--------------------|
|-9S10---10------10---|---10---------10----|
|------0----0-0-----0-|-0----0-0-000-----0-|

|-------------------|--------------------||
|-------------------|-------------------o||
|-------------------|--------------------||
|-------------------|---------9----------||
|-10S7---7------7---|---7-------12-10-9-o||
|------0---0-0----0-|-0---0-0------------||

CHORUS % @
   PM-----------------------------------------------
|-----------------------|--------------------------|
|-----------------------|--------------------------|
|-----------------12-12-|-11--11-------------------|
|-14-14-9-9-14-14-------|--------12-12-14-14-12-12-|
|-----------------------|--------------------------|
|-----------------------|--------------------------|

 ---------------------------------------------|
|---------------------|--------------------------|
|---------------------|--------------------------|
|---------------------|--------------------------|
|-14-14-9-9-14-14-9-9-|-12--12-------12-12-------|
|---------------------|--------10-10-------10-10-|
|---------------------|--------------------------|

   PM-----------------------------------------------
|-----------------------|--------------------------|
|-----------------------|--------------------------|
|-----------------12-12-|-11--11-------------------|
|-14-14-9-9-14-14-------|--------12-12-14-14-12-12-|
|-----------------------|--------------------------|
|-----------------------|--------------------------|

 ---------------------------------------------|
|---------------------|--------------------------|
|---------------------|--------------------------|
|---------------------|--------------------------|
|-14-14-9-9-14-14-9-9-|-12--12-------12-12-------|
|---------------------|--------10-10-------10-10-|
|---------------------|--------------------------|

   PM-----------------------------------------------
|-----------------------|--------------------------|
|-----------------------|--------------------------|
|-----------------12-12-|-11--11-------------------|
|-14-14-9-9-14-14-------|--------12-12-14-14-12-12-|
|-----------------------|--------------------------|
|-----------------------|--------------------------|

 ---------------------------------------------|
|---------------------|--------------------------|
|---------------------|--------------------------|
|---------------------|--------------------------|
|-14-14-9-9-14-14-9-9-|-12--12-------12-12-------|
|---------------------|--------10-10-------10-10-|
|---------------------|--------------------------|

   PM-----------------------------------------------
|-----------------------|--------------------------|
|-----------------------|--------------------------|
|-----------------12-12-|-11--11-------------------|
|-14-14-9-9-14-14-------|--------12-12-14-14-12-12-|
|-----------------------|--------------------------|
|-----------------------|--------------------------|
                       Dont't play this bar 3rd time 
|---------------------|--------------------------|&
|---------------------|--------------------------|@
|---------------------|--------------------------|%
|-14-14-9-9-14-14-9-9-|-12--12-------12-12-------|
|---------------------|--------10-10-------10-10-|±
|---------------------|--------------------------|

INTERLUDE
||-------------------|--------------------|
||o------------------|--------------------|
||-------------------|--------------------|
||-------------------|--------------------|
||o-7-------10-9-7-9-|-5-------12-10-9-10-|
||----0-0-0----------|---0-0-0------------|

|-----------------|--------------------|--------------------|-------------|
|-----------------|--------------------|--------------------|------------o|
|-9-------9---9---|-11-------11---11---|-12-------12---12---|-------------|
|-9-------9---9---|--9--------9----9---|-12-------12---12---|-9--7--4--7--|
|-7-------7---7---|--9--------9----9---|-10-------10---10---|-7--5--2--5-o|
|---0-0-0---0---0-|----0-0-0----0----0-|----0-0-0----0----0-|-------------|

SOLO
|----------------------|----------------------14-15-|
|----------------------|----------------15s17-------|
|----------------11-12-|-------16-17-14-------------|
|------9-10-9-14-------|----17----------------------|
|-7-10-----------------|-15-------------------------|
|----------------------|----------------------------|

|-12----12----14----10----|-15----19----17-------------|
|----12----12----10----10-|----15----15----17-19b20r===|
|-------------------------|----------------------------|
|-------------------------|----------------------------|
|-------------------------|----------------------------|
|-------------------------|----------------------------|

|----------------------|----------------------14-15-|
|----------------------|----------------15s17-------|
|----------------11-12-|-------16-17-14-------------|
|------9-10-9-14-------|----17----------------------|
|-7-10-----------------|-15-------------------------|
|----------------------|----------------------------|

|-12----12----14----10----|-15----19----17----20b22r===|
|----12----12----10----10-|----15----15----17----------|
|-------------------------|----------------------------|
|-------------------------|----------------------------|
|-------------------------|----------------------------|
|-------------------------|----------------------------|

|-15-14----------14-19-15----------15-|-17-12----------12-15-14----------14|
|-------17----17----------17----17----|-------15----15----------15----15---|
|----------16----------------16-------|----------14----------------14------|
|-------------------------------------|------------------------------------|
|-------------------------------------|------------------------------------|
|-------------------------------------|------------------------------------|

|-19-15----------15-17-15----------15-|-19-15----20-15----19-15----17----|
|-------17----17----------17----17----|-------17-------17-------17-------|
|----------16----------------16-------|----------------------------------|
|-------------------------------------|----------------------------------|
|-------------------------------------|----------------------------------|
|-------------------------------------|----------------------------------|


 
|-15-14----------14-19-15----------15-|-17-12----------12-15-14----------14|
|-------17----17----------17----17----|-------15----15----------15----15---|
|----------16----------------16-------|----------14----------------14------|
|-------------------------------------|------------------------------------|
|-------------------------------------|------------------------------------|
|-------------------------------------|------------------------------------|

|-19-15----------15-17-15----------15-|-19-15----20-15----19-15----17--|
|-------17----17----------17----17----|-------17-------17-------17-----|
|----------16----------------16-------|--------------------------------|
|-------------------------------------|--------------------------------|
|-------------------------------------|--------------------------------|
|-------------------------------------|--------------------------------|

|-------------------------------|
|-------------------------------|
|-11-12-11-------16-17-16-------|
|----------14-12----------17-16-|
|-------------------------------|
|-------------------------------|

|------------------|--------------------------|
|------------------|-15---(15)----------12-15-|
|-16------14-12-14-|-----------11-12S14-------|
|------------------|--------------------------|
|------------------|--------------------------|
|------------------|--------------------------|

|-14----(14)b15r=======|============================|
|----------------15-17-|----------------------------|
|----------------------|-16--16S14-12-14--(14)b16r==|
|----------------------|----------------------------|
|----------------------|----------------------------|
|----------------------|----------------------------|

|----------------------------|--------------14-15---17-|
|----------------------------|--------12-15------------|
|-16-------------------------|-12--14------------------|
|----17-16-17-(17)b19r=12-14-|-------------------------|
|----------------------------|-------------------------|
|----------------------------|-------------------------|

|-12b14----14-15-17--|-12b14r===10h12p10h12p10h12p10h12-|
|--------------------|----------------------------------|
|--------------------|----------------------------------|
|--------------------|----------------------------------|
|--------------------|----------------------------------|
|--------------------|----------------------------------|

|-----------------------------|----------------------------10-12-14-|
|-----------------------------|----------10-12-13-10-12-13----------|
|----------------------7-9-11-|-9--11-12----------------------------|
|--------7-9-10-7-9-10--------|-------------------------------------|
|-7-9-10----------------------|-------------------------------------|
|-----------------------------|-------------------------------------|

|-12----12-14-12----15-12----17-12-19-|-17b19--20-17h19p17h19p17h19p17h19-|
|----12----------12-------12----------|-----------------------------------|
|-------------------------------------|-----------------------------------|
|-------------------------------------|-----------------------------------|
|-------------------------------------|-----------------------------------|
|-------------------------------------|-----------------------------------|

|-19----------15----12----|-17-----------14----------|
|-------17----------------|--------15----------15----|
|----16----16----12----12-|-----14----14----11----11-|
|-------------------------|--------------------------|
|-------------------------|--------------------------|
|-------------------------|--------------------------|
                                                  $
|-15----12----14----------|-----------12-------14b15--|
|-------------------15----|--------13----15-----------|
|----12----12----11----11-|-----12----------14--------|
|-------------------------|-14------------------------|
|-------------------------|---------------------------|
|-------------------------|---------------------------|

OUTRO ±
|-------------|------------|----------|------*|
|-------------|------------|----------|------*|
|-------------|------------|----------|------*|
|-4--5--4--7--|-9\---------|----------|------*|
|-2--3--2--5--|-7----------|----------|------*|
|-------------|------------|----------|------*|
comments
print report bad tab
7 comments total. Showing first comments.
0 reply
pointoauthority wrote on May 25 2009, 10:11 pm

Pretty good....

-1 reply
cjdabest wrote on July 14 2009, 10:03 pm

loks like version #2

+1 reply
rebornmaster9 wrote on February 4 2010, 06:47 am

a lot shorter to, thank god

I want to post or [tab]
guest
You may want to rate the tab now too:
select rating
Please do not post tabs as comments. Select "correction" instead!